  0
SECTION
  2
HEADER
  9
$ACADVER
  1
AC1009
  9
$INSBASE
 10
0.0
 20
0.0
 30
0.0
  9
$EXTMIN
 10
0.0
 20
-2.960436562073669
 30
0.0
  9
$EXTMAX
 10
471.0
 20
397.0
 30
0.0
  9
$LIMMIN
 10
0.0
 20
0.0
  9
$LIMMAX
 10
1155.0
 20
810.0
  9
$ORTHOMODE
 70
     1
  9
$REGENMODE
 70
     1
  9
$FILLMODE
 70
     1
  9
$QTEXTMODE
 70
     0
  9
$MIRRTEXT
 70
     1
  9
$DRAGMODE
 70
     2
  9
$LTSCALE
 40
20.0
  9
$OSMODE
 70
    37
  9
$ATTMODE
 70
     1
  9
$TEXTSIZE
 40
4.0
  9
$TRACEWID
 40
0.05
  9
$TEXTSTYLE
  7
STANDARD
  9
$CLAYER
  8
0
  9
$CELTYPE
  6
BYLAYER
  9
$CECOLOR
 62
   256
  9
$DIMSCALE
 40
3.0
  9
$DIMASZ
 40
3.0
  9
$DIMEXO
 40
2.0
  9
$DIMDLI
 40
0.38
  9
$DIMRND
 40
0.0
  9
$DIMDLE
 40
0.0
  9
$DIMEXE
 40
2.0
  9
$DIMTP
 40
0.0
  9
$DIMTM
 40
0.0
  9
$DIMTXT
 40
3.0
  9
$DIMCEN
 40
0.0
  9
$DIMTSZ
 40
0.0
  9
$DIMTOL
 70
     0
  9
$DIMLIM
 70
     0
  9
$DIMTIH
 70
     0
  9
$DIMTOH
 70
     0
  9
$DIMSE1
 70
     0
  9
$DIMSE2
 70
     0
  9
$DIMTAD
 70
     1
  9
$DIMZIN
 70
     8
  9
$DIMBLK
  1

  9
$DIMASO
 70
     0
  9
$DIMSHO
 70
     0
  9
$DIMPOST
  1

  9
$DIMAPOST
  1

  9
$DIMALT
 70
     0
  9
$DIMALTD
 70
     2
  9
$DIMALTF
 40
25.399999999999999
  9
$DIMLFAC
 40
1.0
  9
$DIMTOFL
 70
     0
  9
$DIMTVP
 40
1.6000000000000001
  9
$DIMTIX
 70
     1
  9
$DIMSOXD
 70
     0
  9
$DIMSAH
 70
     0
  9
$DIMBLK1
  1

  9
$DIMBLK2
  1

  9
$DIMSTYLE
  2
STANDARD
  9
$DIMCLRD
 70
     4
  9
$DIMCLRE
 70
     4
  9
$DIMCLRT
 70
     4
  9
$DIMTFAC
 40
1.0
  9
$DIMGAP
 40
0.09
  9
$LUNITS
 70
     2
  9
$LUPREC
 70
     1
  9
$SKETCHINC
 40
0.1
  9
$FILLETRAD
 40
3.0
  9
$AUNITS
 70
     0
  9
$AUPREC
 70
     0
  9
$MENU
  1
E:\r13\win\SUPPORT\ACAD
  9
$ELEVATION
 40
0.0
  9
$PELEVATION
 40
0.0
  9
$THICKNESS
 40
0.0
  9
$LIMCHECK
 70
     0
  9
$BLIPMODE
 70
     0
  9
$CHAMFERA
 40
1.1999999999999991
  9
$CHAMFERB
 40
1.1999999999999991
  9
$SKPOLY
 70
     0
  9
$TDCREATE
 40
2450059.5671413201
  9
$TDUPDATE
 40
2459657.6535121528
  9
$TDINDWG
 40
0.3298472801
  9
$TDUSRTIMER
 40
0.3298472801
  9
$USRTIMER
 70
     1
  9
$ANGBASE
 50
0.0
  9
$ANGDIR
 70
     0
  9
$PDMODE
 70
     0
  9
$PDSIZE
 40
0.0
  9
$PLINEWID
 40
0.0
  9
$COORDS
 70
     1
  9
$SPLFRAME
 70
     0
  9
$SPLINETYPE
 70
     6
  9
$SPLINESEGS
 70
     8
  9
$ATTDIA
 70
     0
  9
$ATTREQ
 70
     1
  9
$HANDLING
 70
     1
  9
$HANDSEED
  5
2C19
  9
$SURFTAB1
 70
     6
  9
$SURFTAB2
 70
     6
  9
$SURFTYPE
 70
     6
  9
$SURFU
 70
     6
  9
$SURFV
 70
     6
  9
$UCSNAME
  2

  9
$UCSORG
 10
0.0
 20
0.0
 30
0.0
  9
$UCSXDIR
 10
1.0
 20
0.0
 30
0.0
  9
$UCSYDIR
 10
0.0
 20
1.0
 30
0.0
  9
$PUCSNAME
  2

  9
$PUCSORG
 10
0.0
 20
0.0
 30
0.0
  9
$PUCSXDIR
 10
1.0
 20
0.0
 30
0.0
  9
$PUCSYDIR
 10
0.0
 20
1.0
 30
0.0
  9
$USERI1
 70
     3
  9
$USERI2
 70
     1
  9
$USERI3
 70
     1
  9
$USERI4
 70
     0
  9
$USERI5
 70
     0
  9
$USERR1
 40
3.0
  9
$USERR2
 40
3.0
  9
$USERR3
 40
3.0
  9
$USERR4
 40
3.0
  9
$USERR5
 40
10.0
  9
$WORLDVIEW
 70
     1
  9
$SHADEDGE
 70
     3
  9
$SHADEDIF
 70
    70
  9
$TILEMODE
 70
     1
  9
$MAXACTVP
 70
    16
  9
$PLIMCHECK
 70
     0
  9
$PEXTMIN
 10
1.0000000000000000E+020
 20
1.0000000000000000E+020
 30
1.0000000000000000E+020
  9
$PEXTMAX
 10
-1.0000000000000000E+020
 20
-1.0000000000000000E+020
 30
-1.0000000000000000E+020
  9
$PLIMMIN
 10
0.0
 20
0.0
  9
$PLIMMAX
 10
12.0
 20
9.0
  9
$UNITMODE
 70
     0
  9
$VISRETAIN
 70
     0
  9
$PLINEGEN
 70
     0
  9
$PSLTSCALE
 70
     0
  0
ENDSEC
  0
SECTION
  2
TABLES
  0
TABLE
  2
VPORT
 70
     1
  0
VPORT
  2
*ACTIVE
 70
     0
 10
0.0
 20
0.0
 11
1.0
 21
1.0
 12
965.952080706179
 22
400.0
 13
0.0
 23
0.0
 14
15.0
 24
15.0
 15
10.0
 25
10.0
 16
0.0
 26
0.0
 36
1.0
 17
0.0
 27
0.0
 37
0.0
 40
800.0
 41
2.4148802017654472
 42
50.0
 43
0.0
 44
0.0
 50
0.0
 51
0.0
 71
     0
 72
 10000
 73
     1
 74
     1
 75
     0
 76
     0
 77
     0
 78
     2
  0
ENDTAB
  0
TABLE
  2
LTYPE
 70
     4
  0
LTYPE
  2
CONTINUOUS
 70
     0
  3
実線
 72
    65
 73
     0
 40
0.0
  0
LTYPE
  2
CENTER
 70
     0
  3
____ _ ____ _ ____ _ ____ _ ____ _ ____ _ ____
 72
    65
 73
     4
 40
2.0
 49
1.25
 49
-0.25
 49
0.25
 49
-0.25
  0
LTYPE
  2
HIDDEN
 70
     0
  3
_ _ _ _ _ _ _ _ _ _ _ _ _ _ _ _ _ _ _ _ _ _ _
 72
    65
 73
     2
 40
0.375
 49
0.25
 49
-0.125
  0
LTYPE
  2
PHANTOM2
 70
     0
  3
___ _ _ ___ _ _ ___ _ _ ___ _ _
 72
    65
 73
     6
 40
1.25
 49
0.625
 49
-0.125
 49
0.125
 49
-0.125
 49
0.125
 49
-0.125
  0
ENDTAB
  0
TABLE
  2
LAYER
 70
     5
  0
LAYER
  2
0
 70
     0
 62
     7
  6
CONTINUOUS
  0
LAYER
  2
1
 70
     0
 62
     1
  6
CENTER
  0
LAYER
  2
DEFPOINTS
 70
     0
 62
     7
  6
CONTINUOUS
  0
LAYER
  2
2
 70
     0
 62
     2
  6
HIDDEN
  0
LAYER
  2
3
 70
     0
 62
     3
  6
CONTINUOUS
  0
ENDTAB
  0
TABLE
  2
STYLE
 70
     2
  0
STYLE
  2
STANDARD
 70
     0
 40
0.0
 41
1.0
 50
0.0
 71
     0
 42
4.0
  3
SIMPLEX
  4
BIGFONT
  0
STYLE
  2
STANDARD1
 70
     0
 40
0.0
 41
1.0
 50
0.0
 71
     0
 42
3.0
  3
txt
  4

  0
ENDTAB
  0
TABLE
  2
VIEW
 70
     1
  0
VIEW
  2
ALL
 70
     0
 40
270.0
 10
220.59941989218049
 20
135.0
 41
441.19883978436093
 11
0.0
 21
0.0
 31
1.0
 12
0.0
 22
0.0
 32
0.0
 42
50.0
 43
0.0
 44
0.0
 50
0.0
 71
     0
  0
ENDTAB
  0
TABLE
  2
UCS
 70
     0
  0
ENDTAB
  0
TABLE
  2
APPID
 70
     4
  0
APPID
  2
ACAD
 70
     0
  0
APPID
  2
ACAD_MLEADERVER
 70
     0
  0
APPID
  2
ACAD_EXEMPT_FROM_CAD_STANDARDS
 70
     0
  0
APPID
  2
ACAD_NAV_VCDISPLAY
 70
     0
  0
ENDTAB
  0
TABLE
  2
DIMSTYLE
 70
     1
  0
DIMSTYLE
  2
STANDARD
 70
     0
  3

  4

  5

  6

  7

 40
1.0
 41
0.18
 42
0.0625
 43
0.38
 44
0.18
 45
0.0
 46
0.0
 47
0.0
 48
0.0
140
0.18
141
0.09
142
0.0
143
25.399999999999999
144
1.0
145
0.0
146
1.0
147
0.09
 71
     0
 72
     0
 73
     1
 74
     1
 75
     0
 76
     0
 77
     0
 78
     0
170
     0
171
     2
172
     0
173
     0
174
     0
175
     0
176
     0
177
     0
178
     0
  0
ENDTAB
  0
ENDSEC
  0
SECTION
  2
BLOCKS
  0
BLOCK
  8
0
  2
$MODEL_SPACE
 70
     0
 10
0.0
 20
0.0
 30
0.0
  3
$MODEL_SPACE
  1

  0
ENDBLK
  5
11D9
  8
0
  0
BLOCK
 67
     1
  8
0
  2
$PAPER_SPACE
 70
     0
 10
0.0
 20
0.0
 30
0.0
  3
$PAPER_SPACE
  1

  0
ENDBLK
  5
11D7
 67
     1
  8
0
  0
ENDSEC
  0
SECTION
  2
ENTITIES
  0
TEXT
  5
1F8C
  8
0
 62
     3
 10
0.0
 20
0.0
 30
0.0
 40
10.0
  1
SSR-MH4910
  7
STANDARD1
  0
LINE
  5
2A96
  8
0
 10
238.00000000000011
 20
353.5
 30
0.0
 11
238.00000000000011
 21
271.5
 31
0.0
  0
ARC
  5
2A97
  8
0
 10
257.00000000000011
 20
271.5
 30
0.0
 40
19.0
 50
180.0
 51
270.0
  0
ARC
  5
2A98
  8
0
 10
257.00000000000011
 20
353.5
 30
0.0
 40
19.0
 50
90.0
 51
180.0
  0
LINE
  5
2A99
  8
0
 10
297.00000000000011
 20
252.5
 30
0.0
 11
293.50000000000011
 21
252.5
 31
0.0
  0
LINE
  5
2A9A
  8
0
 10
278.50000000000011
 20
267.5
 30
0.0
 11
278.50000000000011
 21
357.5
 31
0.0
  0
LINE
  5
2A9B
  8
0
 10
312.00000000000011
 20
357.5
 30
0.0
 11
312.00000000000011
 21
267.5
 31
0.0
  0
LINE
  5
2A9C
  8
0
 10
293.50000000000011
 20
372.5
 30
0.0
 11
297.00000000000011
 21
372.5
 31
0.0
  0
ARC
  5
2A9D
  8
0
 10
293.50000000000011
 20
267.5
 30
0.0
 40
15.0
 50
180.0
 51
270.0
  0
ARC
  5
2A9E
  8
0
 10
297.00000000000011
 20
267.5
 30
0.0
 40
15.0
 50
270.0
 51
0.0
  0
ARC
  5
2A9F
  8
0
 10
293.50000000000011
 20
357.5
 30
0.0
 40
15.00000000000003
 50
90.0
 51
180.0
  0
ARC
  5
2AA0
  8
0
 10
297.00000000000011
 20
357.5
 30
0.0
 40
15.0
 50
0.0
 51
90.0
  0
LINE
  5
2AA1
  8
0
 10
275.83480820183752
 20
271.5
 30
0.0
 11
275.83480820183752
 21
353.5
 31
0.0
  0
ARC
  5
2AA2
  8
0
 10
256.9963904320129
 20
271.50360956798733
 30
0.0
 40
18.838418115633459
 50
270.01097825791641
 51
359.98902174208359
  0
ARC
  5
2AA3
  8
0
 10
256.99785533979451
 20
353.4978553397944
 30
0.0
 40
18.836952984131951
 50
0.006523346875175
 51
89.993476653118293
  0
CIRCLE
  5
2AA4
  8
0
 10
349.90636368637149
 20
378.4885231882256
 30
0.0
 40
2.5
  0
CIRCLE
  5
2AA5
  8
0
 10
315.23920835268052
 20
382.58898050179891
 30
0.0
 40
2.5
  0
CIRCLE
  5
2AA6
  8
0
 10
315.23920835268052
 20
242.41101949820111
 30
0.0
 40
2.5
  0
CIRCLE
  5
2AA7
  8
0
 10
349.90636368637149
 20
246.5114768117744
 30
0.0
 40
2.5
  0
CIRCLE
  5
2AA8
  8
0
 10
435.89087296526043
 20
273.60912703473991
 30
0.0
 40
3.2999999999999541
  0
CIRCLE
  5
2AA9
  8
0
 10
358.10912703474003
 20
273.60912703473991
 30
0.0
 40
3.2999999999999541
  0
CIRCLE
  5
2AAA
  8
0
 10
358.10912703474003
 20
351.39087296526009
 30
0.0
 40
3.3000000000000109
  0
CIRCLE
  5
2AAB
  8
0
 10
435.89087296526009
 20
351.39087296526009
 30
0.0
 40
3.3000000000000109
  0
CIRCLE
  5
2AAC
  8
0
 10
397.00000000000011
 20
312.5
 30
0.0
 40
46.00000000000005
  0
ARC
  5
2AAD
  8
0
 10
270.00000000000011
 20
374.0
 30
0.0
 40
13.00000000000003
 50
90.0
 51
180.0
  0
LINE
  5
2AAE
  8
0
 10
311.23384547375338
 20
387.0
 30
0.0
 11
270.00000000000011
 21
387.0
 31
0.0
  0
ARC
  5
2AAF
  8
0
 10
311.23384547375338
 20
374.0
 30
0.0
 40
13.000000000000041
 50
83.254353376298795
 51
90.0
  0
LINE
  5
2AB0
  8
0
 10
404.5175643540822
 20
376.05695261875138
 30
0.0
 11
312.76085073317643
 21
386.91000600068401
 31
0.0
  0
ARC
  5
2AB1
  8
0
 10
397.00000000000011
 20
312.5
 30
0.0
 40
63.999999999999979
 50
276.74564662370119
 51
83.254353376298795
  0
LINE
  5
2AB2
  8
0
 10
312.76085073317643
 20
238.08999399931599
 30
0.0
 11
404.5175643540822
 21
248.94304738124859
 31
0.0
  0
ARC
  5
2AB3
  8
0
 10
311.23384547375338
 20
251.0
 30
0.0
 40
13.00000000000003
 50
270.0
 51
276.74564662370119
  0
LINE
  5
2AB4
  8
0
 10
270.00000000000011
 20
238.0
 30
0.0
 11
311.23384547375338
 21
238.0
 31
0.0
  0
ARC
  5
2AB5
  8
0
 10
270.00000000000011
 20
251.0
 30
0.0
 40
13.0
 50
180.0
 51
270.0
  0
LINE
  5
2AB6
  8
0
 10
257.00000000000011
 20
374.0
 30
0.0
 11
257.00000000000011
 21
372.3348082018374
 31
0.0
  0
LINE
  5
2AB7
  8
0
 10
257.00000000000011
 20
252.6651917981626
 30
0.0
 11
257.00000000000011
 21
251.0
 31
0.0
  0
ARC
  5
2AB8
  8
0
 10
408.00000000000028
 20
260.0
 30
0.0
 40
2.0
 50
0.0
 51
90.0
  0
LINE
  5
2AB9
  8
0
 10
386.00000000000011
 20
262.0
 30
0.0
 11
408.00000000000028
 21
262.0
 31
0.0
  0
ARC
  5
2ABA
  8
0
 10
386.00000000000011
 20
260.0
 30
0.0
 40
2.0
 50
90.0
 51
180.0
  0
LINE
  5
2ABB
  8
0
 10
384.00000000000011
 20
255.0
 30
0.0
 11
384.00000000000011
 21
260.0
 31
0.0
  0
ARC
  5
2ABC
  8
0
 10
386.00000000000011
 20
255.0
 30
0.0
 40
2.0
 50
180.0
 51
270.0
  0
LINE
  5
2ABD
  8
0
 10
408.00000000000028
 20
253.0
 30
0.0
 11
386.00000000000011
 21
253.0
 31
0.0
  0
ARC
  5
2ABE
  8
0
 10
408.00000000000028
 20
255.0
 30
0.0
 40
2.0
 50
270.0
 51
0.0
  0
LINE
  5
2ABF
  8
0
 10
410.00000000000028
 20
260.0
 30
0.0
 11
410.00000000000028
 21
255.0
 31
0.0
  0
ARC
  5
2AC0
  8
0
 10
449.50000000000028
 20
323.49999999999949
 30
0.0
 40
2.0000000000001128
 50
90.0
 51
180.0
  0
LINE
  5
2AC1
  8
0
 10
447.50000000000011
 20
301.4999999999996
 30
0.0
 11
447.50000000000011
 21
323.49999999999949
 31
0.0
  0
ARC
  5
2AC2
  8
0
 10
449.5
 20
301.4999999999996
 30
0.0
 40
2.000000000000056
 50
180.0
 51
270.0
  0
LINE
  5
2AC3
  8
0
 10
454.5
 20
299.4999999999996
 30
0.0
 11
449.5
 21
299.4999999999996
 31
0.0
  0
ARC
  5
2AC4
  8
0
 10
454.5
 20
301.4999999999996
 30
0.0
 40
2.0000000000001128
 50
270.0
 51
0.0
  0
LINE
  5
2AC5
  8
0
 10
456.50000000000028
 20
323.49999999999909
 30
0.0
 11
456.50000000000011
 21
301.49999999999932
 31
0.0
  0
ARC
  5
2AC6
  8
0
 10
454.50000000000028
 20
323.49999999999932
 30
0.0
 40
2.000000000000056
 50
0.0
 51
90.0
  0
LINE
  5
2AC7
  8
0
 10
449.50000000000028
 20
325.49999999999949
 30
0.0
 11
454.50000000000028
 21
325.49999999999949
 31
0.0
  0
ARC
  5
2AC8
  8
0
 10
386.00000000000011
 20
365.0
 30
0.0
 40
2.0
 50
180.0
 51
270.0
  0
LINE
  5
2AC9
  8
0
 10
408.0
 20
363.0
 30
0.0
 11
386.00000000000011
 21
363.0
 31
0.0
  0
ARC
  5
2ACA
  8
0
 10
408.0
 20
365.0
 30
0.0
 40
2.0
 50
270.0
 51
0.0
  0
LINE
  5
2ACB
  8
0
 10
410.00000000000011
 20
370.0
 30
0.0
 11
410.00000000000011
 21
365.0
 31
0.0
  0
ARC
  5
2ACC
  8
0
 10
408.0
 20
370.0
 30
0.0
 40
2.000000000000056
 50
0.0
 51
90.0
  0
LINE
  5
2ACD
  8
0
 10
386.00000000000011
 20
372.0
 30
0.0
 11
408.0
 21
372.0
 31
0.0
  0
ARC
  5
2ACE
  8
0
 10
386.00000000000011
 20
370.0
 30
0.0
 40
2.000000000000056
 50
90.0
 51
180.0
  0
LINE
  5
2ACF
  8
0
 10
384.00000000000011
 20
365.0
 30
0.0
 11
384.00000000000011
 21
370.0
 31
0.0
  0
ARC
  5
2AD0
  8
0
 10
344.50000000000011
 20
301.50000000000023
 30
0.0
 40
2.0
 50
270.0
 51
0.0
  0
LINE
  5
2AD1
  8
0
 10
346.50000000000028
 20
323.50000000000023
 30
0.0
 11
346.50000000000011
 21
301.50000000000023
 31
0.0
  0
ARC
  5
2AD2
  8
0
 10
344.50000000000028
 20
323.50000000000023
 30
0.0
 40
2.0
 50
0.0
 51
90.0
  0
LINE
  5
2AD3
  8
0
 10
339.5000000000004
 20
325.50000000000028
 30
0.0
 11
344.50000000000028
 21
325.50000000000028
 31
0.0
  0
ARC
  5
2AD4
  8
0
 10
339.5000000000004
 20
323.50000000000023
 30
0.0
 40
2.000000000000056
 50
90.0
 51
180.0
  0
LINE
  5
2AD5
  8
0
 10
337.50000000000011
 20
301.50000000000023
 30
0.0
 11
337.50000000000011
 21
323.50000000000023
 31
0.0
  0
ARC
  5
2AD6
  8
0
 10
339.50000000000011
 20
301.50000000000023
 30
0.0
 40
2.0
 50
180.0
 51
270.0
  0
LINE
  5
2AD7
  8
0
 10
344.50000000000011
 20
299.50000000000023
 30
0.0
 11
339.50000000000011
 21
299.50000000000023
 31
0.0
  0
LINE
  5
2AE6
  8
0
 10
100.0
 20
353.5
 30
0.0
 11
100.0
 21
271.5
 31
0.0
  0
LINE
  5
2AE7
  8
0
 10
138.0
 20
271.5
 30
0.0
 11
138.0
 21
353.5
 31
0.0
  0
ARC
  5
2AE9
  8
0
 10
119.0
 20
353.5
 30
0.0
 40
19.000000000000028
 50
0.0
 51
180.0
  0
ARC
  5
2AEA
  8
0
 10
119.0
 20
271.5
 30
0.0
 40
18.999999999999979
 50
180.0
 51
0.0
  0
LINE
  5
2AEE
  8
0
 10
121.5
 20
387.0
 30
0.0
 11
116.5
 21
387.0
 31
0.0
  0
LINE
  5
2AEF
  8
0
 10
121.5
 20
387.0
 30
0.0
 11
121.5
 21
372.3348082018374
 31
0.0
  0
LINE
  5
2AF0
  8
0
 10
116.5
 20
387.0
 30
0.0
 11
116.5
 21
372.3348082018374
 31
0.0
  0
LINE
  5
2AF5
  8
0
 10
121.5
 20
252.6651917981626
 30
0.0
 11
121.5
 21
238.0
 31
0.0
  0
LINE
  5
2AF6
  8
0
 10
116.5
 20
238.0
 30
0.0
 11
121.5
 21
238.0
 31
0.0
  0
LINE
  5
2AF7
  8
0
 10
116.5
 20
252.6651917981626
 30
0.0
 11
116.5
 21
238.0
 31
0.0
  0
LINE
  5
2B29
  8
1
 10
397.00000000000011
 20
237.98415547219449
 30
0.0
 11
397.00000000000011
 21
387.01584452780548
 31
0.0
  0
LINE
  5
2B36
  8
1
 10
228.00000000000011
 20
312.5
 30
0.0
 11
471.0
 21
312.5
 31
0.0
  0
LINE
  5
2B3E
  8
1
 10
119.0
 20
228.0
 30
0.0
 11
119.0
 21
397.0
 31
0.0
  0
CIRCLE
  5
2B61
  8
1
 10
397.00000000000011
 20
312.5
 30
0.0
 40
54.999999999999957
  0
LINE
  5
2B62
  8
1
 10
352.24014075089173
 20
357.25985924910839
 30
0.0
 11
363.97811331858838
 21
345.52188668141167
 31
0.0
  0
LINE
  5
2B63
  8
1
 10
352.24014075089173
 20
267.74014075089161
 30
0.0
 11
363.97811331858838
 21
279.47811331858821
 31
0.0
  0
LINE
  5
2B68
  8
1
 10
430.02188668141213
 20
279.47811331858821
 30
0.0
 11
441.75985924910879
 21
267.74014075089161
 31
0.0
  0
LINE
  5
2B69
  8
1
 10
430.0218866814119
 20
345.52188668141167
 30
0.0
 11
441.7598592491085
 21
357.25985924910839
 31
0.0
  0
LINE
  5
2B9B
  8
0
 10
461.00000000000011
 20
121.5
 30
0.0
 11
461.00000000000011
 21
116.5
 31
0.0
  0
ARC
  5
2B9C
  8
0
 10
257.00000000000011
 20
119.0
 30
0.0
 40
19.000000000000011
 50
7.5608431766698487
 51
352.43915682333341
  0
LINE
  5
2B9D
  8
0
 10
257.00000000000011
 20
116.5
 30
0.0
 11
257.00000000000011
 21
121.5
 31
0.0
  0
LINE
  5
2B9E
  8
0
 10
461.00000000000011
 20
121.5
 30
0.0
 11
257.00000000000011
 21
121.5
 31
0.0
  0
LINE
  5
2B9F
  8
0
 10
461.00000000000011
 20
116.5
 30
0.0
 11
257.00000000000011
 21
116.5
 31
0.0
  0
LINE
  5
2BA0
  8
1
 10
257.00000000000011
 20
90.0
 30
0.0
 11
257.00000000000011
 21
148.0
 31
0.0
  0
LINE
  5
2BA1
  8
1
 10
471.0
 20
119.0
 30
0.0
 11
228.00000000000011
 21
119.0
 31
0.0
  0
ENDSEC
  0
EOF
