  0
SECTION
  2
HEADER
  9
$ACADVER
  1
AC1009
  9
$INSBASE
 10
0.0
 20
0.0
 30
0.0
  9
$EXTMIN
 10
0.0
 20
-2.960436562073669
 30
0.0
  9
$EXTMAX
 10
897.25000000003354
 20
790.00000000006435
 30
0.0
  9
$LIMMIN
 10
0.0
 20
0.0
  9
$LIMMAX
 10
1155.0
 20
810.0
  9
$ORTHOMODE
 70
     1
  9
$REGENMODE
 70
     1
  9
$FILLMODE
 70
     1
  9
$QTEXTMODE
 70
     0
  9
$MIRRTEXT
 70
     1
  9
$DRAGMODE
 70
     2
  9
$LTSCALE
 40
20.0
  9
$OSMODE
 70
    37
  9
$ATTMODE
 70
     1
  9
$TEXTSIZE
 40
4.0
  9
$TRACEWID
 40
0.05
  9
$TEXTSTYLE
  7
STANDARD
  9
$CLAYER
  8
0
  9
$CELTYPE
  6
BYLAYER
  9
$CECOLOR
 62
   256
  9
$DIMSCALE
 40
3.0
  9
$DIMASZ
 40
3.0
  9
$DIMEXO
 40
2.0
  9
$DIMDLI
 40
0.38
  9
$DIMRND
 40
0.0
  9
$DIMDLE
 40
0.0
  9
$DIMEXE
 40
2.0
  9
$DIMTP
 40
0.0
  9
$DIMTM
 40
0.0
  9
$DIMTXT
 40
3.0
  9
$DIMCEN
 40
0.0
  9
$DIMTSZ
 40
0.0
  9
$DIMTOL
 70
     0
  9
$DIMLIM
 70
     0
  9
$DIMTIH
 70
     0
  9
$DIMTOH
 70
     0
  9
$DIMSE1
 70
     0
  9
$DIMSE2
 70
     0
  9
$DIMTAD
 70
     1
  9
$DIMZIN
 70
     8
  9
$DIMBLK
  1

  9
$DIMASO
 70
     0
  9
$DIMSHO
 70
     0
  9
$DIMPOST
  1

  9
$DIMAPOST
  1

  9
$DIMALT
 70
     0
  9
$DIMALTD
 70
     2
  9
$DIMALTF
 40
25.399999999999999
  9
$DIMLFAC
 40
1.0
  9
$DIMTOFL
 70
     0
  9
$DIMTVP
 40
1.6000000000000001
  9
$DIMTIX
 70
     1
  9
$DIMSOXD
 70
     0
  9
$DIMSAH
 70
     0
  9
$DIMBLK1
  1

  9
$DIMBLK2
  1

  9
$DIMSTYLE
  2
STANDARD
  9
$DIMCLRD
 70
     4
  9
$DIMCLRE
 70
     4
  9
$DIMCLRT
 70
     4
  9
$DIMTFAC
 40
1.0
  9
$DIMGAP
 40
0.09
  9
$LUNITS
 70
     2
  9
$LUPREC
 70
     1
  9
$SKETCHINC
 40
0.1
  9
$FILLETRAD
 40
3.0
  9
$AUNITS
 70
     0
  9
$AUPREC
 70
     0
  9
$MENU
  1
E:\r13\win\SUPPORT\ACAD
  9
$ELEVATION
 40
0.0
  9
$PELEVATION
 40
0.0
  9
$THICKNESS
 40
0.0
  9
$LIMCHECK
 70
     0
  9
$BLIPMODE
 70
     0
  9
$CHAMFERA
 40
1.1999999999999991
  9
$CHAMFERB
 40
1.1999999999999991
  9
$SKPOLY
 70
     0
  9
$TDCREATE
 40
2450059.5671413201
  9
$TDUPDATE
 40
2459657.6535077551
  9
$TDINDWG
 40
0.7985751968
  9
$TDUSRTIMER
 40
0.7985751968
  9
$USRTIMER
 70
     1
  9
$ANGBASE
 50
0.0
  9
$ANGDIR
 70
     0
  9
$PDMODE
 70
     0
  9
$PDSIZE
 40
0.0
  9
$PLINEWID
 40
0.0
  9
$COORDS
 70
     1
  9
$SPLFRAME
 70
     0
  9
$SPLINETYPE
 70
     6
  9
$SPLINESEGS
 70
     8
  9
$ATTDIA
 70
     0
  9
$ATTREQ
 70
     1
  9
$HANDLING
 70
     1
  9
$HANDSEED
  5
73C9
  9
$SURFTAB1
 70
     6
  9
$SURFTAB2
 70
     6
  9
$SURFTYPE
 70
     6
  9
$SURFU
 70
     6
  9
$SURFV
 70
     6
  9
$UCSNAME
  2

  9
$UCSORG
 10
0.0
 20
0.0
 30
0.0
  9
$UCSXDIR
 10
1.0
 20
0.0
 30
0.0
  9
$UCSYDIR
 10
0.0
 20
1.0
 30
0.0
  9
$PUCSNAME
  2

  9
$PUCSORG
 10
0.0
 20
0.0
 30
0.0
  9
$PUCSXDIR
 10
1.0
 20
0.0
 30
0.0
  9
$PUCSYDIR
 10
0.0
 20
1.0
 30
0.0
  9
$USERI1
 70
     3
  9
$USERI2
 70
     1
  9
$USERI3
 70
     1
  9
$USERI4
 70
     0
  9
$USERI5
 70
     0
  9
$USERR1
 40
3.0
  9
$USERR2
 40
3.0
  9
$USERR3
 40
3.0
  9
$USERR4
 40
3.0
  9
$USERR5
 40
10.0
  9
$WORLDVIEW
 70
     1
  9
$SHADEDGE
 70
     3
  9
$SHADEDIF
 70
    70
  9
$TILEMODE
 70
     1
  9
$MAXACTVP
 70
    16
  9
$PLIMCHECK
 70
     0
  9
$PEXTMIN
 10
1.0000000000000000E+020
 20
1.0000000000000000E+020
 30
1.0000000000000000E+020
  9
$PEXTMAX
 10
-1.0000000000000000E+020
 20
-1.0000000000000000E+020
 30
-1.0000000000000000E+020
  9
$PLIMMIN
 10
0.0
 20
0.0
  9
$PLIMMAX
 10
12.0
 20
9.0
  9
$UNITMODE
 70
     0
  9
$VISRETAIN
 70
     0
  9
$PLINEGEN
 70
     0
  9
$PSLTSCALE
 70
     0
  0
ENDSEC
  0
SECTION
  2
TABLES
  0
TABLE
  2
VPORT
 70
     1
  0
VPORT
  2
*ACTIVE
 70
     0
 10
0.0
 20
0.0
 11
1.0
 21
1.0
 12
965.952080706179
 22
400.0
 13
0.0
 23
0.0
 14
15.0
 24
15.0
 15
10.0
 25
10.0
 16
0.0
 26
0.0
 36
1.0
 17
0.0
 27
0.0
 37
0.0
 40
800.0
 41
2.4148802017654472
 42
50.0
 43
0.0
 44
0.0
 50
0.0
 51
0.0
 71
     0
 72
 10000
 73
     1
 74
     1
 75
     0
 76
     0
 77
     0
 78
     2
  0
ENDTAB
  0
TABLE
  2
LTYPE
 70
     4
  0
LTYPE
  2
CONTINUOUS
 70
     0
  3
実線
 72
    65
 73
     0
 40
0.0
  0
LTYPE
  2
CENTER
 70
     0
  3
____ _ ____ _ ____ _ ____ _ ____ _ ____ _ ____
 72
    65
 73
     4
 40
2.0
 49
1.25
 49
-0.25
 49
0.25
 49
-0.25
  0
LTYPE
  2
HIDDEN
 70
     0
  3
_ _ _ _ _ _ _ _ _ _ _ _ _ _ _ _ _ _ _ _ _ _ _
 72
    65
 73
     2
 40
0.375
 49
0.25
 49
-0.125
  0
LTYPE
  2
PHANTOM2
 70
     0
  3
___ _ _ ___ _ _ ___ _ _ ___ _ _
 72
    65
 73
     6
 40
1.25
 49
0.625
 49
-0.125
 49
0.125
 49
-0.125
 49
0.125
 49
-0.125
  0
ENDTAB
  0
TABLE
  2
LAYER
 70
     5
  0
LAYER
  2
0
 70
     0
 62
     7
  6
CONTINUOUS
  0
LAYER
  2
1
 70
     0
 62
     1
  6
CENTER
  0
LAYER
  2
DEFPOINTS
 70
     0
 62
     7
  6
CONTINUOUS
  0
LAYER
  2
2
 70
     0
 62
     2
  6
HIDDEN
  0
LAYER
  2
3
 70
     0
 62
     3
  6
CONTINUOUS
  0
ENDTAB
  0
TABLE
  2
STYLE
 70
     2
  0
STYLE
  2
STANDARD
 70
     0
 40
0.0
 41
1.0
 50
0.0
 71
     0
 42
4.0
  3
SIMPLEX
  4
BIGFONT
  0
STYLE
  2
STANDARD1
 70
     0
 40
0.0
 41
1.0
 50
0.0
 71
     0
 42
3.0
  3
txt
  4

  0
ENDTAB
  0
TABLE
  2
VIEW
 70
     1
  0
VIEW
  2
ALL
 70
     0
 40
270.0
 10
220.59941989218049
 20
135.0
 41
441.19883978436093
 11
0.0
 21
0.0
 31
1.0
 12
0.0
 22
0.0
 32
0.0
 42
50.0
 43
0.0
 44
0.0
 50
0.0
 71
     0
  0
ENDTAB
  0
TABLE
  2
UCS
 70
     0
  0
ENDTAB
  0
TABLE
  2
APPID
 70
     4
  0
APPID
  2
ACAD
 70
     0
  0
APPID
  2
ACAD_MLEADERVER
 70
     0
  0
APPID
  2
ACAD_EXEMPT_FROM_CAD_STANDARDS
 70
     0
  0
APPID
  2
ACAD_NAV_VCDISPLAY
 70
     0
  0
ENDTAB
  0
TABLE
  2
DIMSTYLE
 70
     1
  0
DIMSTYLE
  2
STANDARD
 70
     0
  3

  4

  5

  6

  7

 40
1.0
 41
0.18
 42
0.0625
 43
0.38
 44
0.18
 45
0.0
 46
0.0
 47
0.0
 48
0.0
140
0.18
141
0.09
142
0.0
143
25.399999999999999
144
1.0
145
0.0
146
1.0
147
0.09
 71
     0
 72
     0
 73
     1
 74
     1
 75
     0
 76
     0
 77
     0
 78
     0
170
     0
171
     2
172
     0
173
     0
174
     0
175
     0
176
     0
177
     0
178
     0
  0
ENDTAB
  0
ENDSEC
  0
SECTION
  2
BLOCKS
  0
BLOCK
  8
0
  2
$MODEL_SPACE
 70
     0
 10
0.0
 20
0.0
 30
0.0
  3
$MODEL_SPACE
  1

  0
ENDBLK
  5
11D9
  8
0
  0
BLOCK
 67
     1
  8
0
  2
$PAPER_SPACE
 70
     0
 10
0.0
 20
0.0
 30
0.0
  3
$PAPER_SPACE
  1

  0
ENDBLK
  5
11D7
 67
     1
  8
0
  0
ENDSEC
  0
SECTION
  2
ENTITIES
  0
TEXT
  5
1F8C
  8
0
 62
     3
 10
0.0
 20
0.0
 30
0.0
 40
10.0
  1
SSR-MB4002
  7
STANDARD1
  0
LINE
  5
651A
  8
0
 10
290.0
 20
448.250000000032
 30
0.0
 11
289.5
 21
448.750000000032
 31
0.0
  0
LINE
  5
651B
  8
0
 10
100.5
 20
448.750000000032
 30
0.0
 11
100.0
 21
448.250000000032
 31
0.0
  0
LINE
  5
651C
  8
0
 10
290.0
 20
439.10645539684162
 30
0.0
 11
290.0
 21
448.250000000032
 31
0.0
  0
LINE
  5
651D
  8
0
 10
290.0
 20
424.11475682367762
 30
0.0
 11
290.0
 21
432.39354460322249
 31
0.0
  0
LINE
  5
651E
  8
0
 10
100.0
 20
448.250000000032
 30
0.0
 11
100.0
 21
424.11475682367762
 31
0.0
  0
LINE
  5
651F
  8
0
 10
99.999999999998181
 20
424.11475682367762
 30
0.0
 11
101.54989906787161
 21
423.750000000032
 31
0.0
  0
LINE
  5
6520
  8
0
 10
288.4501009321271
 20
423.750000000032
 30
0.0
 11
290.00000000000051
 21
424.11475682367762
 31
0.0
  0
LINE
  5
6521
  8
0
 10
100.0
 20
462.75000000003212
 30
0.0
 11
100.0
 21
450.25000000003212
 31
0.0
  0
LINE
  5
6522
  8
0
 10
290.0
 20
450.25000000003212
 30
0.0
 11
290.0
 21
462.75000000003212
 31
0.0
  0
LINE
  5
6523
  8
0
 10
135.0
 20
423.750000000032
 30
0.0
 11
135.0
 21
422.750000000032
 31
0.0
  0
LINE
  5
6524
  8
0
 10
135.0
 20
450.25000000003212
 30
0.0
 11
135.0
 21
448.750000000032
 31
0.0
  0
LINE
  5
6525
  8
0
 10
255.0
 20
448.750000000032
 30
0.0
 11
255.0
 21
450.25000000003212
 31
0.0
  0
LINE
  5
6526
  8
0
 10
255.0
 20
422.750000000032
 30
0.0
 11
255.0
 21
423.750000000032
 31
0.0
  0
CIRCLE
  5
6527
  8
0
 10
195.0
 20
429.750000000032
 30
0.0
 40
3.9999999999681668
  0
ARC
  5
6528
  8
0
 10
195.0
 20
429.750000000032
 30
0.0
 40
12.500000000000011
 50
208.68540201411199
 51
331.31459798588787
  0
LINE
  5
652B
  8
0
 10
245.0
 20
436.250000000032
 30
0.0
 11
145.0
 21
436.250000000032
 31
0.0
  0
LINE
  5
652E
  8
0
 10
289.50000000000023
 20
448.750000000032
 30
0.0
 11
100.4999999999995
 21
448.750000000032
 31
0.0
  0
ARC
  5
652F
  8
0
 10
380.11694128945669
 20
435.70638760745823
 30
0.0
 40
90.177813436222209
 50
179.97229023380399
 51
182.10533651022121
  0
POLYLINE
  5
6530
  8
0
 66
     1
 10
0.0
 20
0.0
 30
0.0
 70
   128
  0
VERTEX
  5
70AA
  8
0
 10
290.0
 20
439.10645539684162
 30
0.0
  0
VERTEX
  5
70AB
  8
0
 10
289.98835029209522
 20
438.80723587803868
 30
0.0
  0
VERTEX
  5
70AC
  8
0
 10
289.96928872120111
 20
438.14286443640628
 30
0.0
  0
VERTEX
  5
70AD
  8
0
 10
289.95033928579352
 20
437.20839997510501
 30
0.0
  0
VERTEX
  5
70AE
  8
0
 10
289.93981856245392
 20
436.10937260842371
 30
0.0
  0
VERTEX
  5
70AF
  8
0
 10
289.93913839929252
 20
435.75000000003212
 30
0.0
  0
SEQEND
  5
70B0
  8
0
  0
LINE
  5
6535
  8
0
 10
143.45010093212571
 20
423.7500000000316
 30
0.0
 11
101.54989906787161
 21
423.750000000032
 31
0.0
  0
LINE
  5
6536
  8
0
 10
288.4501009321271
 20
423.750000000032
 30
0.0
 11
246.5498990678727
 21
423.75000000003217
 31
0.0
  0
LINE
  5
6539
  8
0
 10
245.0
 20
424.11475682367751
 30
0.0
 11
244.99999999652621
 21
436.250000000032
 31
0.0
  0
LINE
  5
653B
  8
0
 10
246.5498990678727
 20
423.75000000003217
 30
0.0
 11
245.0
 21
424.11475682367751
 31
0.0
  0
LINE
  5
653D
  8
0
 10
145.0
 20
424.11475682367751
 30
0.0
 11
143.45010093212571
 21
423.7500000000316
 31
0.0
  0
LINE
  5
653E
  8
0
 10
145.0
 20
436.250000000032
 30
0.0
 11
145.0
 21
424.11475682367751
 31
0.0
  0
CIRCLE
  5
6540
  8
3
 10
195.0
 20
429.750000000032
 30
0.0
 40
3.4000000000000901
  0
LINE
  5
6541
  8
0
 10
182.5
 20
423.750000000032
 30
0.0
 11
207.5
 21
423.750000000032
 31
0.0
  0
LINE
  5
6542
  8
0
 10
290.0
 20
462.75000000003212
 30
0.0
 11
100.0
 21
462.75000000003212
 31
0.0
  0
LINE
  5
6543
  8
0
 10
290.0
 20
450.25000000003212
 30
0.0
 11
100.0
 21
450.25000000003212
 31
0.0
  0
LINE
  5
6544
  8
0
 10
135.0
 20
422.750000000032
 30
0.0
 11
182.5
 21
422.750000000032
 31
0.0
  0
LINE
  5
6545
  8
0
 10
207.5
 20
422.750000000032
 30
0.0
 11
255.0
 21
422.750000000032
 31
0.0
  0
LINE
  5
6546
  8
0
 10
207.5
 20
427.76796426259477
 30
0.0
 11
207.5
 21
422.750000000032
 31
0.0
  0
POLYLINE
  5
6547
  8
0
 10
212.51833649202368
 20
435.25000000002967
 30
0.0
 66
     1
 70
     8
  0
VERTEX
  8
0
  5
70BD
 10
212.518
 20
435.250
 30
0.000000
  70
    32
  0
VERTEX
  8
0
  5
70BE
 10
212.480
 20
435.193
 30
0.000000
  70
    32
  0
VERTEX
  8
0
  5
70BF
 10
212.441
 20
435.136
 30
0.000000
  70
    32
  0
VERTEX
  8
0
  5
70C0
 10
212.402
 20
435.080
 30
0.000000
  70
    32
  0
VERTEX
  8
0
  5
70C1
 10
212.363
 20
435.023
 30
0.000000
  70
    32
  0
VERTEX
  8
0
  5
70C2
 10
212.325
 20
434.966
 30
0.000000
  70
    32
  0
VERTEX
  8
0
  5
70C3
 10
212.286
 20
434.909
 30
0.000000
  70
    32
  0
VERTEX
  8
0
  5
70C4
 10
212.247
 20
434.852
 30
0.000000
  70
    32
  0
VERTEX
  8
0
  5
70C5
 10
212.208
 20
434.795
 30
0.000000
  70
    32
  0
VERTEX
  8
0
  5
70C6
 10
212.169
 20
434.738
 30
0.000000
  70
    32
  0
VERTEX
  8
0
  5
70C7
 10
212.131
 20
434.681
 30
0.000000
  70
    32
  0
VERTEX
  8
0
  5
70C8
 10
212.092
 20
434.624
 30
0.000000
  70
    32
  0
VERTEX
  8
0
  5
70C9
 10
212.053
 20
434.567
 30
0.000000
  70
    32
  0
VERTEX
  8
0
  5
70CA
 10
212.014
 20
434.510
 30
0.000000
  70
    32
  0
VERTEX
  8
0
  5
70CB
 10
211.975
 20
434.453
 30
0.000000
  70
    32
  0
VERTEX
  8
0
  5
70CC
 10
211.936
 20
434.396
 30
0.000000
  70
    32
  0
VERTEX
  8
0
  5
70CD
 10
211.897
 20
434.339
 30
0.000000
  70
    32
  0
VERTEX
  8
0
  5
70CE
 10
211.859
 20
434.281
 30
0.000000
  70
    32
  0
VERTEX
  8
0
  5
70CF
 10
211.820
 20
434.224
 30
0.000000
  70
    32
  0
VERTEX
  8
0
  5
70D0
 10
211.781
 20
434.167
 30
0.000000
  70
    32
  0
VERTEX
  8
0
  5
70D1
 10
211.742
 20
434.110
 30
0.000000
  70
    32
  0
VERTEX
  8
0
  5
70D2
 10
211.703
 20
434.052
 30
0.000000
  70
    32
  0
VERTEX
  8
0
  5
70D3
 10
211.664
 20
433.995
 30
0.000000
  70
    32
  0
VERTEX
  8
0
  5
70D4
 10
211.625
 20
433.938
 30
0.000000
  70
    32
  0
VERTEX
  8
0
  5
70D5
 10
211.586
 20
433.880
 30
0.000000
  70
    32
  0
VERTEX
  8
0
  5
70D6
 10
211.547
 20
433.823
 30
0.000000
  70
    32
  0
VERTEX
  8
0
  5
70D7
 10
211.508
 20
433.765
 30
0.000000
  70
    32
  0
VERTEX
  8
0
  5
70D8
 10
211.469
 20
433.708
 30
0.000000
  70
    32
  0
VERTEX
  8
0
  5
70D9
 10
211.430
 20
433.650
 30
0.000000
  70
    32
  0
VERTEX
  8
0
  5
70DA
 10
211.391
 20
433.593
 30
0.000000
  70
    32
  0
VERTEX
  8
0
  5
70DB
 10
211.353
 20
433.535
 30
0.000000
  70
    32
  0
VERTEX
  8
0
  5
70DC
 10
211.314
 20
433.478
 30
0.000000
  70
    32
  0
VERTEX
  8
0
  5
70DD
 10
211.275
 20
433.420
 30
0.000000
  70
    32
  0
VERTEX
  8
0
  5
70DE
 10
211.236
 20
433.363
 30
0.000000
  70
    32
  0
VERTEX
  8
0
  5
70DF
 10
211.197
 20
433.305
 30
0.000000
  70
    32
  0
VERTEX
  8
0
  5
70E0
 10
211.158
 20
433.247
 30
0.000000
  70
    32
  0
VERTEX
  8
0
  5
70E1
 10
211.119
 20
433.189
 30
0.000000
  70
    32
  0
VERTEX
  8
0
  5
70E2
 10
211.080
 20
433.132
 30
0.000000
  70
    32
  0
VERTEX
  8
0
  5
70E3
 10
211.040
 20
433.074
 30
0.000000
  70
    32
  0
VERTEX
  8
0
  5
70E4
 10
211.001
 20
433.016
 30
0.000000
  70
    32
  0
VERTEX
  8
0
  5
70E5
 10
210.962
 20
432.958
 30
0.000000
  70
    32
  0
VERTEX
  8
0
  5
70E6
 10
210.923
 20
432.900
 30
0.000000
  70
    32
  0
VERTEX
  8
0
  5
70E7
 10
210.884
 20
432.843
 30
0.000000
  70
    32
  0
VERTEX
  8
0
  5
70E8
 10
210.845
 20
432.785
 30
0.000000
  70
    32
  0
VERTEX
  8
0
  5
70E9
 10
210.806
 20
432.727
 30
0.000000
  70
    32
  0
VERTEX
  8
0
  5
70EA
 10
210.767
 20
432.669
 30
0.000000
  70
    32
  0
VERTEX
  8
0
  5
70EB
 10
210.728
 20
432.611
 30
0.000000
  70
    32
  0
VERTEX
  8
0
  5
70EC
 10
210.689
 20
432.553
 30
0.000000
  70
    32
  0
VERTEX
  8
0
  5
70ED
 10
210.650
 20
432.495
 30
0.000000
  70
    32
  0
VERTEX
  8
0
  5
70EE
 10
210.611
 20
432.437
 30
0.000000
  70
    32
  0
VERTEX
  8
0
  5
70EF
 10
210.572
 20
432.379
 30
0.000000
  70
    32
  0
VERTEX
  8
0
  5
70F0
 10
210.532
 20
432.321
 30
0.000000
  70
    32
  0
VERTEX
  8
0
  5
70F1
 10
210.493
 20
432.262
 30
0.000000
  70
    32
  0
VERTEX
  8
0
  5
70F2
 10
210.454
 20
432.204
 30
0.000000
  70
    32
  0
VERTEX
  8
0
  5
70F3
 10
210.415
 20
432.146
 30
0.000000
  70
    32
  0
VERTEX
  8
0
  5
70F4
 10
210.376
 20
432.088
 30
0.000000
  70
    32
  0
VERTEX
  8
0
  5
70F5
 10
210.337
 20
432.030
 30
0.000000
  70
    32
  0
VERTEX
  8
0
  5
70F6
 10
210.298
 20
431.971
 30
0.000000
  70
    32
  0
VERTEX
  8
0
  5
70F7
 10
210.258
 20
431.913
 30
0.000000
  70
    32
  0
VERTEX
  8
0
  5
70F8
 10
210.219
 20
431.855
 30
0.000000
  70
    32
  0
VERTEX
  8
0
  5
70F9
 10
210.180
 20
431.796
 30
0.000000
  70
    32
  0
VERTEX
  8
0
  5
70FA
 10
210.141
 20
431.738
 30
0.000000
  70
    32
  0
VERTEX
  8
0
  5
70FB
 10
210.102
 20
431.679
 30
0.000000
  70
    32
  0
VERTEX
  8
0
  5
70FC
 10
210.062
 20
431.621
 30
0.000000
  70
    32
  0
VERTEX
  8
0
  5
70FD
 10
210.023
 20
431.563
 30
0.000000
  70
    32
  0
VERTEX
  8
0
  5
70FE
 10
209.984
 20
431.504
 30
0.000000
  70
    32
  0
VERTEX
  8
0
  5
70FF
 10
209.945
 20
431.446
 30
0.000000
  70
    32
  0
VERTEX
  8
0
  5
7100
 10
209.906
 20
431.387
 30
0.000000
  70
    32
  0
VERTEX
  8
0
  5
7101
 10
209.866
 20
431.328
 30
0.000000
  70
    32
  0
VERTEX
  8
0
  5
7102
 10
209.827
 20
431.270
 30
0.000000
  70
    32
  0
VERTEX
  8
0
  5
7103
 10
209.788
 20
431.211
 30
0.000000
  70
    32
  0
VERTEX
  8
0
  5
7104
 10
209.748
 20
431.153
 30
0.000000
  70
    32
  0
VERTEX
  8
0
  5
7105
 10
209.709
 20
431.094
 30
0.000000
  70
    32
  0
VERTEX
  8
0
  5
7106
 10
209.670
 20
431.035
 30
0.000000
  70
    32
  0
VERTEX
  8
0
  5
7107
 10
209.631
 20
430.977
 30
0.000000
  70
    32
  0
VERTEX
  8
0
  5
7108
 10
209.591
 20
430.918
 30
0.000000
  70
    32
  0
VERTEX
  8
0
  5
7109
 10
209.552
 20
430.859
 30
0.000000
  70
    32
  0
VERTEX
  8
0
  5
710A
 10
209.513
 20
430.800
 30
0.000000
  70
    32
  0
VERTEX
  8
0
  5
710B
 10
209.473
 20
430.741
 30
0.000000
  70
    32
  0
VERTEX
  8
0
  5
710C
 10
209.434
 20
430.683
 30
0.000000
  70
    32
  0
VERTEX
  8
0
  5
710D
 10
209.395
 20
430.624
 30
0.000000
  70
    32
  0
VERTEX
  8
0
  5
710E
 10
209.356
 20
430.565
 30
0.000000
  70
    32
  0
VERTEX
  8
0
  5
710F
 10
209.316
 20
430.506
 30
0.000000
  70
    32
  0
VERTEX
  8
0
  5
7110
 10
209.277
 20
430.447
 30
0.000000
  70
    32
  0
VERTEX
  8
0
  5
7111
 10
209.237
 20
430.388
 30
0.000000
  70
    32
  0
VERTEX
  8
0
  5
7112
 10
209.198
 20
430.329
 30
0.000000
  70
    32
  0
VERTEX
  8
0
  5
7113
 10
209.159
 20
430.270
 30
0.000000
  70
    32
  0
VERTEX
  8
0
  5
7114
 10
209.119
 20
430.211
 30
0.000000
  70
    32
  0
VERTEX
  8
0
  5
7115
 10
209.080
 20
430.152
 30
0.000000
  70
    32
  0
VERTEX
  8
0
  5
7116
 10
209.041
 20
430.093
 30
0.000000
  70
    32
  0
VERTEX
  8
0
  5
7117
 10
209.001
 20
430.034
 30
0.000000
  70
    32
  0
VERTEX
  8
0
  5
7118
 10
208.962
 20
429.974
 30
0.000000
  70
    32
  0
VERTEX
  8
0
  5
7119
 10
208.922
 20
429.915
 30
0.000000
  70
    32
  0
VERTEX
  8
0
  5
711A
 10
208.883
 20
429.856
 30
0.000000
  70
    32
  0
VERTEX
  8
0
  5
711B
 10
208.844
 20
429.797
 30
0.000000
  70
    32
  0
VERTEX
  8
0
  5
711C
 10
208.804
 20
429.738
 30
0.000000
  70
    32
  0
VERTEX
  8
0
  5
711D
 10
208.765
 20
429.678
 30
0.000000
  70
    32
  0
VERTEX
  8
0
  5
711E
 10
208.725
 20
429.619
 30
0.000000
  70
    32
  0
VERTEX
  8
0
  5
711F
 10
208.686
 20
429.560
 30
0.000000
  70
    32
  0
VERTEX
  8
0
  5
7120
 10
208.646
 20
429.500
 30
0.000000
  70
    32
  0
VERTEX
  8
0
  5
7121
 10
208.607
 20
429.441
 30
0.000000
  70
    32
  0
VERTEX
  8
0
  5
7122
 10
208.568
 20
429.381
 30
0.000000
  70
    32
  0
VERTEX
  8
0
  5
7123
 10
208.528
 20
429.322
 30
0.000000
  70
    32
  0
VERTEX
  8
0
  5
7124
 10
208.489
 20
429.263
 30
0.000000
  70
    32
  0
VERTEX
  8
0
  5
7125
 10
208.449
 20
429.203
 30
0.000000
  70
    32
  0
VERTEX
  8
0
  5
7126
 10
208.410
 20
429.144
 30
0.000000
  70
    32
  0
VERTEX
  8
0
  5
7127
 10
208.370
 20
429.084
 30
0.000000
  70
    32
  0
VERTEX
  8
0
  5
7128
 10
208.331
 20
429.024
 30
0.000000
  70
    32
  0
VERTEX
  8
0
  5
7129
 10
208.291
 20
428.965
 30
0.000000
  70
    32
  0
VERTEX
  8
0
  5
712A
 10
208.252
 20
428.905
 30
0.000000
  70
    32
  0
VERTEX
  8
0
  5
712B
 10
208.212
 20
428.846
 30
0.000000
  70
    32
  0
VERTEX
  8
0
  5
712C
 10
208.173
 20
428.786
 30
0.000000
  70
    32
  0
VERTEX
  8
0
  5
712D
 10
208.133
 20
428.726
 30
0.000000
  70
    32
  0
VERTEX
  8
0
  5
712E
 10
208.094
 20
428.667
 30
0.000000
  70
    32
  0
VERTEX
  8
0
  5
712F
 10
208.054
 20
428.607
 30
0.000000
  70
    32
  0
VERTEX
  8
0
  5
7130
 10
208.015
 20
428.547
 30
0.000000
  70
    32
  0
VERTEX
  8
0
  5
7131
 10
207.975
 20
428.487
 30
0.000000
  70
    32
  0
VERTEX
  8
0
  5
7132
 10
207.935
 20
428.427
 30
0.000000
  70
    32
  0
VERTEX
  8
0
  5
7133
 10
207.896
 20
428.368
 30
0.000000
  70
    32
  0
VERTEX
  8
0
  5
7134
 10
207.856
 20
428.308
 30
0.000000
  70
    32
  0
VERTEX
  8
0
  5
7135
 10
207.817
 20
428.248
 30
0.000000
  70
    32
  0
VERTEX
  8
0
  5
7136
 10
207.777
 20
428.188
 30
0.000000
  70
    32
  0
VERTEX
  8
0
  5
7137
 10
207.738
 20
428.128
 30
0.000000
  70
    32
  0
VERTEX
  8
0
  5
7138
 10
207.698
 20
428.068
 30
0.000000
  70
    32
  0
VERTEX
  8
0
  5
7139
 10
207.658
 20
428.008
 30
0.000000
  70
    32
  0
VERTEX
  8
0
  5
713A
 10
207.619
 20
427.948
 30
0.000000
  70
    32
  0
VERTEX
  8
0
  5
713B
 10
207.579
 20
427.888
 30
0.000000
  70
    32
  0
VERTEX
  8
0
  5
713C
 10
207.540
 20
427.828
 30
0.000000
  70
    32
  0
VERTEX
  8
0
  5
713D
 10
207.500
 20
427.768
 30
0.000000
  70
    32
  0
SEQEND
  8
0
  5
713E
  0
LINE
  5
6548
  8
0
 10
177.48166350797459
 20
435.250000000032
 30
0.0
 11
212.5183364920253
 21
435.250000000032
 31
0.0
  0
POLYLINE
  5
6549
  8
0
 10
182.50000000000003
 20
427.767964262595
 30
0.0
 66
     1
 70
     8
  0
VERTEX
  8
0
  5
713F
 10
182.500
 20
427.768
 30
0.000000
  70
    32
  0
VERTEX
  8
0
  5
7140
 10
182.460
 20
427.828
 30
0.000000
  70
    32
  0
VERTEX
  8
0
  5
7141
 10
182.421
 20
427.888
 30
0.000000
  70
    32
  0
VERTEX
  8
0
  5
7142
 10
182.381
 20
427.948
 30
0.000000
  70
    32
  0
VERTEX
  8
0
  5
7143
 10
182.342
 20
428.008
 30
0.000000
  70
    32
  0
VERTEX
  8
0
  5
7144
 10
182.302
 20
428.068
 30
0.000000
  70
    32
  0
VERTEX
  8
0
  5
7145
 10
182.262
 20
428.128
 30
0.000000
  70
    32
  0
VERTEX
  8
0
  5
7146
 10
182.223
 20
428.188
 30
0.000000
  70
    32
  0
VERTEX
  8
0
  5
7147
 10
182.183
 20
428.248
 30
0.000000
  70
    32
  0
VERTEX
  8
0
  5
7148
 10
182.144
 20
428.308
 30
0.000000
  70
    32
  0
VERTEX
  8
0
  5
7149
 10
182.104
 20
428.368
 30
0.000000
  70
    32
  0
VERTEX
  8
0
  5
714A
 10
182.065
 20
428.427
 30
0.000000
  70
    32
  0
VERTEX
  8
0
  5
714B
 10
182.025
 20
428.487
 30
0.000000
  70
    32
  0
VERTEX
  8
0
  5
714C
 10
181.985
 20
428.547
 30
0.000000
  70
    32
  0
VERTEX
  8
0
  5
714D
 10
181.946
 20
428.607
 30
0.000000
  70
    32
  0
VERTEX
  8
0
  5
714E
 10
181.906
 20
428.667
 30
0.000000
  70
    32
  0
VERTEX
  8
0
  5
714F
 10
181.867
 20
428.726
 30
0.000000
  70
    32
  0
VERTEX
  8
0
  5
7150
 10
181.827
 20
428.786
 30
0.000000
  70
    32
  0
VERTEX
  8
0
  5
7151
 10
181.788
 20
428.846
 30
0.000000
  70
    32
  0
VERTEX
  8
0
  5
7152
 10
181.748
 20
428.905
 30
0.000000
  70
    32
  0
VERTEX
  8
0
  5
7153
 10
181.709
 20
428.965
 30
0.000000
  70
    32
  0
VERTEX
  8
0
  5
7154
 10
181.669
 20
429.024
 30
0.000000
  70
    32
  0
VERTEX
  8
0
  5
7155
 10
181.630
 20
429.084
 30
0.000000
  70
    32
  0
VERTEX
  8
0
  5
7156
 10
181.590
 20
429.144
 30
0.000000
  70
    32
  0
VERTEX
  8
0
  5
7157
 10
181.551
 20
429.203
 30
0.000000
  70
    32
  0
VERTEX
  8
0
  5
7158
 10
181.511
 20
429.263
 30
0.000000
  70
    32
  0
VERTEX
  8
0
  5
7159
 10
181.472
 20
429.322
 30
0.000000
  70
    32
  0
VERTEX
  8
0
  5
715A
 10
181.432
 20
429.381
 30
0.000000
  70
    32
  0
VERTEX
  8
0
  5
715B
 10
181.393
 20
429.441
 30
0.000000
  70
    32
  0
VERTEX
  8
0
  5
715C
 10
181.354
 20
429.500
 30
0.000000
  70
    32
  0
VERTEX
  8
0
  5
715D
 10
181.314
 20
429.560
 30
0.000000
  70
    32
  0
VERTEX
  8
0
  5
715E
 10
181.275
 20
429.619
 30
0.000000
  70
    32
  0
VERTEX
  8
0
  5
715F
 10
181.235
 20
429.678
 30
0.000000
  70
    32
  0
VERTEX
  8
0
  5
7160
 10
181.196
 20
429.738
 30
0.000000
  70
    32
  0
VERTEX
  8
0
  5
7161
 10
181.156
 20
429.797
 30
0.000000
  70
    32
  0
VERTEX
  8
0
  5
7162
 10
181.117
 20
429.856
 30
0.000000
  70
    32
  0
VERTEX
  8
0
  5
7163
 10
181.078
 20
429.915
 30
0.000000
  70
    32
  0
VERTEX
  8
0
  5
7164
 10
181.038
 20
429.974
 30
0.000000
  70
    32
  0
VERTEX
  8
0
  5
7165
 10
180.999
 20
430.034
 30
0.000000
  70
    32
  0
VERTEX
  8
0
  5
7166
 10
180.959
 20
430.093
 30
0.000000
  70
    32
  0
VERTEX
  8
0
  5
7167
 10
180.920
 20
430.152
 30
0.000000
  70
    32
  0
VERTEX
  8
0
  5
7168
 10
180.881
 20
430.211
 30
0.000000
  70
    32
  0
VERTEX
  8
0
  5
7169
 10
180.841
 20
430.270
 30
0.000000
  70
    32
  0
VERTEX
  8
0
  5
716A
 10
180.802
 20
430.329
 30
0.000000
  70
    32
  0
VERTEX
  8
0
  5
716B
 10
180.763
 20
430.388
 30
0.000000
  70
    32
  0
VERTEX
  8
0
  5
716C
 10
180.723
 20
430.447
 30
0.000000
  70
    32
  0
VERTEX
  8
0
  5
716D
 10
180.684
 20
430.506
 30
0.000000
  70
    32
  0
VERTEX
  8
0
  5
716E
 10
180.644
 20
430.565
 30
0.000000
  70
    32
  0
VERTEX
  8
0
  5
716F
 10
180.605
 20
430.624
 30
0.000000
  70
    32
  0
VERTEX
  8
0
  5
7170
 10
180.566
 20
430.683
 30
0.000000
  70
    32
  0
VERTEX
  8
0
  5
7171
 10
180.527
 20
430.741
 30
0.000000
  70
    32
  0
VERTEX
  8
0
  5
7172
 10
180.487
 20
430.800
 30
0.000000
  70
    32
  0
VERTEX
  8
0
  5
7173
 10
180.448
 20
430.859
 30
0.000000
  70
    32
  0
VERTEX
  8
0
  5
7174
 10
180.409
 20
430.918
 30
0.000000
  70
    32
  0
VERTEX
  8
0
  5
7175
 10
180.369
 20
430.977
 30
0.000000
  70
    32
  0
VERTEX
  8
0
  5
7176
 10
180.330
 20
431.035
 30
0.000000
  70
    32
  0
VERTEX
  8
0
  5
7177
 10
180.291
 20
431.094
 30
0.000000
  70
    32
  0
VERTEX
  8
0
  5
7178
 10
180.252
 20
431.153
 30
0.000000
  70
    32
  0
VERTEX
  8
0
  5
7179
 10
180.212
 20
431.211
 30
0.000000
  70
    32
  0
VERTEX
  8
0
  5
717A
 10
180.173
 20
431.270
 30
0.000000
  70
    32
  0
VERTEX
  8
0
  5
717B
 10
180.134
 20
431.328
 30
0.000000
  70
    32
  0
VERTEX
  8
0
  5
717C
 10
180.094
 20
431.387
 30
0.000000
  70
    32
  0
VERTEX
  8
0
  5
717D
 10
180.055
 20
431.446
 30
0.000000
  70
    32
  0
VERTEX
  8
0
  5
717E
 10
180.016
 20
431.504
 30
0.000000
  70
    32
  0
VERTEX
  8
0
  5
717F
 10
179.977
 20
431.563
 30
0.000000
  70
    32
  0
VERTEX
  8
0
  5
7180
 10
179.938
 20
431.621
 30
0.000000
  70
    32
  0
VERTEX
  8
0
  5
7181
 10
179.898
 20
431.679
 30
0.000000
  70
    32
  0
VERTEX
  8
0
  5
7182
 10
179.859
 20
431.738
 30
0.000000
  70
    32
  0
VERTEX
  8
0
  5
7183
 10
179.820
 20
431.796
 30
0.000000
  70
    32
  0
VERTEX
  8
0
  5
7184
 10
179.781
 20
431.855
 30
0.000000
  70
    32
  0
VERTEX
  8
0
  5
7185
 10
179.742
 20
431.913
 30
0.000000
  70
    32
  0
VERTEX
  8
0
  5
7186
 10
179.702
 20
431.971
 30
0.000000
  70
    32
  0
VERTEX
  8
0
  5
7187
 10
179.663
 20
432.030
 30
0.000000
  70
    32
  0
VERTEX
  8
0
  5
7188
 10
179.624
 20
432.088
 30
0.000000
  70
    32
  0
VERTEX
  8
0
  5
7189
 10
179.585
 20
432.146
 30
0.000000
  70
    32
  0
VERTEX
  8
0
  5
718A
 10
179.546
 20
432.204
 30
0.000000
  70
    32
  0
VERTEX
  8
0
  5
718B
 10
179.507
 20
432.262
 30
0.000000
  70
    32
  0
VERTEX
  8
0
  5
718C
 10
179.468
 20
432.321
 30
0.000000
  70
    32
  0
VERTEX
  8
0
  5
718D
 10
179.428
 20
432.379
 30
0.000000
  70
    32
  0
VERTEX
  8
0
  5
718E
 10
179.389
 20
432.437
 30
0.000000
  70
    32
  0
VERTEX
  8
0
  5
718F
 10
179.350
 20
432.495
 30
0.000000
  70
    32
  0
VERTEX
  8
0
  5
7190
 10
179.311
 20
432.553
 30
0.000000
  70
    32
  0
VERTEX
  8
0
  5
7191
 10
179.272
 20
432.611
 30
0.000000
  70
    32
  0
VERTEX
  8
0
  5
7192
 10
179.233
 20
432.669
 30
0.000000
  70
    32
  0
VERTEX
  8
0
  5
7193
 10
179.194
 20
432.727
 30
0.000000
  70
    32
  0
VERTEX
  8
0
  5
7194
 10
179.155
 20
432.785
 30
0.000000
  70
    32
  0
VERTEX
  8
0
  5
7195
 10
179.116
 20
432.843
 30
0.000000
  70
    32
  0
VERTEX
  8
0
  5
7196
 10
179.077
 20
432.900
 30
0.000000
  70
    32
  0
VERTEX
  8
0
  5
7197
 10
179.038
 20
432.958
 30
0.000000
  70
    32
  0
VERTEX
  8
0
  5
7198
 10
178.999
 20
433.016
 30
0.000000
  70
    32
  0
VERTEX
  8
0
  5
7199
 10
178.960
 20
433.074
 30
0.000000
  70
    32
  0
VERTEX
  8
0
  5
719A
 10
178.920
 20
433.132
 30
0.000000
  70
    32
  0
VERTEX
  8
0
  5
719B
 10
178.881
 20
433.189
 30
0.000000
  70
    32
  0
VERTEX
  8
0
  5
719C
 10
178.842
 20
433.247
 30
0.000000
  70
    32
  0
VERTEX
  8
0
  5
719D
 10
178.803
 20
433.305
 30
0.000000
  70
    32
  0
VERTEX
  8
0
  5
719E
 10
178.764
 20
433.363
 30
0.000000
  70
    32
  0
VERTEX
  8
0
  5
719F
 10
178.725
 20
433.420
 30
0.000000
  70
    32
  0
VERTEX
  8
0
  5
71A0
 10
178.686
 20
433.478
 30
0.000000
  70
    32
  0
VERTEX
  8
0
  5
71A1
 10
178.647
 20
433.535
 30
0.000000
  70
    32
  0
VERTEX
  8
0
  5
71A2
 10
178.609
 20
433.593
 30
0.000000
  70
    32
  0
VERTEX
  8
0
  5
71A3
 10
178.570
 20
433.650
 30
0.000000
  70
    32
  0
VERTEX
  8
0
  5
71A4
 10
178.531
 20
433.708
 30
0.000000
  70
    32
  0
VERTEX
  8
0
  5
71A5
 10
178.492
 20
433.765
 30
0.000000
  70
    32
  0
VERTEX
  8
0
  5
71A6
 10
178.453
 20
433.823
 30
0.000000
  70
    32
  0
VERTEX
  8
0
  5
71A7
 10
178.414
 20
433.880
 30
0.000000
  70
    32
  0
VERTEX
  8
0
  5
71A8
 10
178.375
 20
433.938
 30
0.000000
  70
    32
  0
VERTEX
  8
0
  5
71A9
 10
178.336
 20
433.995
 30
0.000000
  70
    32
  0
VERTEX
  8
0
  5
71AA
 10
178.297
 20
434.052
 30
0.000000
  70
    32
  0
VERTEX
  8
0
  5
71AB
 10
178.258
 20
434.110
 30
0.000000
  70
    32
  0
VERTEX
  8
0
  5
71AC
 10
178.219
 20
434.167
 30
0.000000
  70
    32
  0
VERTEX
  8
0
  5
71AD
 10
178.180
 20
434.224
 30
0.000000
  70
    32
  0
VERTEX
  8
0
  5
71AE
 10
178.141
 20
434.281
 30
0.000000
  70
    32
  0
VERTEX
  8
0
  5
71AF
 10
178.103
 20
434.339
 30
0.000000
  70
    32
  0
VERTEX
  8
0
  5
71B0
 10
178.064
 20
434.396
 30
0.000000
  70
    32
  0
VERTEX
  8
0
  5
71B1
 10
178.025
 20
434.453
 30
0.000000
  70
    32
  0
VERTEX
  8
0
  5
71B2
 10
177.986
 20
434.510
 30
0.000000
  70
    32
  0
VERTEX
  8
0
  5
71B3
 10
177.947
 20
434.567
 30
0.000000
  70
    32
  0
VERTEX
  8
0
  5
71B4
 10
177.908
 20
434.624
 30
0.000000
  70
    32
  0
VERTEX
  8
0
  5
71B5
 10
177.869
 20
434.681
 30
0.000000
  70
    32
  0
VERTEX
  8
0
  5
71B6
 10
177.831
 20
434.738
 30
0.000000
  70
    32
  0
VERTEX
  8
0
  5
71B7
 10
177.792
 20
434.795
 30
0.000000
  70
    32
  0
VERTEX
  8
0
  5
71B8
 10
177.753
 20
434.852
 30
0.000000
  70
    32
  0
VERTEX
  8
0
  5
71B9
 10
177.714
 20
434.909
 30
0.000000
  70
    32
  0
VERTEX
  8
0
  5
71BA
 10
177.675
 20
434.966
 30
0.000000
  70
    32
  0
VERTEX
  8
0
  5
71BB
 10
177.637
 20
435.023
 30
0.000000
  70
    32
  0
VERTEX
  8
0
  5
71BC
 10
177.598
 20
435.080
 30
0.000000
  70
    32
  0
VERTEX
  8
0
  5
71BD
 10
177.559
 20
435.136
 30
0.000000
  70
    32
  0
VERTEX
  8
0
  5
71BE
 10
177.520
 20
435.193
 30
0.000000
  70
    32
  0
VERTEX
  8
0
  5
71BF
 10
177.482
 20
435.250
 30
0.000000
  70
    32
  0
SEQEND
  8
0
  5
71C0
  0
LINE
  5
654A
  8
0
 10
182.5
 20
422.750000000032
 30
0.0
 11
182.5
 21
427.76796426259477
 31
0.0
  0
LINE
  5
659F
  8
2
 10
258.42757640085659
 20
450.25000000003212
 30
0.0
 11
258.42757640085659
 21
462.75000000003212
 31
0.0
  0
LINE
  5
65A0
  8
2
 10
251.78057640085669
 20
462.75000000003212
 30
0.0
 11
251.78057640085669
 21
450.25000000003212
 31
0.0
  0
LINE
  5
65A1
  8
2
 10
138.21942359914351
 20
450.25000000003212
 30
0.0
 11
138.21942359914351
 21
462.75000000003212
 31
0.0
  0
LINE
  5
65A2
  8
2
 10
131.5724235991436
 20
462.75000000003212
 30
0.0
 11
131.5724235991436
 21
450.25000000003212
 31
0.0
  0
LINE
  5
65B9
  8
0
 10
198.99999999996751
 20
125.0
 30
0.0
 11
198.99999999996751
 21
127.3342478826923
 31
0.0
  0
LINE
  5
65BA
  8
0
 10
191.00000000003109
 20
127.3342478826923
 30
0.0
 11
191.00000000003109
 21
125.0
 31
0.0
  0
ARC
  5
65BB
  8
0
 10
205.49999999999929
 20
102.0
 30
0.0
 40
2.000000000000028
 50
270.0
 51
0.0
  0
ARC
  5
65BC
  8
0
 10
184.49999999999929
 20
102.0
 30
0.0
 40
2.0
 50
180.0
 51
270.0
  0
LINE
  5
65BD
  8
0
 10
182.49999999999929
 20
125.0
 30
0.0
 11
182.49999999999929
 21
102.0
 31
0.0
  0
LINE
  5
65BE
  8
0
 10
207.49999999999929
 20
102.0
 30
0.0
 11
207.49999999999929
 21
125.0
 31
0.0
  0
LINE
  5
65BF
  8
0
 10
184.50000010558051
 20
100.0
 30
0.0
 11
205.49999999999929
 21
100.0
 31
0.0
  0
LINE
  5
65C0
  8
0
 10
182.49999999999929
 20
125.0
 30
0.0
 11
207.49999999999929
 21
125.0
 31
0.0
  0
LINE
  5
65CB
  8
0
 10
144.99999999999929
 20
302.66271528340422
 30
0.0
 11
144.99999999999949
 21
255.86640224655449
 31
0.0
  0
LINE
  5
65CD
  8
0
 10
144.57486482690749
 20
302.76276757620911
 30
0.0
 11
144.99999999999929
 21
302.66271528340422
 31
0.0
  0
LINE
  5
65CE
  8
0
 10
244.99999999999929
 20
255.86640224655471
 30
0.0
 11
244.99999999999929
 21
302.5253460509428
 31
0.0
  0
LINE
  5
65D0
  8
0
 10
244.99999999999929
 20
302.5253460509428
 30
0.0
 11
245.30964055863549
 21
302.83498660957912
 31
0.0
  0
LINE
  5
65D5
  8
0
 10
182.49999999999929
 20
280.93347297155969
 30
0.0
 11
182.49999999999929
 21
272.05848914820137
 31
0.0
  0
LINE
  5
65D6
  8
0
 10
182.49999999999929
 20
272.05848914820137
 30
0.0
 11
151.15354544929181
 21
181.29284649380401
 31
0.0
  0
LINE
  5
65D8
  8
0
 10
207.49999999999929
 20
280.93347297155969
 30
0.0
 11
207.49999999999929
 21
272.05848914820132
 31
0.0
  0
LINE
  5
65D9
  8
0
 10
238.84645455070699
 20
181.29284649380389
 30
0.0
 11
207.49999999999929
 21
272.05848914820132
 31
0.0
  0
LINE
  5
6658
  8
0
 10
191.0000000000318
 20
755.00000000006435
 30
0.0
 11
191.0000000000318
 21
752.66575211737165
 31
0.0
  0
LINE
  5
6659
  8
0
 10
198.9999999999684
 20
752.66575211737165
 30
0.0
 11
198.9999999999682
 21
755.00000000006435
 31
0.0
  0
ARC
  5
665A
  8
0
 10
184.5
 20
778.00000000006435
 30
0.0
 40
2.0
 50
90.0
 51
180.0
  0
ARC
  5
665B
  8
0
 10
205.5
 20
778.00000000006435
 30
0.0
 40
2.000000000000028
 50
0.0
 51
90.0
  0
LINE
  5
665C
  8
0
 10
207.5
 20
755.00000000006435
 30
0.0
 11
207.5
 21
778.00000000006435
 31
0.0
  0
LINE
  5
665D
  8
0
 10
182.5
 20
778.00000000006435
 30
0.0
 11
182.5
 21
755.00000000006435
 31
0.0
  0
LINE
  5
665E
  8
0
 10
205.5
 20
780.00000000006435
 30
0.0
 11
184.50000010558119
 21
780.00000000006435
 31
0.0
  0
LINE
  5
665F
  8
0
 10
207.5
 20
755.00000000006435
 30
0.0
 11
182.5
 21
755.00000000006435
 31
0.0
  0
CIRCLE
  5
666B
  8
0
 10
195.0
 20
657.75000000003195
 30
0.0
 40
45.999999999999957
  0
CIRCLE
  5
666C
  8
0
 10
195.0
 20
657.75000000003195
 30
0.0
 40
94.999999999999986
  0
LINE
  5
66F1
  8
0
 10
582.25000000003195
 20
433.75000000000023
 30
0.0
 11
580.0
 21
433.75000000000023
 31
0.0
  0
LINE
  5
66F2
  8
0
 10
580.0
 20
425.75000000006378
 30
0.0
 11
582.25000000003195
 21
425.75000000006378
 31
0.0
  0
ARC
  5
66F3
  8
0
 10
605.25000000003195
 20
440.250000000032
 30
0.0
 40
2.0
 50
0.0
 51
90.0
  0
ARC
  5
66F4
  8
0
 10
605.25000000003195
 20
419.250000000032
 30
0.0
 40
2.0
 50
270.0
 51
0.0
  0
LINE
  5
66F5
  8
0
 10
582.25000000003195
 20
417.250000000032
 30
0.0
 11
605.25000000003195
 21
417.250000000032
 31
0.0
  0
LINE
  5
66F6
  8
0
 10
605.25000000003195
 20
442.25000000003189
 30
0.0
 11
582.25000000003195
 21
442.25000000003189
 31
0.0
  0
LINE
  5
66F7
  8
0
 10
578.45010093212818
 20
423.75000000003189
 30
0.0
 11
580.00000000000148
 21
424.11475682367762
 31
0.0
  0
LINE
  5
66F8
  8
0
 10
580.0
 20
424.11475682367723
 30
0.0
 11
580.0
 21
448.25000000003189
 31
0.0
  0
LINE
  5
66FA
  8
0
 10
390.0
 20
448.250000000032
 30
0.0
 11
390.0
 21
436.750000000032
 31
0.0
  0
LINE
  5
66FB
  8
0
 10
580.0
 20
448.25000000003189
 30
0.0
 11
579.49999999999989
 21
448.750000000032
 31
0.0
  0
LINE
  5
66FC
  8
0
 10
390.5
 20
448.750000000032
 30
0.0
 11
390.0
 21
448.250000000032
 31
0.0
  0
LINE
  5
66FD
  8
0
 10
390.0
 20
436.750000000032
 30
0.0
 11
390.5
 21
436.250000000032
 31
0.0
  0
LINE
  5
66FE
  8
0
 10
390.0
 20
462.75000000003212
 30
0.0
 11
390.0
 21
450.25000000003212
 31
0.0
  0
LINE
  5
66FF
  8
0
 10
580.0
 20
450.25000000003189
 30
0.0
 11
580.0
 21
462.75000000003212
 31
0.0
  0
LINE
  5
6700
  8
0
 10
425.0
 20
450.25000000003212
 30
0.0
 11
425.0
 21
448.750000000032
 31
0.0
  0
LINE
  5
6701
  8
0
 10
545.0
 20
448.750000000032
 30
0.0
 11
545.0
 21
450.25000000003189
 31
0.0
  0
LINE
  5
6703
  8
0
 10
607.25000000003195
 20
419.250000000032
 30
0.0
 11
607.25000000003195
 21
440.250000000032
 31
0.0
  0
LINE
  5
6704
  8
0
 10
582.25000000003195
 20
417.250000000032
 30
0.0
 11
582.25000000003195
 21
442.25000000003189
 31
0.0
  0
LINE
  5
6705
  8
0
 10
578.45010093212818
 20
423.75000000003189
 30
0.0
 11
407.05431846268237
 21
423.75000000003217
 31
0.0
  0
POLYLINE
  5
6706
  8
0
 10
404.41501339045294
 20
424.11475682367757
 30
0.0
 66
     1
 70
     8
  0
VERTEX
  8
0
  5
71C1
 10
404.415
 20
424.115
 30
0.000000
  70
    32
  0
VERTEX
  8
0
  5
71C2
 10
404.436
 20
424.112
 30
0.000000
  70
    32
  0
VERTEX
  8
0
  5
71C3
 10
404.456
 20
424.109
 30
0.000000
  70
    32
  0
VERTEX
  8
0
  5
71C4
 10
404.477
 20
424.106
 30
0.000000
  70
    32
  0
VERTEX
  8
0
  5
71C5
 10
404.497
 20
424.103
 30
0.000000
  70
    32
  0
VERTEX
  8
0
  5
71C6
 10
404.518
 20
424.100
 30
0.000000
  70
    32
  0
VERTEX
  8
0
  5
71C7
 10
404.538
 20
424.098
 30
0.000000
  70
    32
  0
VERTEX
  8
0
  5
71C8
 10
404.559
 20
424.095
 30
0.000000
  70
    32
  0
VERTEX
  8
0
  5
71C9
 10
404.579
 20
424.092
 30
0.000000
  70
    32
  0
VERTEX
  8
0
  5
71CA
 10
404.600
 20
424.089
 30
0.000000
  70
    32
  0
VERTEX
  8
0
  5
71CB
 10
404.621
 20
424.086
 30
0.000000
  70
    32
  0
VERTEX
  8
0
  5
71CC
 10
404.641
 20
424.083
 30
0.000000
  70
    32
  0
VERTEX
  8
0
  5
71CD
 10
404.662
 20
424.080
 30
0.000000
  70
    32
  0
VERTEX
  8
0
  5
71CE
 10
404.682
 20
424.078
 30
0.000000
  70
    32
  0
VERTEX
  8
0
  5
71CF
 10
404.703
 20
424.075
 30
0.000000
  70
    32
  0
VERTEX
  8
0
  5
71D0
 10
404.723
 20
424.072
 30
0.000000
  70
    32
  0
VERTEX
  8
0
  5
71D1
 10
404.744
 20
424.069
 30
0.000000
  70
    32
  0
VERTEX
  8
0
  5
71D2
 10
404.764
 20
424.066
 30
0.000000
  70
    32
  0
VERTEX
  8
0
  5
71D3
 10
404.785
 20
424.063
 30
0.000000
  70
    32
  0
VERTEX
  8
0
  5
71D4
 10
404.806
 20
424.060
 30
0.000000
  70
    32
  0
VERTEX
  8
0
  5
71D5
 10
404.826
 20
424.058
 30
0.000000
  70
    32
  0
VERTEX
  8
0
  5
71D6
 10
404.847
 20
424.055
 30
0.000000
  70
    32
  0
VERTEX
  8
0
  5
71D7
 10
404.867
 20
424.052
 30
0.000000
  70
    32
  0
VERTEX
  8
0
  5
71D8
 10
404.888
 20
424.049
 30
0.000000
  70
    32
  0
VERTEX
  8
0
  5
71D9
 10
404.908
 20
424.046
 30
0.000000
  70
    32
  0
VERTEX
  8
0
  5
71DA
 10
404.929
 20
424.043
 30
0.000000
  70
    32
  0
VERTEX
  8
0
  5
71DB
 10
404.950
 20
424.040
 30
0.000000
  70
    32
  0
VERTEX
  8
0
  5
71DC
 10
404.970
 20
424.037
 30
0.000000
  70
    32
  0
VERTEX
  8
0
  5
71DD
 10
404.991
 20
424.035
 30
0.000000
  70
    32
  0
VERTEX
  8
0
  5
71DE
 10
405.011
 20
424.032
 30
0.000000
  70
    32
  0
VERTEX
  8
0
  5
71DF
 10
405.032
 20
424.029
 30
0.000000
  70
    32
  0
VERTEX
  8
0
  5
71E0
 10
405.053
 20
424.026
 30
0.000000
  70
    32
  0
VERTEX
  8
0
  5
71E1
 10
405.073
 20
424.023
 30
0.000000
  70
    32
  0
VERTEX
  8
0
  5
71E2
 10
405.094
 20
424.020
 30
0.000000
  70
    32
  0
VERTEX
  8
0
  5
71E3
 10
405.114
 20
424.017
 30
0.000000
  70
    32
  0
VERTEX
  8
0
  5
71E4
 10
405.135
 20
424.015
 30
0.000000
  70
    32
  0
VERTEX
  8
0
  5
71E5
 10
405.155
 20
424.012
 30
0.000000
  70
    32
  0
VERTEX
  8
0
  5
71E6
 10
405.176
 20
424.009
 30
0.000000
  70
    32
  0
VERTEX
  8
0
  5
71E7
 10
405.197
 20
424.006
 30
0.000000
  70
    32
  0
VERTEX
  8
0
  5
71E8
 10
405.217
 20
424.003
 30
0.000000
  70
    32
  0
VERTEX
  8
0
  5
71E9
 10
405.238
 20
424.000
 30
0.000000
  70
    32
  0
VERTEX
  8
0
  5
71EA
 10
405.258
 20
423.997
 30
0.000000
  70
    32
  0
VERTEX
  8
0
  5
71EB
 10
405.279
 20
423.995
 30
0.000000
  70
    32
  0
VERTEX
  8
0
  5
71EC
 10
405.300
 20
423.992
 30
0.000000
  70
    32
  0
VERTEX
  8
0
  5
71ED
 10
405.320
 20
423.989
 30
0.000000
  70
    32
  0
VERTEX
  8
0
  5
71EE
 10
405.341
 20
423.986
 30
0.000000
  70
    32
  0
VERTEX
  8
0
  5
71EF
 10
405.361
 20
423.983
 30
0.000000
  70
    32
  0
VERTEX
  8
0
  5
71F0
 10
405.382
 20
423.980
 30
0.000000
  70
    32
  0
VERTEX
  8
0
  5
71F1
 10
405.403
 20
423.978
 30
0.000000
  70
    32
  0
VERTEX
  8
0
  5
71F2
 10
405.423
 20
423.975
 30
0.000000
  70
    32
  0
VERTEX
  8
0
  5
71F3
 10
405.444
 20
423.972
 30
0.000000
  70
    32
  0
VERTEX
  8
0
  5
71F4
 10
405.464
 20
423.969
 30
0.000000
  70
    32
  0
VERTEX
  8
0
  5
71F5
 10
405.485
 20
423.966
 30
0.000000
  70
    32
  0
VERTEX
  8
0
  5
71F6
 10
405.506
 20
423.963
 30
0.000000
  70
    32
  0
VERTEX
  8
0
  5
71F7
 10
405.526
 20
423.960
 30
0.000000
  70
    32
  0
VERTEX
  8
0
  5
71F8
 10
405.547
 20
423.958
 30
0.000000
  70
    32
  0
VERTEX
  8
0
  5
71F9
 10
405.567
 20
423.955
 30
0.000000
  70
    32
  0
VERTEX
  8
0
  5
71FA
 10
405.588
 20
423.952
 30
0.000000
  70
    32
  0
VERTEX
  8
0
  5
71FB
 10
405.609
 20
423.949
 30
0.000000
  70
    32
  0
VERTEX
  8
0
  5
71FC
 10
405.629
 20
423.946
 30
0.000000
  70
    32
  0
VERTEX
  8
0
  5
71FD
 10
405.650
 20
423.943
 30
0.000000
  70
    32
  0
VERTEX
  8
0
  5
71FE
 10
405.670
 20
423.940
 30
0.000000
  70
    32
  0
VERTEX
  8
0
  5
71FF
 10
405.691
 20
423.938
 30
0.000000
  70
    32
  0
VERTEX
  8
0
  5
7200
 10
405.712
 20
423.935
 30
0.000000
  70
    32
  0
VERTEX
  8
0
  5
7201
 10
405.732
 20
423.932
 30
0.000000
  70
    32
  0
VERTEX
  8
0
  5
7202
 10
405.753
 20
423.929
 30
0.000000
  70
    32
  0
VERTEX
  8
0
  5
7203
 10
405.774
 20
423.926
 30
0.000000
  70
    32
  0
VERTEX
  8
0
  5
7204
 10
405.794
 20
423.923
 30
0.000000
  70
    32
  0
VERTEX
  8
0
  5
7205
 10
405.815
 20
423.920
 30
0.000000
  70
    32
  0
VERTEX
  8
0
  5
7206
 10
405.835
 20
423.918
 30
0.000000
  70
    32
  0
VERTEX
  8
0
  5
7207
 10
405.856
 20
423.915
 30
0.000000
  70
    32
  0
VERTEX
  8
0
  5
7208
 10
405.877
 20
423.912
 30
0.000000
  70
    32
  0
VERTEX
  8
0
  5
7209
 10
405.897
 20
423.909
 30
0.000000
  70
    32
  0
VERTEX
  8
0
  5
720A
 10
405.918
 20
423.906
 30
0.000000
  70
    32
  0
VERTEX
  8
0
  5
720B
 10
405.939
 20
423.903
 30
0.000000
  70
    32
  0
VERTEX
  8
0
  5
720C
 10
405.959
 20
423.901
 30
0.000000
  70
    32
  0
VERTEX
  8
0
  5
720D
 10
405.980
 20
423.898
 30
0.000000
  70
    32
  0
VERTEX
  8
0
  5
720E
 10
406.001
 20
423.895
 30
0.000000
  70
    32
  0
VERTEX
  8
0
  5
720F
 10
406.021
 20
423.892
 30
0.000000
  70
    32
  0
VERTEX
  8
0
  5
7210
 10
406.042
 20
423.889
 30
0.000000
  70
    32
  0
VERTEX
  8
0
  5
7211
 10
406.062
 20
423.886
 30
0.000000
  70
    32
  0
VERTEX
  8
0
  5
7212
 10
406.083
 20
423.883
 30
0.000000
  70
    32
  0
VERTEX
  8
0
  5
7213
 10
406.104
 20
423.881
 30
0.000000
  70
    32
  0
VERTEX
  8
0
  5
7214
 10
406.124
 20
423.878
 30
0.000000
  70
    32
  0
VERTEX
  8
0
  5
7215
 10
406.145
 20
423.875
 30
0.000000
  70
    32
  0
VERTEX
  8
0
  5
7216
 10
406.166
 20
423.872
 30
0.000000
  70
    32
  0
VERTEX
  8
0
  5
7217
 10
406.186
 20
423.869
 30
0.000000
  70
    32
  0
VERTEX
  8
0
  5
7218
 10
406.207
 20
423.866
 30
0.000000
  70
    32
  0
VERTEX
  8
0
  5
7219
 10
406.228
 20
423.864
 30
0.000000
  70
    32
  0
VERTEX
  8
0
  5
721A
 10
406.248
 20
423.861
 30
0.000000
  70
    32
  0
VERTEX
  8
0
  5
721B
 10
406.269
 20
423.858
 30
0.000000
  70
    32
  0
VERTEX
  8
0
  5
721C
 10
406.290
 20
423.855
 30
0.000000
  70
    32
  0
VERTEX
  8
0
  5
721D
 10
406.310
 20
423.852
 30
0.000000
  70
    32
  0
VERTEX
  8
0
  5
721E
 10
406.331
 20
423.849
 30
0.000000
  70
    32
  0
VERTEX
  8
0
  5
721F
 10
406.351
 20
423.847
 30
0.000000
  70
    32
  0
VERTEX
  8
0
  5
7220
 10
406.372
 20
423.844
 30
0.000000
  70
    32
  0
VERTEX
  8
0
  5
7221
 10
406.393
 20
423.841
 30
0.000000
  70
    32
  0
VERTEX
  8
0
  5
7222
 10
406.413
 20
423.838
 30
0.000000
  70
    32
  0
VERTEX
  8
0
  5
7223
 10
406.434
 20
423.835
 30
0.000000
  70
    32
  0
VERTEX
  8
0
  5
7224
 10
406.455
 20
423.832
 30
0.000000
  70
    32
  0
VERTEX
  8
0
  5
7225
 10
406.475
 20
423.829
 30
0.000000
  70
    32
  0
VERTEX
  8
0
  5
7226
 10
406.496
 20
423.827
 30
0.000000
  70
    32
  0
VERTEX
  8
0
  5
7227
 10
406.517
 20
423.824
 30
0.000000
  70
    32
  0
VERTEX
  8
0
  5
7228
 10
406.537
 20
423.821
 30
0.000000
  70
    32
  0
VERTEX
  8
0
  5
7229
 10
406.558
 20
423.818
 30
0.000000
  70
    32
  0
VERTEX
  8
0
  5
722A
 10
406.579
 20
423.815
 30
0.000000
  70
    32
  0
VERTEX
  8
0
  5
722B
 10
406.599
 20
423.812
 30
0.000000
  70
    32
  0
VERTEX
  8
0
  5
722C
 10
406.620
 20
423.810
 30
0.000000
  70
    32
  0
VERTEX
  8
0
  5
722D
 10
406.641
 20
423.807
 30
0.000000
  70
    32
  0
VERTEX
  8
0
  5
722E
 10
406.661
 20
423.804
 30
0.000000
  70
    32
  0
VERTEX
  8
0
  5
722F
 10
406.682
 20
423.801
 30
0.000000
  70
    32
  0
VERTEX
  8
0
  5
7230
 10
406.703
 20
423.798
 30
0.000000
  70
    32
  0
VERTEX
  8
0
  5
7231
 10
406.723
 20
423.795
 30
0.000000
  70
    32
  0
VERTEX
  8
0
  5
7232
 10
406.744
 20
423.793
 30
0.000000
  70
    32
  0
VERTEX
  8
0
  5
7233
 10
406.765
 20
423.790
 30
0.000000
  70
    32
  0
VERTEX
  8
0
  5
7234
 10
406.785
 20
423.787
 30
0.000000
  70
    32
  0
VERTEX
  8
0
  5
7235
 10
406.806
 20
423.784
 30
0.000000
  70
    32
  0
VERTEX
  8
0
  5
7236
 10
406.827
 20
423.781
 30
0.000000
  70
    32
  0
VERTEX
  8
0
  5
7237
 10
406.847
 20
423.778
 30
0.000000
  70
    32
  0
VERTEX
  8
0
  5
7238
 10
406.868
 20
423.776
 30
0.000000
  70
    32
  0
VERTEX
  8
0
  5
7239
 10
406.889
 20
423.773
 30
0.000000
  70
    32
  0
VERTEX
  8
0
  5
723A
 10
406.910
 20
423.770
 30
0.000000
  70
    32
  0
VERTEX
  8
0
  5
723B
 10
406.930
 20
423.767
 30
0.000000
  70
    32
  0
VERTEX
  8
0
  5
723C
 10
406.951
 20
423.764
 30
0.000000
  70
    32
  0
VERTEX
  8
0
  5
723D
 10
406.972
 20
423.761
 30
0.000000
  70
    32
  0
VERTEX
  8
0
  5
723E
 10
406.992
 20
423.759
 30
0.000000
  70
    32
  0
VERTEX
  8
0
  5
723F
 10
407.013
 20
423.756
 30
0.000000
  70
    32
  0
VERTEX
  8
0
  5
7240
 10
407.034
 20
423.753
 30
0.000000
  70
    32
  0
VERTEX
  8
0
  5
7241
 10
407.054
 20
423.750
 30
0.000000
  70
    32
  0
SEQEND
  8
0
  5
7242
  0
CIRCLE
  5
6709
  8
0
 10
484.99999999999972
 20
435.75000000003189
 30
0.0
 40
3.3999999999998098
  0
LINE
  5
670A
  8
0
 10
404.41501339045288
 20
424.11475682367762
 30
0.0
 11
404.41501339045288
 21
436.25000000003189
 31
0.0
  0
LINE
  5
670C
  8
0
 10
579.49999999999989
 20
448.750000000032
 30
0.0
 11
390.49999999999977
 21
448.750000000032
 31
0.0
  0
LINE
  5
670D
  8
0
 10
404.41501339045271
 20
436.250000000032
 30
0.0
 11
390.5
 21
436.250000000032
 31
0.0
  0
LINE
  5
670E
  8
0
 10
580.0
 20
462.75000000003212
 30
0.0
 11
390.0
 21
462.75000000003212
 31
0.0
  0
LINE
  5
670F
  8
0
 10
580.0
 20
450.25000000003189
 30
0.0
 11
390.0
 21
450.25000000003212
 31
0.0
  0
POLYLINE
  5
6710
  8
0
 10
525.95715350622811
 20
422.75000000003195
 30
0.0
 66
     1
 70
     8
  0
VERTEX
  8
0
  5
7243
 10
525.957
 20
422.750
 30
0.000000
  70
    32
  0
VERTEX
  8
0
  5
7244
 10
525.953
 20
422.758
 30
0.000000
  70
    32
  0
VERTEX
  8
0
  5
7245
 10
525.950
 20
422.766
 30
0.000000
  70
    32
  0
VERTEX
  8
0
  5
7246
 10
525.946
 20
422.774
 30
0.000000
  70
    32
  0
VERTEX
  8
0
  5
7247
 10
525.942
 20
422.781
 30
0.000000
  70
    32
  0
VERTEX
  8
0
  5
7248
 10
525.938
 20
422.789
 30
0.000000
  70
    32
  0
VERTEX
  8
0
  5
7249
 10
525.935
 20
422.797
 30
0.000000
  70
    32
  0
VERTEX
  8
0
  5
724A
 10
525.931
 20
422.805
 30
0.000000
  70
    32
  0
VERTEX
  8
0
  5
724B
 10
525.927
 20
422.813
 30
0.000000
  70
    32
  0
VERTEX
  8
0
  5
724C
 10
525.923
 20
422.821
 30
0.000000
  70
    32
  0
VERTEX
  8
0
  5
724D
 10
525.920
 20
422.828
 30
0.000000
  70
    32
  0
VERTEX
  8
0
  5
724E
 10
525.916
 20
422.836
 30
0.000000
  70
    32
  0
VERTEX
  8
0
  5
724F
 10
525.912
 20
422.844
 30
0.000000
  70
    32
  0
VERTEX
  8
0
  5
7250
 10
525.909
 20
422.852
 30
0.000000
  70
    32
  0
VERTEX
  8
0
  5
7251
 10
525.905
 20
422.860
 30
0.000000
  70
    32
  0
VERTEX
  8
0
  5
7252
 10
525.901
 20
422.867
 30
0.000000
  70
    32
  0
VERTEX
  8
0
  5
7253
 10
525.897
 20
422.875
 30
0.000000
  70
    32
  0
VERTEX
  8
0
  5
7254
 10
525.894
 20
422.883
 30
0.000000
  70
    32
  0
VERTEX
  8
0
  5
7255
 10
525.890
 20
422.891
 30
0.000000
  70
    32
  0
VERTEX
  8
0
  5
7256
 10
525.886
 20
422.899
 30
0.000000
  70
    32
  0
VERTEX
  8
0
  5
7257
 10
525.882
 20
422.907
 30
0.000000
  70
    32
  0
VERTEX
  8
0
  5
7258
 10
525.879
 20
422.914
 30
0.000000
  70
    32
  0
VERTEX
  8
0
  5
7259
 10
525.875
 20
422.922
 30
0.000000
  70
    32
  0
VERTEX
  8
0
  5
725A
 10
525.871
 20
422.930
 30
0.000000
  70
    32
  0
VERTEX
  8
0
  5
725B
 10
525.867
 20
422.938
 30
0.000000
  70
    32
  0
VERTEX
  8
0
  5
725C
 10
525.864
 20
422.946
 30
0.000000
  70
    32
  0
VERTEX
  8
0
  5
725D
 10
525.860
 20
422.954
 30
0.000000
  70
    32
  0
VERTEX
  8
0
  5
725E
 10
525.856
 20
422.961
 30
0.000000
  70
    32
  0
VERTEX
  8
0
  5
725F
 10
525.852
 20
422.969
 30
0.000000
  70
    32
  0
VERTEX
  8
0
  5
7260
 10
525.849
 20
422.977
 30
0.000000
  70
    32
  0
VERTEX
  8
0
  5
7261
 10
525.845
 20
422.985
 30
0.000000
  70
    32
  0
VERTEX
  8
0
  5
7262
 10
525.841
 20
422.993
 30
0.000000
  70
    32
  0
VERTEX
  8
0
  5
7263
 10
525.837
 20
423.001
 30
0.000000
  70
    32
  0
VERTEX
  8
0
  5
7264
 10
525.834
 20
423.008
 30
0.000000
  70
    32
  0
VERTEX
  8
0
  5
7265
 10
525.830
 20
423.016
 30
0.000000
  70
    32
  0
VERTEX
  8
0
  5
7266
 10
525.826
 20
423.024
 30
0.000000
  70
    32
  0
VERTEX
  8
0
  5
7267
 10
525.822
 20
423.032
 30
0.000000
  70
    32
  0
VERTEX
  8
0
  5
7268
 10
525.819
 20
423.040
 30
0.000000
  70
    32
  0
VERTEX
  8
0
  5
7269
 10
525.815
 20
423.047
 30
0.000000
  70
    32
  0
VERTEX
  8
0
  5
726A
 10
525.811
 20
423.055
 30
0.000000
  70
    32
  0
VERTEX
  8
0
  5
726B
 10
525.807
 20
423.063
 30
0.000000
  70
    32
  0
VERTEX
  8
0
  5
726C
 10
525.804
 20
423.071
 30
0.000000
  70
    32
  0
VERTEX
  8
0
  5
726D
 10
525.800
 20
423.079
 30
0.000000
  70
    32
  0
VERTEX
  8
0
  5
726E
 10
525.796
 20
423.087
 30
0.000000
  70
    32
  0
VERTEX
  8
0
  5
726F
 10
525.792
 20
423.094
 30
0.000000
  70
    32
  0
VERTEX
  8
0
  5
7270
 10
525.789
 20
423.102
 30
0.000000
  70
    32
  0
VERTEX
  8
0
  5
7271
 10
525.785
 20
423.110
 30
0.000000
  70
    32
  0
VERTEX
  8
0
  5
7272
 10
525.781
 20
423.118
 30
0.000000
  70
    32
  0
VERTEX
  8
0
  5
7273
 10
525.777
 20
423.126
 30
0.000000
  70
    32
  0
VERTEX
  8
0
  5
7274
 10
525.774
 20
423.134
 30
0.000000
  70
    32
  0
VERTEX
  8
0
  5
7275
 10
525.770
 20
423.141
 30
0.000000
  70
    32
  0
VERTEX
  8
0
  5
7276
 10
525.766
 20
423.149
 30
0.000000
  70
    32
  0
VERTEX
  8
0
  5
7277
 10
525.762
 20
423.157
 30
0.000000
  70
    32
  0
VERTEX
  8
0
  5
7278
 10
525.758
 20
423.165
 30
0.000000
  70
    32
  0
VERTEX
  8
0
  5
7279
 10
525.755
 20
423.173
 30
0.000000
  70
    32
  0
VERTEX
  8
0
  5
727A
 10
525.751
 20
423.180
 30
0.000000
  70
    32
  0
VERTEX
  8
0
  5
727B
 10
525.747
 20
423.188
 30
0.000000
  70
    32
  0
VERTEX
  8
0
  5
727C
 10
525.743
 20
423.196
 30
0.000000
  70
    32
  0
VERTEX
  8
0
  5
727D
 10
525.740
 20
423.204
 30
0.000000
  70
    32
  0
VERTEX
  8
0
  5
727E
 10
525.736
 20
423.212
 30
0.000000
  70
    32
  0
VERTEX
  8
0
  5
727F
 10
525.732
 20
423.219
 30
0.000000
  70
    32
  0
VERTEX
  8
0
  5
7280
 10
525.728
 20
423.227
 30
0.000000
  70
    32
  0
VERTEX
  8
0
  5
7281
 10
525.725
 20
423.235
 30
0.000000
  70
    32
  0
VERTEX
  8
0
  5
7282
 10
525.721
 20
423.243
 30
0.000000
  70
    32
  0
VERTEX
  8
0
  5
7283
 10
525.717
 20
423.251
 30
0.000000
  70
    32
  0
VERTEX
  8
0
  5
7284
 10
525.713
 20
423.259
 30
0.000000
  70
    32
  0
VERTEX
  8
0
  5
7285
 10
525.710
 20
423.266
 30
0.000000
  70
    32
  0
VERTEX
  8
0
  5
7286
 10
525.706
 20
423.274
 30
0.000000
  70
    32
  0
VERTEX
  8
0
  5
7287
 10
525.702
 20
423.282
 30
0.000000
  70
    32
  0
VERTEX
  8
0
  5
7288
 10
525.698
 20
423.290
 30
0.000000
  70
    32
  0
VERTEX
  8
0
  5
7289
 10
525.695
 20
423.298
 30
0.000000
  70
    32
  0
VERTEX
  8
0
  5
728A
 10
525.691
 20
423.305
 30
0.000000
  70
    32
  0
VERTEX
  8
0
  5
728B
 10
525.687
 20
423.313
 30
0.000000
  70
    32
  0
VERTEX
  8
0
  5
728C
 10
525.683
 20
423.321
 30
0.000000
  70
    32
  0
VERTEX
  8
0
  5
728D
 10
525.680
 20
423.329
 30
0.000000
  70
    32
  0
VERTEX
  8
0
  5
728E
 10
525.676
 20
423.337
 30
0.000000
  70
    32
  0
VERTEX
  8
0
  5
728F
 10
525.672
 20
423.344
 30
0.000000
  70
    32
  0
VERTEX
  8
0
  5
7290
 10
525.668
 20
423.352
 30
0.000000
  70
    32
  0
VERTEX
  8
0
  5
7291
 10
525.664
 20
423.360
 30
0.000000
  70
    32
  0
VERTEX
  8
0
  5
7292
 10
525.661
 20
423.368
 30
0.000000
  70
    32
  0
VERTEX
  8
0
  5
7293
 10
525.657
 20
423.376
 30
0.000000
  70
    32
  0
VERTEX
  8
0
  5
7294
 10
525.653
 20
423.383
 30
0.000000
  70
    32
  0
VERTEX
  8
0
  5
7295
 10
525.649
 20
423.391
 30
0.000000
  70
    32
  0
VERTEX
  8
0
  5
7296
 10
525.646
 20
423.399
 30
0.000000
  70
    32
  0
VERTEX
  8
0
  5
7297
 10
525.642
 20
423.407
 30
0.000000
  70
    32
  0
VERTEX
  8
0
  5
7298
 10
525.638
 20
423.415
 30
0.000000
  70
    32
  0
VERTEX
  8
0
  5
7299
 10
525.634
 20
423.423
 30
0.000000
  70
    32
  0
VERTEX
  8
0
  5
729A
 10
525.631
 20
423.430
 30
0.000000
  70
    32
  0
VERTEX
  8
0
  5
729B
 10
525.627
 20
423.438
 30
0.000000
  70
    32
  0
VERTEX
  8
0
  5
729C
 10
525.623
 20
423.446
 30
0.000000
  70
    32
  0
VERTEX
  8
0
  5
729D
 10
525.619
 20
423.454
 30
0.000000
  70
    32
  0
VERTEX
  8
0
  5
729E
 10
525.616
 20
423.462
 30
0.000000
  70
    32
  0
VERTEX
  8
0
  5
729F
 10
525.612
 20
423.469
 30
0.000000
  70
    32
  0
VERTEX
  8
0
  5
72A0
 10
525.608
 20
423.477
 30
0.000000
  70
    32
  0
VERTEX
  8
0
  5
72A1
 10
525.604
 20
423.485
 30
0.000000
  70
    32
  0
VERTEX
  8
0
  5
72A2
 10
525.600
 20
423.493
 30
0.000000
  70
    32
  0
VERTEX
  8
0
  5
72A3
 10
525.597
 20
423.501
 30
0.000000
  70
    32
  0
VERTEX
  8
0
  5
72A4
 10
525.593
 20
423.508
 30
0.000000
  70
    32
  0
VERTEX
  8
0
  5
72A5
 10
525.589
 20
423.516
 30
0.000000
  70
    32
  0
VERTEX
  8
0
  5
72A6
 10
525.585
 20
423.524
 30
0.000000
  70
    32
  0
VERTEX
  8
0
  5
72A7
 10
525.582
 20
423.532
 30
0.000000
  70
    32
  0
VERTEX
  8
0
  5
72A8
 10
525.578
 20
423.540
 30
0.000000
  70
    32
  0
VERTEX
  8
0
  5
72A9
 10
525.574
 20
423.547
 30
0.000000
  70
    32
  0
VERTEX
  8
0
  5
72AA
 10
525.570
 20
423.555
 30
0.000000
  70
    32
  0
VERTEX
  8
0
  5
72AB
 10
525.567
 20
423.563
 30
0.000000
  70
    32
  0
VERTEX
  8
0
  5
72AC
 10
525.563
 20
423.571
 30
0.000000
  70
    32
  0
VERTEX
  8
0
  5
72AD
 10
525.559
 20
423.579
 30
0.000000
  70
    32
  0
VERTEX
  8
0
  5
72AE
 10
525.555
 20
423.586
 30
0.000000
  70
    32
  0
VERTEX
  8
0
  5
72AF
 10
525.551
 20
423.594
 30
0.000000
  70
    32
  0
VERTEX
  8
0
  5
72B0
 10
525.548
 20
423.602
 30
0.000000
  70
    32
  0
VERTEX
  8
0
  5
72B1
 10
525.544
 20
423.610
 30
0.000000
  70
    32
  0
VERTEX
  8
0
  5
72B2
 10
525.540
 20
423.618
 30
0.000000
  70
    32
  0
VERTEX
  8
0
  5
72B3
 10
525.536
 20
423.625
 30
0.000000
  70
    32
  0
VERTEX
  8
0
  5
72B4
 10
525.533
 20
423.633
 30
0.000000
  70
    32
  0
VERTEX
  8
0
  5
72B5
 10
525.529
 20
423.641
 30
0.000000
  70
    32
  0
VERTEX
  8
0
  5
72B6
 10
525.525
 20
423.649
 30
0.000000
  70
    32
  0
VERTEX
  8
0
  5
72B7
 10
525.521
 20
423.656
 30
0.000000
  70
    32
  0
VERTEX
  8
0
  5
72B8
 10
525.517
 20
423.664
 30
0.000000
  70
    32
  0
VERTEX
  8
0
  5
72B9
 10
525.514
 20
423.672
 30
0.000000
  70
    32
  0
VERTEX
  8
0
  5
72BA
 10
525.510
 20
423.680
 30
0.000000
  70
    32
  0
VERTEX
  8
0
  5
72BB
 10
525.506
 20
423.688
 30
0.000000
  70
    32
  0
VERTEX
  8
0
  5
72BC
 10
525.502
 20
423.695
 30
0.000000
  70
    32
  0
VERTEX
  8
0
  5
72BD
 10
525.499
 20
423.703
 30
0.000000
  70
    32
  0
VERTEX
  8
0
  5
72BE
 10
525.495
 20
423.711
 30
0.000000
  70
    32
  0
VERTEX
  8
0
  5
72BF
 10
525.491
 20
423.719
 30
0.000000
  70
    32
  0
VERTEX
  8
0
  5
72C0
 10
525.487
 20
423.727
 30
0.000000
  70
    32
  0
VERTEX
  8
0
  5
72C1
 10
525.483
 20
423.734
 30
0.000000
  70
    32
  0
VERTEX
  8
0
  5
72C2
 10
525.480
 20
423.742
 30
0.000000
  70
    32
  0
VERTEX
  8
0
  5
72C3
 10
525.476
 20
423.750
 30
0.000000
  70
    32
  0
SEQEND
  8
0
  5
72C4
  0
LINE
  5
6711
  8
0
 10
426.31652702847231
 20
422.750000000032
 30
0.0
 11
525.957153506228
 21
422.750000000032
 31
0.0
  0
LINE
  5
6712
  8
0
 10
426.31652702847231
 20
423.75000000003189
 30
0.0
 11
426.31652702847231
 21
422.750000000032
 31
0.0
  0
CIRCLE
  5
6713
  8
0
 10
485.0
 20
435.75000000003212
 30
0.0
 40
1.500000000000014
  0
LINE
  5
677A
  8
2
 10
548.42757640085642
 20
450.25000000003212
 30
0.0
 11
548.42757640085642
 21
462.75000000003212
 31
0.0
  0
LINE
  5
677B
  8
2
 10
541.78057640085649
 20
462.75000000003212
 30
0.0
 11
541.78057640085649
 21
450.25000000003212
 31
0.0
  0
LINE
  5
677C
  8
2
 10
428.2194235991434
 20
450.25000000003212
 30
0.0
 11
428.2194235991434
 21
462.75000000003212
 31
0.0
  0
LINE
  5
677D
  8
2
 10
421.57242359914352
 20
462.75000000003212
 30
0.0
 11
421.57242359914352
 21
450.25000000003212
 31
0.0
  0
LINE
  5
681E
  8
0
 10
897.25000000003183
 20
424.11475682367779
 30
0.0
 11
897.25000000003183
 21
448.250000000032
 31
0.0
  0
LINE
  5
681F
  8
0
 10
707.25000000003183
 20
432.39354460322249
 30
0.0
 11
707.25000000003183
 21
424.11475682367779
 31
0.0
  0
LINE
  5
6820
  8
0
 10
707.25000000003183
 20
448.250000000032
 30
0.0
 11
707.25000000003183
 21
439.10645539684168
 31
0.0
  0
LINE
  5
6821
  8
0
 10
707.25000000003138
 20
424.11475682367779
 30
0.0
 11
708.79989906790468
 21
423.750000000032
 31
0.0
  0
LINE
  5
6822
  8
0
 10
895.70010093216035
 20
423.750000000032
 30
0.0
 11
897.25000000003354
 21
424.11475682367779
 31
0.0
  0
LINE
  5
6823
  8
0
 10
897.25000000003183
 20
448.250000000032
 30
0.0
 11
896.75000000003195
 21
448.75000000003217
 31
0.0
  0
LINE
  5
6824
  8
0
 10
707.75000000003183
 20
448.75000000003217
 30
0.0
 11
707.25000000003183
 21
448.250000000032
 31
0.0
  0
LINE
  5
6825
  8
0
 10
707.25000000003183
 20
462.75000000003212
 30
0.0
 11
707.25000000003183
 21
450.25000000003212
 31
0.0
  0
LINE
  5
6826
  8
0
 10
897.25000000003183
 20
450.25000000003212
 30
0.0
 11
897.25000000003183
 21
462.75000000003212
 31
0.0
  0
LINE
  5
6827
  8
0
 10
742.25000000003183
 20
423.75000000003217
 30
0.0
 11
742.25000000003183
 21
422.75000000003212
 31
0.0
  0
LINE
  5
6828
  8
0
 10
742.25000000003183
 20
450.25000000003212
 30
0.0
 11
742.25000000003183
 21
448.75000000003217
 31
0.0
  0
LINE
  5
6829
  8
0
 10
862.25000000003183
 20
448.75000000003217
 30
0.0
 11
862.25000000003183
 21
450.25000000003212
 31
0.0
  0
LINE
  5
682A
  8
0
 10
862.25000000003183
 20
422.75000000003212
 30
0.0
 11
862.25000000003183
 21
423.75000000003217
 31
0.0
  0
CIRCLE
  5
682C
  8
0
 10
802.25000000003183
 20
429.75000000003212
 30
0.0
 40
12.5
  0
POLYLINE
  5
682F
  8
0
 66
     1
 10
0.0
 20
0.0
 30
0.0
 70
   128
  0
VERTEX
  5
70B1
  8
0
 10
707.25000000003183
 20
432.39354460322249
 30
0.0
  0
VERTEX
  5
70B2
  8
0
 10
707.26164970793661
 20
432.69276412202538
 30
0.0
  0
VERTEX
  5
70B3
  8
0
 10
707.28071127883038
 20
433.35713556365789
 30
0.0
  0
VERTEX
  5
70B4
  8
0
 10
707.29966071423837
 20
434.291600024959
 30
0.0
  0
VERTEX
  5
70B5
  8
0
 10
707.31018143757774
 20
435.39062739164029
 30
0.0
  0
VERTEX
  5
70B6
  8
0
 10
707.31086160073926
 20
435.75000000003212
 30
0.0
  0
VERTEX
  5
70B7
  8
0
 10
707.30419625348338
 20
436.87501070133942
 30
0.0
  0
VERTEX
  5
70B8
  8
0
 10
707.28712360559894
 20
437.87317995102939
 30
0.0
  0
VERTEX
  5
70B9
  8
0
 10
707.26711521109814
 20
438.63243002135903
 30
0.0
  0
VERTEX
  5
70BA
  8
0
 10
707.25293870374378
 20
439.06687427119692
 30
0.0
  0
VERTEX
  5
70BB
  8
0
 10
707.25000000003183
 20
439.10645539684168
 30
0.0
  0
SEQEND
  5
70BC
  8
0
  0
LINE
  5
6832
  8
0
 10
895.70010093216035
 20
423.750000000032
 30
0.0
 11
813.21585609976273
 21
423.750000000032
 31
0.0
  0
LINE
  5
6833
  8
0
 10
791.28414390030127
 20
423.750000000032
 30
0.0
 11
708.79989906790468
 21
423.750000000032
 31
0.0
  0
LINE
  5
6834
  8
0
 10
896.75000000003195
 20
448.75000000003217
 30
0.0
 11
707.75000000003149
 21
448.75000000003217
 31
0.0
  0
LINE
  5
6836
  8
0
 10
897.25000000003183
 20
462.75000000003212
 30
0.0
 11
707.25000000003183
 21
462.75000000003212
 31
0.0
  0
LINE
  5
6838
  8
0
 10
897.25000000003183
 20
450.25000000003212
 30
0.0
 11
707.25000000003183
 21
450.25000000003212
 31
0.0
  0
POLYLINE
  5
683B
  8
0
 10
846.0964545507394
 20
422.750000000032
 30
0.0
 66
     1
 70
     8
  0
VERTEX
  8
0
  5
72C5
 10
846.096
 20
422.750
 30
0.000000
  70
    32
  0
VERTEX
  8
0
  5
72C6
 10
846.100
 20
422.758
 30
0.000000
  70
    32
  0
VERTEX
  8
0
  5
72C7
 10
846.103
 20
422.766
 30
0.000000
  70
    32
  0
VERTEX
  8
0
  5
72C8
 10
846.107
 20
422.774
 30
0.000000
  70
    32
  0
VERTEX
  8
0
  5
72C9
 10
846.110
 20
422.781
 30
0.000000
  70
    32
  0
VERTEX
  8
0
  5
72CA
 10
846.114
 20
422.789
 30
0.000000
  70
    32
  0
VERTEX
  8
0
  5
72CB
 10
846.117
 20
422.797
 30
0.000000
  70
    32
  0
VERTEX
  8
0
  5
72CC
 10
846.121
 20
422.805
 30
0.000000
  70
    32
  0
VERTEX
  8
0
  5
72CD
 10
846.124
 20
422.813
 30
0.000000
  70
    32
  0
VERTEX
  8
0
  5
72CE
 10
846.128
 20
422.821
 30
0.000000
  70
    32
  0
VERTEX
  8
0
  5
72CF
 10
846.131
 20
422.828
 30
0.000000
  70
    32
  0
VERTEX
  8
0
  5
72D0
 10
846.135
 20
422.836
 30
0.000000
  70
    32
  0
VERTEX
  8
0
  5
72D1
 10
846.138
 20
422.844
 30
0.000000
  70
    32
  0
VERTEX
  8
0
  5
72D2
 10
846.142
 20
422.852
 30
0.000000
  70
    32
  0
VERTEX
  8
0
  5
72D3
 10
846.145
 20
422.860
 30
0.000000
  70
    32
  0
VERTEX
  8
0
  5
72D4
 10
846.149
 20
422.867
 30
0.000000
  70
    32
  0
VERTEX
  8
0
  5
72D5
 10
846.152
 20
422.875
 30
0.000000
  70
    32
  0
VERTEX
  8
0
  5
72D6
 10
846.156
 20
422.883
 30
0.000000
  70
    32
  0
VERTEX
  8
0
  5
72D7
 10
846.159
 20
422.891
 30
0.000000
  70
    32
  0
VERTEX
  8
0
  5
72D8
 10
846.163
 20
422.899
 30
0.000000
  70
    32
  0
VERTEX
  8
0
  5
72D9
 10
846.166
 20
422.907
 30
0.000000
  70
    32
  0
VERTEX
  8
0
  5
72DA
 10
846.170
 20
422.914
 30
0.000000
  70
    32
  0
VERTEX
  8
0
  5
72DB
 10
846.173
 20
422.922
 30
0.000000
  70
    32
  0
VERTEX
  8
0
  5
72DC
 10
846.177
 20
422.930
 30
0.000000
  70
    32
  0
VERTEX
  8
0
  5
72DD
 10
846.180
 20
422.938
 30
0.000000
  70
    32
  0
VERTEX
  8
0
  5
72DE
 10
846.184
 20
422.946
 30
0.000000
  70
    32
  0
VERTEX
  8
0
  5
72DF
 10
846.187
 20
422.954
 30
0.000000
  70
    32
  0
VERTEX
  8
0
  5
72E0
 10
846.191
 20
422.961
 30
0.000000
  70
    32
  0
VERTEX
  8
0
  5
72E1
 10
846.194
 20
422.969
 30
0.000000
  70
    32
  0
VERTEX
  8
0
  5
72E2
 10
846.198
 20
422.977
 30
0.000000
  70
    32
  0
VERTEX
  8
0
  5
72E3
 10
846.201
 20
422.985
 30
0.000000
  70
    32
  0
VERTEX
  8
0
  5
72E4
 10
846.205
 20
422.993
 30
0.000000
  70
    32
  0
VERTEX
  8
0
  5
72E5
 10
846.208
 20
423.001
 30
0.000000
  70
    32
  0
VERTEX
  8
0
  5
72E6
 10
846.212
 20
423.008
 30
0.000000
  70
    32
  0
VERTEX
  8
0
  5
72E7
 10
846.215
 20
423.016
 30
0.000000
  70
    32
  0
VERTEX
  8
0
  5
72E8
 10
846.219
 20
423.024
 30
0.000000
  70
    32
  0
VERTEX
  8
0
  5
72E9
 10
846.222
 20
423.032
 30
0.000000
  70
    32
  0
VERTEX
  8
0
  5
72EA
 10
846.226
 20
423.040
 30
0.000000
  70
    32
  0
VERTEX
  8
0
  5
72EB
 10
846.229
 20
423.047
 30
0.000000
  70
    32
  0
VERTEX
  8
0
  5
72EC
 10
846.232
 20
423.055
 30
0.000000
  70
    32
  0
VERTEX
  8
0
  5
72ED
 10
846.236
 20
423.063
 30
0.000000
  70
    32
  0
VERTEX
  8
0
  5
72EE
 10
846.239
 20
423.071
 30
0.000000
  70
    32
  0
VERTEX
  8
0
  5
72EF
 10
846.243
 20
423.079
 30
0.000000
  70
    32
  0
VERTEX
  8
0
  5
72F0
 10
846.246
 20
423.087
 30
0.000000
  70
    32
  0
VERTEX
  8
0
  5
72F1
 10
846.250
 20
423.094
 30
0.000000
  70
    32
  0
VERTEX
  8
0
  5
72F2
 10
846.253
 20
423.102
 30
0.000000
  70
    32
  0
VERTEX
  8
0
  5
72F3
 10
846.257
 20
423.110
 30
0.000000
  70
    32
  0
VERTEX
  8
0
  5
72F4
 10
846.260
 20
423.118
 30
0.000000
  70
    32
  0
VERTEX
  8
0
  5
72F5
 10
846.264
 20
423.126
 30
0.000000
  70
    32
  0
VERTEX
  8
0
  5
72F6
 10
846.267
 20
423.134
 30
0.000000
  70
    32
  0
VERTEX
  8
0
  5
72F7
 10
846.271
 20
423.141
 30
0.000000
  70
    32
  0
VERTEX
  8
0
  5
72F8
 10
846.274
 20
423.149
 30
0.000000
  70
    32
  0
VERTEX
  8
0
  5
72F9
 10
846.278
 20
423.157
 30
0.000000
  70
    32
  0
VERTEX
  8
0
  5
72FA
 10
846.281
 20
423.165
 30
0.000000
  70
    32
  0
VERTEX
  8
0
  5
72FB
 10
846.285
 20
423.173
 30
0.000000
  70
    32
  0
VERTEX
  8
0
  5
72FC
 10
846.288
 20
423.180
 30
0.000000
  70
    32
  0
VERTEX
  8
0
  5
72FD
 10
846.292
 20
423.188
 30
0.000000
  70
    32
  0
VERTEX
  8
0
  5
72FE
 10
846.295
 20
423.196
 30
0.000000
  70
    32
  0
VERTEX
  8
0
  5
72FF
 10
846.299
 20
423.204
 30
0.000000
  70
    32
  0
VERTEX
  8
0
  5
7300
 10
846.302
 20
423.212
 30
0.000000
  70
    32
  0
VERTEX
  8
0
  5
7301
 10
846.306
 20
423.219
 30
0.000000
  70
    32
  0
VERTEX
  8
0
  5
7302
 10
846.309
 20
423.227
 30
0.000000
  70
    32
  0
VERTEX
  8
0
  5
7303
 10
846.312
 20
423.235
 30
0.000000
  70
    32
  0
VERTEX
  8
0
  5
7304
 10
846.316
 20
423.243
 30
0.000000
  70
    32
  0
VERTEX
  8
0
  5
7305
 10
846.319
 20
423.251
 30
0.000000
  70
    32
  0
VERTEX
  8
0
  5
7306
 10
846.323
 20
423.259
 30
0.000000
  70
    32
  0
VERTEX
  8
0
  5
7307
 10
846.326
 20
423.266
 30
0.000000
  70
    32
  0
VERTEX
  8
0
  5
7308
 10
846.330
 20
423.274
 30
0.000000
  70
    32
  0
VERTEX
  8
0
  5
7309
 10
846.333
 20
423.282
 30
0.000000
  70
    32
  0
VERTEX
  8
0
  5
730A
 10
846.337
 20
423.290
 30
0.000000
  70
    32
  0
VERTEX
  8
0
  5
730B
 10
846.340
 20
423.298
 30
0.000000
  70
    32
  0
VERTEX
  8
0
  5
730C
 10
846.344
 20
423.305
 30
0.000000
  70
    32
  0
VERTEX
  8
0
  5
730D
 10
846.347
 20
423.313
 30
0.000000
  70
    32
  0
VERTEX
  8
0
  5
730E
 10
846.351
 20
423.321
 30
0.000000
  70
    32
  0
VERTEX
  8
0
  5
730F
 10
846.354
 20
423.329
 30
0.000000
  70
    32
  0
VERTEX
  8
0
  5
7310
 10
846.358
 20
423.337
 30
0.000000
  70
    32
  0
VERTEX
  8
0
  5
7311
 10
846.361
 20
423.344
 30
0.000000
  70
    32
  0
VERTEX
  8
0
  5
7312
 10
846.365
 20
423.352
 30
0.000000
  70
    32
  0
VERTEX
  8
0
  5
7313
 10
846.368
 20
423.360
 30
0.000000
  70
    32
  0
VERTEX
  8
0
  5
7314
 10
846.371
 20
423.368
 30
0.000000
  70
    32
  0
VERTEX
  8
0
  5
7315
 10
846.375
 20
423.376
 30
0.000000
  70
    32
  0
VERTEX
  8
0
  5
7316
 10
846.378
 20
423.383
 30
0.000000
  70
    32
  0
VERTEX
  8
0
  5
7317
 10
846.382
 20
423.391
 30
0.000000
  70
    32
  0
VERTEX
  8
0
  5
7318
 10
846.385
 20
423.399
 30
0.000000
  70
    32
  0
VERTEX
  8
0
  5
7319
 10
846.389
 20
423.407
 30
0.000000
  70
    32
  0
VERTEX
  8
0
  5
731A
 10
846.392
 20
423.415
 30
0.000000
  70
    32
  0
VERTEX
  8
0
  5
731B
 10
846.396
 20
423.423
 30
0.000000
  70
    32
  0
VERTEX
  8
0
  5
731C
 10
846.399
 20
423.430
 30
0.000000
  70
    32
  0
VERTEX
  8
0
  5
731D
 10
846.403
 20
423.438
 30
0.000000
  70
    32
  0
VERTEX
  8
0
  5
731E
 10
846.406
 20
423.446
 30
0.000000
  70
    32
  0
VERTEX
  8
0
  5
731F
 10
846.410
 20
423.454
 30
0.000000
  70
    32
  0
VERTEX
  8
0
  5
7320
 10
846.413
 20
423.462
 30
0.000000
  70
    32
  0
VERTEX
  8
0
  5
7321
 10
846.417
 20
423.469
 30
0.000000
  70
    32
  0
VERTEX
  8
0
  5
7322
 10
846.420
 20
423.477
 30
0.000000
  70
    32
  0
VERTEX
  8
0
  5
7323
 10
846.423
 20
423.485
 30
0.000000
  70
    32
  0
VERTEX
  8
0
  5
7324
 10
846.427
 20
423.493
 30
0.000000
  70
    32
  0
VERTEX
  8
0
  5
7325
 10
846.430
 20
423.501
 30
0.000000
  70
    32
  0
VERTEX
  8
0
  5
7326
 10
846.434
 20
423.508
 30
0.000000
  70
    32
  0
VERTEX
  8
0
  5
7327
 10
846.437
 20
423.516
 30
0.000000
  70
    32
  0
VERTEX
  8
0
  5
7328
 10
846.441
 20
423.524
 30
0.000000
  70
    32
  0
VERTEX
  8
0
  5
7329
 10
846.444
 20
423.532
 30
0.000000
  70
    32
  0
VERTEX
  8
0
  5
732A
 10
846.448
 20
423.540
 30
0.000000
  70
    32
  0
VERTEX
  8
0
  5
732B
 10
846.451
 20
423.547
 30
0.000000
  70
    32
  0
VERTEX
  8
0
  5
732C
 10
846.455
 20
423.555
 30
0.000000
  70
    32
  0
VERTEX
  8
0
  5
732D
 10
846.458
 20
423.563
 30
0.000000
  70
    32
  0
VERTEX
  8
0
  5
732E
 10
846.462
 20
423.571
 30
0.000000
  70
    32
  0
VERTEX
  8
0
  5
732F
 10
846.465
 20
423.579
 30
0.000000
  70
    32
  0
VERTEX
  8
0
  5
7330
 10
846.468
 20
423.586
 30
0.000000
  70
    32
  0
VERTEX
  8
0
  5
7331
 10
846.472
 20
423.594
 30
0.000000
  70
    32
  0
VERTEX
  8
0
  5
7332
 10
846.475
 20
423.602
 30
0.000000
  70
    32
  0
VERTEX
  8
0
  5
7333
 10
846.479
 20
423.610
 30
0.000000
  70
    32
  0
VERTEX
  8
0
  5
7334
 10
846.482
 20
423.618
 30
0.000000
  70
    32
  0
VERTEX
  8
0
  5
7335
 10
846.486
 20
423.625
 30
0.000000
  70
    32
  0
VERTEX
  8
0
  5
7336
 10
846.489
 20
423.633
 30
0.000000
  70
    32
  0
VERTEX
  8
0
  5
7337
 10
846.493
 20
423.641
 30
0.000000
  70
    32
  0
VERTEX
  8
0
  5
7338
 10
846.496
 20
423.649
 30
0.000000
  70
    32
  0
VERTEX
  8
0
  5
7339
 10
846.500
 20
423.656
 30
0.000000
  70
    32
  0
VERTEX
  8
0
  5
733A
 10
846.503
 20
423.664
 30
0.000000
  70
    32
  0
VERTEX
  8
0
  5
733B
 10
846.507
 20
423.672
 30
0.000000
  70
    32
  0
VERTEX
  8
0
  5
733C
 10
846.510
 20
423.680
 30
0.000000
  70
    32
  0
VERTEX
  8
0
  5
733D
 10
846.513
 20
423.688
 30
0.000000
  70
    32
  0
VERTEX
  8
0
  5
733E
 10
846.517
 20
423.695
 30
0.000000
  70
    32
  0
VERTEX
  8
0
  5
733F
 10
846.520
 20
423.703
 30
0.000000
  70
    32
  0
VERTEX
  8
0
  5
7340
 10
846.524
 20
423.711
 30
0.000000
  70
    32
  0
VERTEX
  8
0
  5
7341
 10
846.527
 20
423.719
 30
0.000000
  70
    32
  0
VERTEX
  8
0
  5
7342
 10
846.531
 20
423.727
 30
0.000000
  70
    32
  0
VERTEX
  8
0
  5
7343
 10
846.534
 20
423.734
 30
0.000000
  70
    32
  0
VERTEX
  8
0
  5
7344
 10
846.538
 20
423.742
 30
0.000000
  70
    32
  0
VERTEX
  8
0
  5
7345
 10
846.541
 20
423.750
 30
0.000000
  70
    32
  0
SEQEND
  8
0
  5
7346
  0
POLYLINE
  5
683C
  8
0
 10
757.95892769398995
 20
423.75000000002927
 30
0.0
 66
     1
 70
     8
  0
VERTEX
  8
0
  5
7347
 10
757.959
 20
423.750
 30
0.000000
  70
    32
  0
VERTEX
  8
0
  5
7348
 10
757.962
 20
423.742
 30
0.000000
  70
    32
  0
VERTEX
  8
0
  5
7349
 10
757.966
 20
423.734
 30
0.000000
  70
    32
  0
VERTEX
  8
0
  5
734A
 10
757.969
 20
423.727
 30
0.000000
  70
    32
  0
VERTEX
  8
0
  5
734B
 10
757.973
 20
423.719
 30
0.000000
  70
    32
  0
VERTEX
  8
0
  5
734C
 10
757.976
 20
423.711
 30
0.000000
  70
    32
  0
VERTEX
  8
0
  5
734D
 10
757.980
 20
423.703
 30
0.000000
  70
    32
  0
VERTEX
  8
0
  5
734E
 10
757.983
 20
423.695
 30
0.000000
  70
    32
  0
VERTEX
  8
0
  5
734F
 10
757.987
 20
423.688
 30
0.000000
  70
    32
  0
VERTEX
  8
0
  5
7350
 10
757.990
 20
423.680
 30
0.000000
  70
    32
  0
VERTEX
  8
0
  5
7351
 10
757.993
 20
423.672
 30
0.000000
  70
    32
  0
VERTEX
  8
0
  5
7352
 10
757.997
 20
423.664
 30
0.000000
  70
    32
  0
VERTEX
  8
0
  5
7353
 10
758.000
 20
423.656
 30
0.000000
  70
    32
  0
VERTEX
  8
0
  5
7354
 10
758.004
 20
423.649
 30
0.000000
  70
    32
  0
VERTEX
  8
0
  5
7355
 10
758.007
 20
423.641
 30
0.000000
  70
    32
  0
VERTEX
  8
0
  5
7356
 10
758.011
 20
423.633
 30
0.000000
  70
    32
  0
VERTEX
  8
0
  5
7357
 10
758.014
 20
423.625
 30
0.000000
  70
    32
  0
VERTEX
  8
0
  5
7358
 10
758.018
 20
423.618
 30
0.000000
  70
    32
  0
VERTEX
  8
0
  5
7359
 10
758.021
 20
423.610
 30
0.000000
  70
    32
  0
VERTEX
  8
0
  5
735A
 10
758.025
 20
423.602
 30
0.000000
  70
    32
  0
VERTEX
  8
0
  5
735B
 10
758.028
 20
423.594
 30
0.000000
  70
    32
  0
VERTEX
  8
0
  5
735C
 10
758.032
 20
423.586
 30
0.000000
  70
    32
  0
VERTEX
  8
0
  5
735D
 10
758.035
 20
423.579
 30
0.000000
  70
    32
  0
VERTEX
  8
0
  5
735E
 10
758.038
 20
423.571
 30
0.000000
  70
    32
  0
VERTEX
  8
0
  5
735F
 10
758.042
 20
423.563
 30
0.000000
  70
    32
  0
VERTEX
  8
0
  5
7360
 10
758.045
 20
423.555
 30
0.000000
  70
    32
  0
VERTEX
  8
0
  5
7361
 10
758.049
 20
423.547
 30
0.000000
  70
    32
  0
VERTEX
  8
0
  5
7362
 10
758.052
 20
423.540
 30
0.000000
  70
    32
  0
VERTEX
  8
0
  5
7363
 10
758.056
 20
423.532
 30
0.000000
  70
    32
  0
VERTEX
  8
0
  5
7364
 10
758.059
 20
423.524
 30
0.000000
  70
    32
  0
VERTEX
  8
0
  5
7365
 10
758.063
 20
423.516
 30
0.000000
  70
    32
  0
VERTEX
  8
0
  5
7366
 10
758.066
 20
423.508
 30
0.000000
  70
    32
  0
VERTEX
  8
0
  5
7367
 10
758.070
 20
423.501
 30
0.000000
  70
    32
  0
VERTEX
  8
0
  5
7368
 10
758.073
 20
423.493
 30
0.000000
  70
    32
  0
VERTEX
  8
0
  5
7369
 10
758.077
 20
423.485
 30
0.000000
  70
    32
  0
VERTEX
  8
0
  5
736A
 10
758.080
 20
423.477
 30
0.000000
  70
    32
  0
VERTEX
  8
0
  5
736B
 10
758.083
 20
423.469
 30
0.000000
  70
    32
  0
VERTEX
  8
0
  5
736C
 10
758.087
 20
423.462
 30
0.000000
  70
    32
  0
VERTEX
  8
0
  5
736D
 10
758.090
 20
423.454
 30
0.000000
  70
    32
  0
VERTEX
  8
0
  5
736E
 10
758.094
 20
423.446
 30
0.000000
  70
    32
  0
VERTEX
  8
0
  5
736F
 10
758.097
 20
423.438
 30
0.000000
  70
    32
  0
VERTEX
  8
0
  5
7370
 10
758.101
 20
423.430
 30
0.000000
  70
    32
  0
VERTEX
  8
0
  5
7371
 10
758.104
 20
423.423
 30
0.000000
  70
    32
  0
VERTEX
  8
0
  5
7372
 10
758.108
 20
423.415
 30
0.000000
  70
    32
  0
VERTEX
  8
0
  5
7373
 10
758.111
 20
423.407
 30
0.000000
  70
    32
  0
VERTEX
  8
0
  5
7374
 10
758.115
 20
423.399
 30
0.000000
  70
    32
  0
VERTEX
  8
0
  5
7375
 10
758.118
 20
423.391
 30
0.000000
  70
    32
  0
VERTEX
  8
0
  5
7376
 10
758.122
 20
423.383
 30
0.000000
  70
    32
  0
VERTEX
  8
0
  5
7377
 10
758.125
 20
423.376
 30
0.000000
  70
    32
  0
VERTEX
  8
0
  5
7378
 10
758.129
 20
423.368
 30
0.000000
  70
    32
  0
VERTEX
  8
0
  5
7379
 10
758.132
 20
423.360
 30
0.000000
  70
    32
  0
VERTEX
  8
0
  5
737A
 10
758.135
 20
423.352
 30
0.000000
  70
    32
  0
VERTEX
  8
0
  5
737B
 10
758.139
 20
423.344
 30
0.000000
  70
    32
  0
VERTEX
  8
0
  5
737C
 10
758.142
 20
423.337
 30
0.000000
  70
    32
  0
VERTEX
  8
0
  5
737D
 10
758.146
 20
423.329
 30
0.000000
  70
    32
  0
VERTEX
  8
0
  5
737E
 10
758.149
 20
423.321
 30
0.000000
  70
    32
  0
VERTEX
  8
0
  5
737F
 10
758.153
 20
423.313
 30
0.000000
  70
    32
  0
VERTEX
  8
0
  5
7380
 10
758.156
 20
423.305
 30
0.000000
  70
    32
  0
VERTEX
  8
0
  5
7381
 10
758.160
 20
423.298
 30
0.000000
  70
    32
  0
VERTEX
  8
0
  5
7382
 10
758.163
 20
423.290
 30
0.000000
  70
    32
  0
VERTEX
  8
0
  5
7383
 10
758.167
 20
423.282
 30
0.000000
  70
    32
  0
VERTEX
  8
0
  5
7384
 10
758.170
 20
423.274
 30
0.000000
  70
    32
  0
VERTEX
  8
0
  5
7385
 10
758.174
 20
423.266
 30
0.000000
  70
    32
  0
VERTEX
  8
0
  5
7386
 10
758.177
 20
423.259
 30
0.000000
  70
    32
  0
VERTEX
  8
0
  5
7387
 10
758.181
 20
423.251
 30
0.000000
  70
    32
  0
VERTEX
  8
0
  5
7388
 10
758.184
 20
423.243
 30
0.000000
  70
    32
  0
VERTEX
  8
0
  5
7389
 10
758.188
 20
423.235
 30
0.000000
  70
    32
  0
VERTEX
  8
0
  5
738A
 10
758.191
 20
423.227
 30
0.000000
  70
    32
  0
VERTEX
  8
0
  5
738B
 10
758.194
 20
423.219
 30
0.000000
  70
    32
  0
VERTEX
  8
0
  5
738C
 10
758.198
 20
423.212
 30
0.000000
  70
    32
  0
VERTEX
  8
0
  5
738D
 10
758.201
 20
423.204
 30
0.000000
  70
    32
  0
VERTEX
  8
0
  5
738E
 10
758.205
 20
423.196
 30
0.000000
  70
    32
  0
VERTEX
  8
0
  5
738F
 10
758.208
 20
423.188
 30
0.000000
  70
    32
  0
VERTEX
  8
0
  5
7390
 10
758.212
 20
423.180
 30
0.000000
  70
    32
  0
VERTEX
  8
0
  5
7391
 10
758.215
 20
423.173
 30
0.000000
  70
    32
  0
VERTEX
  8
0
  5
7392
 10
758.219
 20
423.165
 30
0.000000
  70
    32
  0
VERTEX
  8
0
  5
7393
 10
758.222
 20
423.157
 30
0.000000
  70
    32
  0
VERTEX
  8
0
  5
7394
 10
758.226
 20
423.149
 30
0.000000
  70
    32
  0
VERTEX
  8
0
  5
7395
 10
758.229
 20
423.141
 30
0.000000
  70
    32
  0
VERTEX
  8
0
  5
7396
 10
758.233
 20
423.134
 30
0.000000
  70
    32
  0
VERTEX
  8
0
  5
7397
 10
758.236
 20
423.126
 30
0.000000
  70
    32
  0
VERTEX
  8
0
  5
7398
 10
758.240
 20
423.118
 30
0.000000
  70
    32
  0
VERTEX
  8
0
  5
7399
 10
758.243
 20
423.110
 30
0.000000
  70
    32
  0
VERTEX
  8
0
  5
739A
 10
758.247
 20
423.102
 30
0.000000
  70
    32
  0
VERTEX
  8
0
  5
739B
 10
758.250
 20
423.094
 30
0.000000
  70
    32
  0
VERTEX
  8
0
  5
739C
 10
758.254
 20
423.087
 30
0.000000
  70
    32
  0
VERTEX
  8
0
  5
739D
 10
758.257
 20
423.079
 30
0.000000
  70
    32
  0
VERTEX
  8
0
  5
739E
 10
758.261
 20
423.071
 30
0.000000
  70
    32
  0
VERTEX
  8
0
  5
739F
 10
758.264
 20
423.063
 30
0.000000
  70
    32
  0
VERTEX
  8
0
  5
73A0
 10
758.268
 20
423.055
 30
0.000000
  70
    32
  0
VERTEX
  8
0
  5
73A1
 10
758.271
 20
423.047
 30
0.000000
  70
    32
  0
VERTEX
  8
0
  5
73A2
 10
758.274
 20
423.040
 30
0.000000
  70
    32
  0
VERTEX
  8
0
  5
73A3
 10
758.278
 20
423.032
 30
0.000000
  70
    32
  0
VERTEX
  8
0
  5
73A4
 10
758.281
 20
423.024
 30
0.000000
  70
    32
  0
VERTEX
  8
0
  5
73A5
 10
758.285
 20
423.016
 30
0.000000
  70
    32
  0
VERTEX
  8
0
  5
73A6
 10
758.288
 20
423.008
 30
0.000000
  70
    32
  0
VERTEX
  8
0
  5
73A7
 10
758.292
 20
423.001
 30
0.000000
  70
    32
  0
VERTEX
  8
0
  5
73A8
 10
758.295
 20
422.993
 30
0.000000
  70
    32
  0
VERTEX
  8
0
  5
73A9
 10
758.299
 20
422.985
 30
0.000000
  70
    32
  0
VERTEX
  8
0
  5
73AA
 10
758.302
 20
422.977
 30
0.000000
  70
    32
  0
VERTEX
  8
0
  5
73AB
 10
758.306
 20
422.969
 30
0.000000
  70
    32
  0
VERTEX
  8
0
  5
73AC
 10
758.309
 20
422.961
 30
0.000000
  70
    32
  0
VERTEX
  8
0
  5
73AD
 10
758.313
 20
422.954
 30
0.000000
  70
    32
  0
VERTEX
  8
0
  5
73AE
 10
758.316
 20
422.946
 30
0.000000
  70
    32
  0
VERTEX
  8
0
  5
73AF
 10
758.320
 20
422.938
 30
0.000000
  70
    32
  0
VERTEX
  8
0
  5
73B0
 10
758.323
 20
422.930
 30
0.000000
  70
    32
  0
VERTEX
  8
0
  5
73B1
 10
758.327
 20
422.922
 30
0.000000
  70
    32
  0
VERTEX
  8
0
  5
73B2
 10
758.330
 20
422.914
 30
0.000000
  70
    32
  0
VERTEX
  8
0
  5
73B3
 10
758.334
 20
422.907
 30
0.000000
  70
    32
  0
VERTEX
  8
0
  5
73B4
 10
758.337
 20
422.899
 30
0.000000
  70
    32
  0
VERTEX
  8
0
  5
73B5
 10
758.341
 20
422.891
 30
0.000000
  70
    32
  0
VERTEX
  8
0
  5
73B6
 10
758.344
 20
422.883
 30
0.000000
  70
    32
  0
VERTEX
  8
0
  5
73B7
 10
758.348
 20
422.875
 30
0.000000
  70
    32
  0
VERTEX
  8
0
  5
73B8
 10
758.351
 20
422.867
 30
0.000000
  70
    32
  0
VERTEX
  8
0
  5
73B9
 10
758.355
 20
422.860
 30
0.000000
  70
    32
  0
VERTEX
  8
0
  5
73BA
 10
758.358
 20
422.852
 30
0.000000
  70
    32
  0
VERTEX
  8
0
  5
73BB
 10
758.362
 20
422.844
 30
0.000000
  70
    32
  0
VERTEX
  8
0
  5
73BC
 10
758.365
 20
422.836
 30
0.000000
  70
    32
  0
VERTEX
  8
0
  5
73BD
 10
758.369
 20
422.828
 30
0.000000
  70
    32
  0
VERTEX
  8
0
  5
73BE
 10
758.372
 20
422.821
 30
0.000000
  70
    32
  0
VERTEX
  8
0
  5
73BF
 10
758.376
 20
422.813
 30
0.000000
  70
    32
  0
VERTEX
  8
0
  5
73C0
 10
758.379
 20
422.805
 30
0.000000
  70
    32
  0
VERTEX
  8
0
  5
73C1
 10
758.383
 20
422.797
 30
0.000000
  70
    32
  0
VERTEX
  8
0
  5
73C2
 10
758.386
 20
422.789
 30
0.000000
  70
    32
  0
VERTEX
  8
0
  5
73C3
 10
758.390
 20
422.781
 30
0.000000
  70
    32
  0
VERTEX
  8
0
  5
73C4
 10
758.393
 20
422.774
 30
0.000000
  70
    32
  0
VERTEX
  8
0
  5
73C5
 10
758.397
 20
422.766
 30
0.000000
  70
    32
  0
VERTEX
  8
0
  5
73C6
 10
758.400
 20
422.758
 30
0.000000
  70
    32
  0
VERTEX
  8
0
  5
73C7
 10
758.404
 20
422.750
 30
0.000000
  70
    32
  0
SEQEND
  8
0
  5
73C8
  0
LINE
  5
683E
  8
0
 10
789.75000000003183
 20
422.75000000003212
 30
0.0
 11
789.75000000003183
 21
423.750000000032
 31
0.0
  0
LINE
  5
683F
  8
0
 10
742.25000000003183
 20
422.750000000032
 30
0.0
 11
789.75000000003183
 21
422.75000000003212
 31
0.0
  0
LINE
  5
6840
  8
0
 10
814.75000000003183
 20
422.75000000003212
 30
0.0
 11
862.25000000003183
 21
422.750000000032
 31
0.0
  0
LINE
  5
6841
  8
0
 10
814.75000000003183
 20
423.750000000032
 30
0.0
 11
814.75000000003183
 21
422.75000000003212
 31
0.0
  0
LINE
  5
68AA
  8
2
 10
745.46942359917512
 20
450.25000000003212
 30
0.0
 11
745.46942359917512
 21
462.75000000003212
 31
0.0
  0
LINE
  5
68AB
  8
2
 10
738.82242359917507
 20
462.75000000003212
 30
0.0
 11
738.82242359917507
 21
450.25000000003212
 31
0.0
  0
LINE
  5
68AC
  8
2
 10
865.67757640088826
 20
450.25000000003212
 30
0.0
 11
865.67757640088826
 21
462.75000000003212
 31
0.0
  0
LINE
  5
68AD
  8
2
 10
859.03057640088832
 20
462.75000000003212
 30
0.0
 11
859.03057640088832
 21
450.25000000003212
 31
0.0
  0
CIRCLE
  5
6BB9
  8
3
 10
255.10407640085671
 20
597.64592359917549
 30
0.0
 40
4.0
  0
CIRCLE
  5
6BBA
  8
0
 10
255.10407640085671
 20
597.64592359917549
 30
0.0
 40
3.3235000000000001
  0
CIRCLE
  5
6BBB
  8
3
 10
134.89592359914349
 20
597.6459235991756
 30
0.0
 40
4.0
  0
CIRCLE
  5
6BBC
  8
0
 10
134.89592359914349
 20
597.6459235991756
 30
0.0
 40
3.3235000000000001
  0
CIRCLE
  5
6BBD
  8
3
 10
255.10407640085671
 20
717.85407640088874
 30
0.0
 40
4.0
  0
CIRCLE
  5
6BBE
  8
0
 10
255.10407640085671
 20
717.85407640088874
 30
0.0
 40
3.3235000000000001
  0
CIRCLE
  5
6BBF
  8
3
 10
134.89592359914349
 20
717.85407640088874
 30
0.0
 40
4.0
  0
CIRCLE
  5
6BC0
  8
0
 10
134.89592359914349
 20
717.85407640088874
 30
0.0
 40
3.3235000000000001
  0
LINE
  5
6BC1
  8
1
 10
195.0
 20
790.00000000006435
 30
0.0
 11
195.0
 21
552.75000000003195
 31
0.0
  0
LINE
  5
6BC2
  8
1
 10
300.0
 20
657.75000000003195
 30
0.0
 11
90.0
 21
657.75000000003195
 31
0.0
  0
LINE
  5
6C77
  8
3
 10
191.59999999999991
 20
755.00000000006435
 30
0.0
 11
191.59999999999991
 21
752.68913839932452
 31
0.0
  0
LINE
  5
6C78
  8
3
 10
198.40000000000009
 20
755.00000000006435
 30
0.0
 11
198.40000000000009
 21
752.68913839932452
 31
0.0
  0
CIRCLE
  5
6C8A
  8
1
 10
195.0
 20
657.75000000003195
 30
0.0
 40
85.0
  0
LINE
  5
6C8B
  8
1
 10
261.46803743153549
 20
724.21803743156761
 30
0.0
 11
248.74011537017779
 21
711.49011537020965
 31
0.0
  0
LINE
  5
6C8C
  8
1
 10
128.53196256846471
 20
724.21803743156761
 30
0.0
 11
141.25988462982241
 21
711.49011537020965
 31
0.0
  0
LINE
  5
6C91
  8
1
 10
141.25988462982241
 20
604.00988462985458
 30
0.0
 11
128.53196256846439
 21
591.28196256849674
 31
0.0
  0
LINE
  5
6C92
  8
1
 10
248.74011537017779
 20
604.00988462985435
 30
0.0
 11
261.46803743153549
 21
591.28196256849662
 31
0.0
  0
CIRCLE
  5
6CBD
  8
0
 10
194.99999999999861
 20
222.2500000000316
 30
0.0
 40
95.000000000000526
  0
CIRCLE
  5
6CD3
  8
0
 10
194.99999999999929
 20
222.25000000003209
 30
0.0
 40
60.25000000000005
  0
CIRCLE
  5
6CD4
  8
0
 10
194.99999999999929
 20
222.25000000003209
 30
0.0
 40
60.000000000000057
  0
LINE
  5
6CE3
  8
1
 10
194.99999999999861
 20
90.0
 30
0.0
 11
194.99999999999861
 21
327.25000000003212
 31
0.0
  0
LINE
  5
6CE4
  8
1
 10
299.99999999999909
 20
222.2500000000316
 30
0.0
 11
89.999999999998181
 21
222.2500000000316
 31
0.0
  0
LINE
  5
6CEF
  8
3
 10
191.5999999999992
 20
125.0
 30
0.0
 11
191.5999999999992
 21
127.3108616007386
 31
0.0
  0
LINE
  5
6CF0
  8
3
 10
198.39999999999941
 20
125.0
 30
0.0
 11
198.39999999999941
 21
127.3108616007387
 31
0.0
  0
LINE
  5
6D43
  8
1
 10
195.0
 20
472.750000000032
 30
0.0
 11
195.0
 21
407.250000000032
 31
0.0
  0
LINE
  5
6D5F
  8
2
 10
130.89592359914349
 20
462.75000000003212
 30
0.0
 11
130.89592359914349
 21
450.25000000003212
 31
0.0
  0
LINE
  5
6D62
  8
2
 10
138.89592359914349
 20
462.75000000003212
 30
0.0
 11
138.89592359914349
 21
450.25000000003212
 31
0.0
  0
LINE
  5
6D63
  8
2
 10
251.10407640085671
 20
462.75000000003212
 30
0.0
 11
251.10407640085671
 21
450.25000000003212
 31
0.0
  0
LINE
  5
6D66
  8
2
 10
259.10407640085668
 20
462.75000000003212
 30
0.0
 11
259.10407640085668
 21
450.25000000003212
 31
0.0
  0
LINE
  5
6D6E
  8
1
 10
255.10407640085671
 20
445.250000000032
 30
0.0
 11
255.10407640085671
 21
467.750000000032
 31
0.0
  0
LINE
  5
6D6F
  8
1
 10
134.89592359914349
 20
467.750000000032
 30
0.0
 11
134.89592359914349
 21
445.250000000032
 31
0.0
  0
LINE
  5
6E16
  8
1
 10
485.0
 20
472.750000000032
 30
0.0
 11
485.0
 21
412.75000000003212
 31
0.0
  0
LINE
  5
6E20
  8
1
 10
612.25000000003206
 20
429.750000000032
 30
0.0
 11
575.0
 21
429.750000000032
 31
0.0
  0
LINE
  5
6E2B
  8
3
 10
580.0
 20
426.35000000003191
 30
0.0
 11
582.25000000003195
 21
426.35000000003191
 31
0.0
  0
LINE
  5
6E2C
  8
3
 10
580.0
 20
433.15000000003209
 30
0.0
 11
582.25000000003195
 21
433.15000000003209
 31
0.0
  0
LINE
  5
6E35
  8
2
 10
420.89592359914349
 20
462.75000000003212
 30
0.0
 11
420.89592359914349
 21
450.25000000003212
 31
0.0
  0
LINE
  5
6E38
  8
2
 10
428.89592359914349
 20
462.75000000003212
 30
0.0
 11
428.89592359914349
 21
450.25000000003212
 31
0.0
  0
LINE
  5
6E39
  8
2
 10
541.10407640085646
 20
462.75000000003212
 30
0.0
 11
541.10407640085646
 21
450.25000000003189
 31
0.0
  0
LINE
  5
6E3C
  8
2
 10
549.10407640085646
 20
462.75000000003212
 30
0.0
 11
549.10407640085646
 21
450.25000000003189
 31
0.0
  0
LINE
  5
6E44
  8
1
 10
545.10407640085657
 20
467.750000000032
 30
0.0
 11
545.10407640085657
 21
445.25000000003189
 31
0.0
  0
LINE
  5
6E45
  8
1
 10
424.89592359914349
 20
467.750000000032
 30
0.0
 11
424.89592359914349
 21
445.250000000032
 31
0.0
  0
LINE
  5
6EF5
  8
1
 10
802.25000000003183
 20
407.25000000003217
 30
0.0
 11
802.25000000003183
 21
472.75000000003212
 31
0.0
  0
LINE
  5
6EFF
  8
1
 10
819.75000000003172
 20
429.75000000003212
 30
0.0
 11
784.75000000003183
 21
429.75000000003212
 31
0.0
  0
LINE
  5
6F25
  8
2
 10
738.14592359917515
 20
462.75000000003212
 30
0.0
 11
738.14592359917515
 21
450.25000000003212
 31
0.0
  0
LINE
  5
6F28
  8
2
 10
746.14592359917515
 20
462.75000000003212
 30
0.0
 11
746.14592359917515
 21
450.25000000003212
 31
0.0
  0
LINE
  5
6F29
  8
2
 10
858.35407640088829
 20
462.75000000003212
 30
0.0
 11
858.35407640088829
 21
450.25000000003212
 31
0.0
  0
LINE
  5
6F2C
  8
2
 10
866.35407640088829
 20
462.75000000003212
 30
0.0
 11
866.35407640088829
 21
450.25000000003212
 31
0.0
  0
LINE
  5
6F3B
  8
1
 10
862.3540764008884
 20
467.75000000003212
 30
0.0
 11
862.3540764008884
 21
445.250000000032
 31
0.0
  0
LINE
  5
6F3C
  8
1
 10
742.14592359917515
 20
445.250000000032
 30
0.0
 11
742.14592359917515
 21
467.75000000003212
 31
0.0
  0
ENDSEC
  0
EOF
