  0
SECTION
  2
HEADER
  9
$ACADVER
  1
AC1009
  9
$INSBASE
 10
0.0
 20
0.0
 30
0.0
  9
$EXTMIN
 10
0.0
 20
-2.960436562073669
 30
0.0
  9
$EXTMAX
 10
775.24999999999955
 20
710.0
 30
0.0
  9
$LIMMIN
 10
0.0
 20
0.0
  9
$LIMMAX
 10
1155.0
 20
810.0
  9
$ORTHOMODE
 70
     1
  9
$REGENMODE
 70
     1
  9
$FILLMODE
 70
     1
  9
$QTEXTMODE
 70
     0
  9
$MIRRTEXT
 70
     1
  9
$DRAGMODE
 70
     2
  9
$LTSCALE
 40
20.0
  9
$OSMODE
 70
    37
  9
$ATTMODE
 70
     1
  9
$TEXTSIZE
 40
4.0
  9
$TRACEWID
 40
0.05
  9
$TEXTSTYLE
  7
STANDARD
  9
$CLAYER
  8
0
  9
$CELTYPE
  6
BYLAYER
  9
$CECOLOR
 62
   256
  9
$DIMSCALE
 40
3.0
  9
$DIMASZ
 40
3.0
  9
$DIMEXO
 40
2.0
  9
$DIMDLI
 40
0.38
  9
$DIMRND
 40
0.0
  9
$DIMDLE
 40
0.0
  9
$DIMEXE
 40
2.0
  9
$DIMTP
 40
0.0
  9
$DIMTM
 40
0.0
  9
$DIMTXT
 40
3.0
  9
$DIMCEN
 40
0.0
  9
$DIMTSZ
 40
0.0
  9
$DIMTOL
 70
     0
  9
$DIMLIM
 70
     0
  9
$DIMTIH
 70
     0
  9
$DIMTOH
 70
     0
  9
$DIMSE1
 70
     0
  9
$DIMSE2
 70
     0
  9
$DIMTAD
 70
     1
  9
$DIMZIN
 70
     8
  9
$DIMBLK
  1

  9
$DIMASO
 70
     0
  9
$DIMSHO
 70
     0
  9
$DIMPOST
  1

  9
$DIMAPOST
  1

  9
$DIMALT
 70
     0
  9
$DIMALTD
 70
     2
  9
$DIMALTF
 40
25.399999999999999
  9
$DIMLFAC
 40
1.0
  9
$DIMTOFL
 70
     0
  9
$DIMTVP
 40
1.6000000000000001
  9
$DIMTIX
 70
     1
  9
$DIMSOXD
 70
     0
  9
$DIMSAH
 70
     0
  9
$DIMBLK1
  1

  9
$DIMBLK2
  1

  9
$DIMSTYLE
  2
STANDARD
  9
$DIMCLRD
 70
     4
  9
$DIMCLRE
 70
     4
  9
$DIMCLRT
 70
     4
  9
$DIMTFAC
 40
1.0
  9
$DIMGAP
 40
0.09
  9
$LUNITS
 70
     2
  9
$LUPREC
 70
     1
  9
$SKETCHINC
 40
0.1
  9
$FILLETRAD
 40
3.0
  9
$AUNITS
 70
     0
  9
$AUPREC
 70
     0
  9
$MENU
  1
E:\r13\win\SUPPORT\ACAD
  9
$ELEVATION
 40
0.0
  9
$PELEVATION
 40
0.0
  9
$THICKNESS
 40
0.0
  9
$LIMCHECK
 70
     0
  9
$BLIPMODE
 70
     0
  9
$CHAMFERA
 40
1.1999999999999991
  9
$CHAMFERB
 40
1.1999999999999991
  9
$SKPOLY
 70
     0
  9
$TDCREATE
 40
2450059.5671413201
  9
$TDUPDATE
 40
2459657.6535032992
  9
$TDINDWG
 40
0.5992974306
  9
$TDUSRTIMER
 40
0.5992974306
  9
$USRTIMER
 70
     1
  9
$ANGBASE
 50
0.0
  9
$ANGDIR
 70
     0
  9
$PDMODE
 70
     0
  9
$PDSIZE
 40
0.0
  9
$PLINEWID
 40
0.0
  9
$COORDS
 70
     1
  9
$SPLFRAME
 70
     0
  9
$SPLINETYPE
 70
     6
  9
$SPLINESEGS
 70
     8
  9
$ATTDIA
 70
     0
  9
$ATTREQ
 70
     1
  9
$HANDLING
 70
     1
  9
$HANDSEED
  5
5BBD
  9
$SURFTAB1
 70
     6
  9
$SURFTAB2
 70
     6
  9
$SURFTYPE
 70
     6
  9
$SURFU
 70
     6
  9
$SURFV
 70
     6
  9
$UCSNAME
  2

  9
$UCSORG
 10
0.0
 20
0.0
 30
0.0
  9
$UCSXDIR
 10
1.0
 20
0.0
 30
0.0
  9
$UCSYDIR
 10
0.0
 20
1.0
 30
0.0
  9
$PUCSNAME
  2

  9
$PUCSORG
 10
0.0
 20
0.0
 30
0.0
  9
$PUCSXDIR
 10
1.0
 20
0.0
 30
0.0
  9
$PUCSYDIR
 10
0.0
 20
1.0
 30
0.0
  9
$USERI1
 70
     3
  9
$USERI2
 70
     1
  9
$USERI3
 70
     1
  9
$USERI4
 70
     0
  9
$USERI5
 70
     0
  9
$USERR1
 40
3.0
  9
$USERR2
 40
3.0
  9
$USERR3
 40
3.0
  9
$USERR4
 40
3.0
  9
$USERR5
 40
10.0
  9
$WORLDVIEW
 70
     1
  9
$SHADEDGE
 70
     3
  9
$SHADEDIF
 70
    70
  9
$TILEMODE
 70
     1
  9
$MAXACTVP
 70
    16
  9
$PLIMCHECK
 70
     0
  9
$PEXTMIN
 10
1.0000000000000000E+020
 20
1.0000000000000000E+020
 30
1.0000000000000000E+020
  9
$PEXTMAX
 10
-1.0000000000000000E+020
 20
-1.0000000000000000E+020
 30
-1.0000000000000000E+020
  9
$PLIMMIN
 10
0.0
 20
0.0
  9
$PLIMMAX
 10
12.0
 20
9.0
  9
$UNITMODE
 70
     0
  9
$VISRETAIN
 70
     0
  9
$PLINEGEN
 70
     0
  9
$PSLTSCALE
 70
     0
  0
ENDSEC
  0
SECTION
  2
TABLES
  0
TABLE
  2
VPORT
 70
     1
  0
VPORT
  2
*ACTIVE
 70
     0
 10
0.0
 20
0.0
 11
1.0
 21
1.0
 12
965.952080706179
 22
400.0
 13
0.0
 23
0.0
 14
15.0
 24
15.0
 15
10.0
 25
10.0
 16
0.0
 26
0.0
 36
1.0
 17
0.0
 27
0.0
 37
0.0
 40
800.0
 41
2.4148802017654472
 42
50.0
 43
0.0
 44
0.0
 50
0.0
 51
0.0
 71
     0
 72
 10000
 73
     1
 74
     1
 75
     0
 76
     0
 77
     0
 78
     2
  0
ENDTAB
  0
TABLE
  2
LTYPE
 70
     4
  0
LTYPE
  2
CONTINUOUS
 70
     0
  3
実線
 72
    65
 73
     0
 40
0.0
  0
LTYPE
  2
CENTER
 70
     0
  3
____ _ ____ _ ____ _ ____ _ ____ _ ____ _ ____
 72
    65
 73
     4
 40
2.0
 49
1.25
 49
-0.25
 49
0.25
 49
-0.25
  0
LTYPE
  2
HIDDEN
 70
     0
  3
_ _ _ _ _ _ _ _ _ _ _ _ _ _ _ _ _ _ _ _ _ _ _
 72
    65
 73
     2
 40
0.375
 49
0.25
 49
-0.125
  0
LTYPE
  2
PHANTOM2
 70
     0
  3
___ _ _ ___ _ _ ___ _ _ ___ _ _
 72
    65
 73
     6
 40
1.25
 49
0.625
 49
-0.125
 49
0.125
 49
-0.125
 49
0.125
 49
-0.125
  0
ENDTAB
  0
TABLE
  2
LAYER
 70
     5
  0
LAYER
  2
0
 70
     0
 62
     7
  6
CONTINUOUS
  0
LAYER
  2
1
 70
     0
 62
     1
  6
CENTER
  0
LAYER
  2
DEFPOINTS
 70
     0
 62
     7
  6
CONTINUOUS
  0
LAYER
  2
2
 70
     0
 62
     2
  6
HIDDEN
  0
LAYER
  2
3
 70
     0
 62
     3
  6
CONTINUOUS
  0
ENDTAB
  0
TABLE
  2
STYLE
 70
     2
  0
STYLE
  2
STANDARD
 70
     0
 40
0.0
 41
1.0
 50
0.0
 71
     0
 42
4.0
  3
SIMPLEX
  4
BIGFONT
  0
STYLE
  2
STANDARD1
 70
     0
 40
0.0
 41
1.0
 50
0.0
 71
     0
 42
3.0
  3
txt
  4

  0
ENDTAB
  0
TABLE
  2
VIEW
 70
     1
  0
VIEW
  2
ALL
 70
     0
 40
270.0
 10
220.59941989218049
 20
135.0
 41
441.19883978436093
 11
0.0
 21
0.0
 31
1.0
 12
0.0
 22
0.0
 32
0.0
 42
50.0
 43
0.0
 44
0.0
 50
0.0
 71
     0
  0
ENDTAB
  0
TABLE
  2
UCS
 70
     0
  0
ENDTAB
  0
TABLE
  2
APPID
 70
     4
  0
APPID
  2
ACAD
 70
     0
  0
APPID
  2
ACAD_MLEADERVER
 70
     0
  0
APPID
  2
ACAD_EXEMPT_FROM_CAD_STANDARDS
 70
     0
  0
APPID
  2
ACAD_NAV_VCDISPLAY
 70
     0
  0
ENDTAB
  0
TABLE
  2
DIMSTYLE
 70
     1
  0
DIMSTYLE
  2
STANDARD
 70
     0
  3

  4

  5

  6

  7

 40
1.0
 41
0.18
 42
0.0625
 43
0.38
 44
0.18
 45
0.0
 46
0.0
 47
0.0
 48
0.0
140
0.18
141
0.09
142
0.0
143
25.399999999999999
144
1.0
145
0.0
146
1.0
147
0.09
 71
     0
 72
     0
 73
     1
 74
     1
 75
     0
 76
     0
 77
     0
 78
     0
170
     0
171
     2
172
     0
173
     0
174
     0
175
     0
176
     0
177
     0
178
     0
  0
ENDTAB
  0
ENDSEC
  0
SECTION
  2
BLOCKS
  0
BLOCK
  8
0
  2
$MODEL_SPACE
 70
     0
 10
0.0
 20
0.0
 30
0.0
  3
$MODEL_SPACE
  1

  0
ENDBLK
  5
11D9
  8
0
  0
BLOCK
 67
     1
  8
0
  2
$PAPER_SPACE
 70
     0
 10
0.0
 20
0.0
 30
0.0
  3
$PAPER_SPACE
  1

  0
ENDBLK
  5
11D7
 67
     1
  8
0
  0
ENDSEC
  0
SECTION
  2
ENTITIES
  0
TEXT
  5
1F8C
  8
0
 62
     3
 10
0.0
 20
0.0
 30
0.0
 40
10.0
  1
SSR-MB4001
  7
STANDARD1
  0
LINE
  5
4A9E
  8
0
 10
249.0
 20
399.14745122510038
 30
0.0
 11
249.0
 21
408.74999999999989
 31
0.0
  0
LINE
  5
4A9F
  8
0
 10
249.0
 20
383.75
 30
0.0
 11
249.0
 21
392.3525487748995
 31
0.0
  0
LINE
  5
4AA0
  8
0
 10
100.0
 20
408.74999999999989
 30
0.0
 11
100.0
 21
383.75
 31
0.0
  0
LINE
  5
4AA1
  8
0
 10
100.0
 20
422.75
 30
0.0
 11
100.0
 21
410.24999999999989
 31
0.0
  0
LINE
  5
4AA2
  8
0
 10
249.0
 20
410.24999999999989
 30
0.0
 11
249.0
 21
422.75
 31
0.0
  0
LINE
  5
4AA3
  8
0
 10
114.5
 20
383.75
 30
0.0
 11
114.5
 21
382.75
 31
0.0
  0
LINE
  5
4AA4
  8
0
 10
114.5
 20
410.24999999999989
 30
0.0
 11
114.5
 21
408.74999999999989
 31
0.0
  0
LINE
  5
4AA5
  8
0
 10
234.5
 20
408.74999999999989
 30
0.0
 11
234.5
 21
410.24999999999989
 31
0.0
  0
LINE
  5
4AA6
  8
0
 10
234.5
 20
382.75
 30
0.0
 11
234.5
 21
383.75
 31
0.0
  0
ARC
  5
4AA7
  8
0
 10
174.5
 20
389.74999999999989
 30
0.0
 40
12.499999999999989
 50
208.68540201411329
 51
331.31459798588628
  0
CIRCLE
  5
4AA8
  8
0
 10
174.5
 20
389.74999999999989
 30
0.0
 40
3.9999999999897682
  0
ARC
  5
4AA9
  8
0
 10
323.29000354959771
 20
395.75047468253888
 30
0.0
 40
74.367627883575494
 50
177.3819231376965
 51
180.00036571431741
  0
POLYLINE
  5
4AAA
  8
0
 66
     1
 10
0.0
 20
0.0
 30
0.0
 70
   128
  0
VERTEX
  5
587F
  8
0
 10
249.0
 20
392.3525487748995
 30
0.0
  0
VERTEX
  5
5880
  8
0
 10
248.99896881285329
 20
392.37267055523228
 30
0.0
  0
VERTEX
  5
5881
  8
0
 10
248.99403032257081
 20
392.48341865246289
 30
0.0
  0
VERTEX
  5
5882
  8
0
 10
248.99017471832281
 20
392.5725592741565
 30
0.0
  0
VERTEX
  5
5883
  8
0
 10
248.985164313289
 20
392.69227163115238
 30
0.0
  0
VERTEX
  5
5884
  8
0
 10
248.9739406431886
 20
392.9791093624674
 30
0.0
  0
VERTEX
  5
5885
  8
0
 10
248.96772547437291
 20
393.15151249251443
 30
0.0
  0
VERTEX
  5
5886
  8
0
 10
248.9608680055706
 20
393.35607766563061
 30
0.0
  0
VERTEX
  5
5887
  8
0
 10
248.9544705565315
 20
393.56409381413698
 30
0.0
  0
VERTEX
  5
5888
  8
0
 10
248.94825678705729
 20
393.78710962312482
 30
0.0
  0
VERTEX
  5
5889
  8
0
 10
248.94239693473401
 20
394.02359871742038
 30
0.0
  0
VERTEX
  5
588A
  8
0
 10
248.9366895158775
 20
394.29029246657029
 30
0.0
  0
VERTEX
  5
588B
  8
0
 10
248.93205839179541
 20
394.54945160879117
 30
0.0
  0
VERTEX
  5
588C
  8
0
 10
248.9282254870586
 20
394.81686059325222
 30
0.0
  0
VERTEX
  5
588D
  8
0
 10
248.9252960857275
 20
395.09068410590208
 30
0.0
  0
VERTEX
  5
588E
  8
0
 10
248.92324972549051
 20
395.38930663615201
 30
0.0
  0
VERTEX
  5
588F
  8
0
 10
248.92237566753721
 20
395.75
 30
0.0
  0
SEQEND
  5
5890
  8
0
  0
LINE
  5
4AAB
  8
0
 10
224.5
 20
396.25
 30
0.0
 11
224.5
 21
383.75
 31
0.0
  0
LINE
  5
4AAC
  8
0
 10
124.5
 20
383.75
 30
0.0
 11
124.5
 21
396.25
 31
0.0
  0
LINE
  5
4AAD
  8
0
 10
224.5
 20
383.75
 30
0.0
 11
249.0
 21
383.75
 31
0.0
  0
LINE
  5
4AAE
  8
0
 10
100.0
 20
383.75
 30
0.0
 11
124.5
 21
383.75
 31
0.0
  0
LINE
  5
4AAF
  8
0
 10
124.5
 20
396.25
 30
0.0
 11
224.5
 21
396.25
 31
0.0
  0
LINE
  5
4AB0
  8
0
 10
249.0
 20
408.74999999999989
 30
0.0
 11
100.0
 21
408.74999999999989
 31
0.0
  0
CIRCLE
  5
4AB1
  8
3
 10
174.5
 20
389.75
 30
0.0
 40
3.3999999999999768
  0
LINE
  5
4AB2
  8
0
 10
162.0
 20
383.75
 30
0.0
 11
187.0
 21
383.75
 31
0.0
  0
LINE
  5
4AB3
  8
0
 10
100.0
 20
410.24999999999989
 30
0.0
 11
249.0
 21
410.24999999999989
 31
0.0
  0
LINE
  5
4AB4
  8
0
 10
100.0
 20
422.75
 30
0.0
 11
249.0
 21
422.75
 31
0.0
  0
LINE
  5
4AB5
  8
0
 10
114.5
 20
382.75
 30
0.0
 11
162.0
 21
382.75
 31
0.0
  0
LINE
  5
4AB6
  8
0
 10
187.0
 20
382.75
 30
0.0
 11
234.5
 21
382.75
 31
0.0
  0
LINE
  5
4AB7
  8
0
 10
187.0
 20
387.76796426256283
 30
0.0
 11
187.0
 21
382.75
 31
0.0
  0
POLYLINE
  5
4AB8
  8
0
 10
192.01833649202365
 20
395.24999999999739
 30
0.0
 66
     1
 70
     8
  0
VERTEX
  8
0
  5
58B1
 10
192.018
 20
395.250
 30
0.000000
  70
    32
  0
VERTEX
  8
0
  5
58B2
 10
191.980
 20
395.193
 30
0.000000
  70
    32
  0
VERTEX
  8
0
  5
58B3
 10
191.941
 20
395.136
 30
0.000000
  70
    32
  0
VERTEX
  8
0
  5
58B4
 10
191.902
 20
395.080
 30
0.000000
  70
    32
  0
VERTEX
  8
0
  5
58B5
 10
191.863
 20
395.023
 30
0.000000
  70
    32
  0
VERTEX
  8
0
  5
58B6
 10
191.825
 20
394.966
 30
0.000000
  70
    32
  0
VERTEX
  8
0
  5
58B7
 10
191.786
 20
394.909
 30
0.000000
  70
    32
  0
VERTEX
  8
0
  5
58B8
 10
191.747
 20
394.852
 30
0.000000
  70
    32
  0
VERTEX
  8
0
  5
58B9
 10
191.708
 20
394.795
 30
0.000000
  70
    32
  0
VERTEX
  8
0
  5
58BA
 10
191.669
 20
394.738
 30
0.000000
  70
    32
  0
VERTEX
  8
0
  5
58BB
 10
191.631
 20
394.681
 30
0.000000
  70
    32
  0
VERTEX
  8
0
  5
58BC
 10
191.592
 20
394.624
 30
0.000000
  70
    32
  0
VERTEX
  8
0
  5
58BD
 10
191.553
 20
394.567
 30
0.000000
  70
    32
  0
VERTEX
  8
0
  5
58BE
 10
191.514
 20
394.510
 30
0.000000
  70
    32
  0
VERTEX
  8
0
  5
58BF
 10
191.475
 20
394.453
 30
0.000000
  70
    32
  0
VERTEX
  8
0
  5
58C0
 10
191.436
 20
394.396
 30
0.000000
  70
    32
  0
VERTEX
  8
0
  5
58C1
 10
191.397
 20
394.339
 30
0.000000
  70
    32
  0
VERTEX
  8
0
  5
58C2
 10
191.359
 20
394.281
 30
0.000000
  70
    32
  0
VERTEX
  8
0
  5
58C3
 10
191.320
 20
394.224
 30
0.000000
  70
    32
  0
VERTEX
  8
0
  5
58C4
 10
191.281
 20
394.167
 30
0.000000
  70
    32
  0
VERTEX
  8
0
  5
58C5
 10
191.242
 20
394.110
 30
0.000000
  70
    32
  0
VERTEX
  8
0
  5
58C6
 10
191.203
 20
394.052
 30
0.000000
  70
    32
  0
VERTEX
  8
0
  5
58C7
 10
191.164
 20
393.995
 30
0.000000
  70
    32
  0
VERTEX
  8
0
  5
58C8
 10
191.125
 20
393.938
 30
0.000000
  70
    32
  0
VERTEX
  8
0
  5
58C9
 10
191.086
 20
393.880
 30
0.000000
  70
    32
  0
VERTEX
  8
0
  5
58CA
 10
191.047
 20
393.823
 30
0.000000
  70
    32
  0
VERTEX
  8
0
  5
58CB
 10
191.008
 20
393.765
 30
0.000000
  70
    32
  0
VERTEX
  8
0
  5
58CC
 10
190.969
 20
393.708
 30
0.000000
  70
    32
  0
VERTEX
  8
0
  5
58CD
 10
190.930
 20
393.650
 30
0.000000
  70
    32
  0
VERTEX
  8
0
  5
58CE
 10
190.891
 20
393.593
 30
0.000000
  70
    32
  0
VERTEX
  8
0
  5
58CF
 10
190.853
 20
393.535
 30
0.000000
  70
    32
  0
VERTEX
  8
0
  5
58D0
 10
190.814
 20
393.478
 30
0.000000
  70
    32
  0
VERTEX
  8
0
  5
58D1
 10
190.775
 20
393.420
 30
0.000000
  70
    32
  0
VERTEX
  8
0
  5
58D2
 10
190.736
 20
393.363
 30
0.000000
  70
    32
  0
VERTEX
  8
0
  5
58D3
 10
190.697
 20
393.305
 30
0.000000
  70
    32
  0
VERTEX
  8
0
  5
58D4
 10
190.658
 20
393.247
 30
0.000000
  70
    32
  0
VERTEX
  8
0
  5
58D5
 10
190.619
 20
393.189
 30
0.000000
  70
    32
  0
VERTEX
  8
0
  5
58D6
 10
190.580
 20
393.132
 30
0.000000
  70
    32
  0
VERTEX
  8
0
  5
58D7
 10
190.540
 20
393.074
 30
0.000000
  70
    32
  0
VERTEX
  8
0
  5
58D8
 10
190.501
 20
393.016
 30
0.000000
  70
    32
  0
VERTEX
  8
0
  5
58D9
 10
190.462
 20
392.958
 30
0.000000
  70
    32
  0
VERTEX
  8
0
  5
58DA
 10
190.423
 20
392.900
 30
0.000000
  70
    32
  0
VERTEX
  8
0
  5
58DB
 10
190.384
 20
392.843
 30
0.000000
  70
    32
  0
VERTEX
  8
0
  5
58DC
 10
190.345
 20
392.785
 30
0.000000
  70
    32
  0
VERTEX
  8
0
  5
58DD
 10
190.306
 20
392.727
 30
0.000000
  70
    32
  0
VERTEX
  8
0
  5
58DE
 10
190.267
 20
392.669
 30
0.000000
  70
    32
  0
VERTEX
  8
0
  5
58DF
 10
190.228
 20
392.611
 30
0.000000
  70
    32
  0
VERTEX
  8
0
  5
58E0
 10
190.189
 20
392.553
 30
0.000000
  70
    32
  0
VERTEX
  8
0
  5
58E1
 10
190.150
 20
392.495
 30
0.000000
  70
    32
  0
VERTEX
  8
0
  5
58E2
 10
190.111
 20
392.437
 30
0.000000
  70
    32
  0
VERTEX
  8
0
  5
58E3
 10
190.072
 20
392.379
 30
0.000000
  70
    32
  0
VERTEX
  8
0
  5
58E4
 10
190.032
 20
392.321
 30
0.000000
  70
    32
  0
VERTEX
  8
0
  5
58E5
 10
189.993
 20
392.262
 30
0.000000
  70
    32
  0
VERTEX
  8
0
  5
58E6
 10
189.954
 20
392.204
 30
0.000000
  70
    32
  0
VERTEX
  8
0
  5
58E7
 10
189.915
 20
392.146
 30
0.000000
  70
    32
  0
VERTEX
  8
0
  5
58E8
 10
189.876
 20
392.088
 30
0.000000
  70
    32
  0
VERTEX
  8
0
  5
58E9
 10
189.837
 20
392.030
 30
0.000000
  70
    32
  0
VERTEX
  8
0
  5
58EA
 10
189.798
 20
391.971
 30
0.000000
  70
    32
  0
VERTEX
  8
0
  5
58EB
 10
189.758
 20
391.913
 30
0.000000
  70
    32
  0
VERTEX
  8
0
  5
58EC
 10
189.719
 20
391.855
 30
0.000000
  70
    32
  0
VERTEX
  8
0
  5
58ED
 10
189.680
 20
391.796
 30
0.000000
  70
    32
  0
VERTEX
  8
0
  5
58EE
 10
189.641
 20
391.738
 30
0.000000
  70
    32
  0
VERTEX
  8
0
  5
58EF
 10
189.602
 20
391.679
 30
0.000000
  70
    32
  0
VERTEX
  8
0
  5
58F0
 10
189.562
 20
391.621
 30
0.000000
  70
    32
  0
VERTEX
  8
0
  5
58F1
 10
189.523
 20
391.563
 30
0.000000
  70
    32
  0
VERTEX
  8
0
  5
58F2
 10
189.484
 20
391.504
 30
0.000000
  70
    32
  0
VERTEX
  8
0
  5
58F3
 10
189.445
 20
391.446
 30
0.000000
  70
    32
  0
VERTEX
  8
0
  5
58F4
 10
189.406
 20
391.387
 30
0.000000
  70
    32
  0
VERTEX
  8
0
  5
58F5
 10
189.366
 20
391.328
 30
0.000000
  70
    32
  0
VERTEX
  8
0
  5
58F6
 10
189.327
 20
391.270
 30
0.000000
  70
    32
  0
VERTEX
  8
0
  5
58F7
 10
189.288
 20
391.211
 30
0.000000
  70
    32
  0
VERTEX
  8
0
  5
58F8
 10
189.248
 20
391.153
 30
0.000000
  70
    32
  0
VERTEX
  8
0
  5
58F9
 10
189.209
 20
391.094
 30
0.000000
  70
    32
  0
VERTEX
  8
0
  5
58FA
 10
189.170
 20
391.035
 30
0.000000
  70
    32
  0
VERTEX
  8
0
  5
58FB
 10
189.131
 20
390.977
 30
0.000000
  70
    32
  0
VERTEX
  8
0
  5
58FC
 10
189.091
 20
390.918
 30
0.000000
  70
    32
  0
VERTEX
  8
0
  5
58FD
 10
189.052
 20
390.859
 30
0.000000
  70
    32
  0
VERTEX
  8
0
  5
58FE
 10
189.013
 20
390.800
 30
0.000000
  70
    32
  0
VERTEX
  8
0
  5
58FF
 10
188.973
 20
390.741
 30
0.000000
  70
    32
  0
VERTEX
  8
0
  5
5900
 10
188.934
 20
390.683
 30
0.000000
  70
    32
  0
VERTEX
  8
0
  5
5901
 10
188.895
 20
390.624
 30
0.000000
  70
    32
  0
VERTEX
  8
0
  5
5902
 10
188.856
 20
390.565
 30
0.000000
  70
    32
  0
VERTEX
  8
0
  5
5903
 10
188.816
 20
390.506
 30
0.000000
  70
    32
  0
VERTEX
  8
0
  5
5904
 10
188.777
 20
390.447
 30
0.000000
  70
    32
  0
VERTEX
  8
0
  5
5905
 10
188.737
 20
390.388
 30
0.000000
  70
    32
  0
VERTEX
  8
0
  5
5906
 10
188.698
 20
390.329
 30
0.000000
  70
    32
  0
VERTEX
  8
0
  5
5907
 10
188.659
 20
390.270
 30
0.000000
  70
    32
  0
VERTEX
  8
0
  5
5908
 10
188.619
 20
390.211
 30
0.000000
  70
    32
  0
VERTEX
  8
0
  5
5909
 10
188.580
 20
390.152
 30
0.000000
  70
    32
  0
VERTEX
  8
0
  5
590A
 10
188.541
 20
390.093
 30
0.000000
  70
    32
  0
VERTEX
  8
0
  5
590B
 10
188.501
 20
390.034
 30
0.000000
  70
    32
  0
VERTEX
  8
0
  5
590C
 10
188.462
 20
389.974
 30
0.000000
  70
    32
  0
VERTEX
  8
0
  5
590D
 10
188.422
 20
389.915
 30
0.000000
  70
    32
  0
VERTEX
  8
0
  5
590E
 10
188.383
 20
389.856
 30
0.000000
  70
    32
  0
VERTEX
  8
0
  5
590F
 10
188.344
 20
389.797
 30
0.000000
  70
    32
  0
VERTEX
  8
0
  5
5910
 10
188.304
 20
389.738
 30
0.000000
  70
    32
  0
VERTEX
  8
0
  5
5911
 10
188.265
 20
389.678
 30
0.000000
  70
    32
  0
VERTEX
  8
0
  5
5912
 10
188.225
 20
389.619
 30
0.000000
  70
    32
  0
VERTEX
  8
0
  5
5913
 10
188.186
 20
389.560
 30
0.000000
  70
    32
  0
VERTEX
  8
0
  5
5914
 10
188.146
 20
389.500
 30
0.000000
  70
    32
  0
VERTEX
  8
0
  5
5915
 10
188.107
 20
389.441
 30
0.000000
  70
    32
  0
VERTEX
  8
0
  5
5916
 10
188.068
 20
389.381
 30
0.000000
  70
    32
  0
VERTEX
  8
0
  5
5917
 10
188.028
 20
389.322
 30
0.000000
  70
    32
  0
VERTEX
  8
0
  5
5918
 10
187.989
 20
389.263
 30
0.000000
  70
    32
  0
VERTEX
  8
0
  5
5919
 10
187.949
 20
389.203
 30
0.000000
  70
    32
  0
VERTEX
  8
0
  5
591A
 10
187.910
 20
389.144
 30
0.000000
  70
    32
  0
VERTEX
  8
0
  5
591B
 10
187.870
 20
389.084
 30
0.000000
  70
    32
  0
VERTEX
  8
0
  5
591C
 10
187.831
 20
389.024
 30
0.000000
  70
    32
  0
VERTEX
  8
0
  5
591D
 10
187.791
 20
388.965
 30
0.000000
  70
    32
  0
VERTEX
  8
0
  5
591E
 10
187.752
 20
388.905
 30
0.000000
  70
    32
  0
VERTEX
  8
0
  5
591F
 10
187.712
 20
388.846
 30
0.000000
  70
    32
  0
VERTEX
  8
0
  5
5920
 10
187.673
 20
388.786
 30
0.000000
  70
    32
  0
VERTEX
  8
0
  5
5921
 10
187.633
 20
388.726
 30
0.000000
  70
    32
  0
VERTEX
  8
0
  5
5922
 10
187.594
 20
388.667
 30
0.000000
  70
    32
  0
VERTEX
  8
0
  5
5923
 10
187.554
 20
388.607
 30
0.000000
  70
    32
  0
VERTEX
  8
0
  5
5924
 10
187.515
 20
388.547
 30
0.000000
  70
    32
  0
VERTEX
  8
0
  5
5925
 10
187.475
 20
388.487
 30
0.000000
  70
    32
  0
VERTEX
  8
0
  5
5926
 10
187.435
 20
388.427
 30
0.000000
  70
    32
  0
VERTEX
  8
0
  5
5927
 10
187.396
 20
388.368
 30
0.000000
  70
    32
  0
VERTEX
  8
0
  5
5928
 10
187.356
 20
388.308
 30
0.000000
  70
    32
  0
VERTEX
  8
0
  5
5929
 10
187.317
 20
388.248
 30
0.000000
  70
    32
  0
VERTEX
  8
0
  5
592A
 10
187.277
 20
388.188
 30
0.000000
  70
    32
  0
VERTEX
  8
0
  5
592B
 10
187.238
 20
388.128
 30
0.000000
  70
    32
  0
VERTEX
  8
0
  5
592C
 10
187.198
 20
388.068
 30
0.000000
  70
    32
  0
VERTEX
  8
0
  5
592D
 10
187.158
 20
388.008
 30
0.000000
  70
    32
  0
VERTEX
  8
0
  5
592E
 10
187.119
 20
387.948
 30
0.000000
  70
    32
  0
VERTEX
  8
0
  5
592F
 10
187.079
 20
387.888
 30
0.000000
  70
    32
  0
VERTEX
  8
0
  5
5930
 10
187.040
 20
387.828
 30
0.000000
  70
    32
  0
VERTEX
  8
0
  5
5931
 10
187.000
 20
387.768
 30
0.000000
  70
    32
  0
SEQEND
  8
0
  5
5932
  0
LINE
  5
4AB9
  8
0
 10
156.98166350797459
 20
395.25
 30
0.0
 11
192.0183364920253
 21
395.25
 31
0.0
  0
POLYLINE
  5
4ABA
  8
0
 10
161.99999999999994
 20
387.76796426256283
 30
0.0
 66
     1
 70
     8
  0
VERTEX
  8
0
  5
5933
 10
162.000
 20
387.768
 30
0.000000
  70
    32
  0
VERTEX
  8
0
  5
5934
 10
161.960
 20
387.828
 30
0.000000
  70
    32
  0
VERTEX
  8
0
  5
5935
 10
161.921
 20
387.888
 30
0.000000
  70
    32
  0
VERTEX
  8
0
  5
5936
 10
161.881
 20
387.948
 30
0.000000
  70
    32
  0
VERTEX
  8
0
  5
5937
 10
161.842
 20
388.008
 30
0.000000
  70
    32
  0
VERTEX
  8
0
  5
5938
 10
161.802
 20
388.068
 30
0.000000
  70
    32
  0
VERTEX
  8
0
  5
5939
 10
161.762
 20
388.128
 30
0.000000
  70
    32
  0
VERTEX
  8
0
  5
593A
 10
161.723
 20
388.188
 30
0.000000
  70
    32
  0
VERTEX
  8
0
  5
593B
 10
161.683
 20
388.248
 30
0.000000
  70
    32
  0
VERTEX
  8
0
  5
593C
 10
161.644
 20
388.308
 30
0.000000
  70
    32
  0
VERTEX
  8
0
  5
593D
 10
161.604
 20
388.368
 30
0.000000
  70
    32
  0
VERTEX
  8
0
  5
593E
 10
161.565
 20
388.427
 30
0.000000
  70
    32
  0
VERTEX
  8
0
  5
593F
 10
161.525
 20
388.487
 30
0.000000
  70
    32
  0
VERTEX
  8
0
  5
5940
 10
161.485
 20
388.547
 30
0.000000
  70
    32
  0
VERTEX
  8
0
  5
5941
 10
161.446
 20
388.607
 30
0.000000
  70
    32
  0
VERTEX
  8
0
  5
5942
 10
161.406
 20
388.667
 30
0.000000
  70
    32
  0
VERTEX
  8
0
  5
5943
 10
161.367
 20
388.726
 30
0.000000
  70
    32
  0
VERTEX
  8
0
  5
5944
 10
161.327
 20
388.786
 30
0.000000
  70
    32
  0
VERTEX
  8
0
  5
5945
 10
161.288
 20
388.846
 30
0.000000
  70
    32
  0
VERTEX
  8
0
  5
5946
 10
161.248
 20
388.905
 30
0.000000
  70
    32
  0
VERTEX
  8
0
  5
5947
 10
161.209
 20
388.965
 30
0.000000
  70
    32
  0
VERTEX
  8
0
  5
5948
 10
161.169
 20
389.024
 30
0.000000
  70
    32
  0
VERTEX
  8
0
  5
5949
 10
161.130
 20
389.084
 30
0.000000
  70
    32
  0
VERTEX
  8
0
  5
594A
 10
161.090
 20
389.144
 30
0.000000
  70
    32
  0
VERTEX
  8
0
  5
594B
 10
161.051
 20
389.203
 30
0.000000
  70
    32
  0
VERTEX
  8
0
  5
594C
 10
161.011
 20
389.263
 30
0.000000
  70
    32
  0
VERTEX
  8
0
  5
594D
 10
160.972
 20
389.322
 30
0.000000
  70
    32
  0
VERTEX
  8
0
  5
594E
 10
160.932
 20
389.381
 30
0.000000
  70
    32
  0
VERTEX
  8
0
  5
594F
 10
160.893
 20
389.441
 30
0.000000
  70
    32
  0
VERTEX
  8
0
  5
5950
 10
160.854
 20
389.500
 30
0.000000
  70
    32
  0
VERTEX
  8
0
  5
5951
 10
160.814
 20
389.560
 30
0.000000
  70
    32
  0
VERTEX
  8
0
  5
5952
 10
160.775
 20
389.619
 30
0.000000
  70
    32
  0
VERTEX
  8
0
  5
5953
 10
160.735
 20
389.678
 30
0.000000
  70
    32
  0
VERTEX
  8
0
  5
5954
 10
160.696
 20
389.738
 30
0.000000
  70
    32
  0
VERTEX
  8
0
  5
5955
 10
160.656
 20
389.797
 30
0.000000
  70
    32
  0
VERTEX
  8
0
  5
5956
 10
160.617
 20
389.856
 30
0.000000
  70
    32
  0
VERTEX
  8
0
  5
5957
 10
160.578
 20
389.915
 30
0.000000
  70
    32
  0
VERTEX
  8
0
  5
5958
 10
160.538
 20
389.974
 30
0.000000
  70
    32
  0
VERTEX
  8
0
  5
5959
 10
160.499
 20
390.034
 30
0.000000
  70
    32
  0
VERTEX
  8
0
  5
595A
 10
160.459
 20
390.093
 30
0.000000
  70
    32
  0
VERTEX
  8
0
  5
595B
 10
160.420
 20
390.152
 30
0.000000
  70
    32
  0
VERTEX
  8
0
  5
595C
 10
160.381
 20
390.211
 30
0.000000
  70
    32
  0
VERTEX
  8
0
  5
595D
 10
160.341
 20
390.270
 30
0.000000
  70
    32
  0
VERTEX
  8
0
  5
595E
 10
160.302
 20
390.329
 30
0.000000
  70
    32
  0
VERTEX
  8
0
  5
595F
 10
160.263
 20
390.388
 30
0.000000
  70
    32
  0
VERTEX
  8
0
  5
5960
 10
160.223
 20
390.447
 30
0.000000
  70
    32
  0
VERTEX
  8
0
  5
5961
 10
160.184
 20
390.506
 30
0.000000
  70
    32
  0
VERTEX
  8
0
  5
5962
 10
160.144
 20
390.565
 30
0.000000
  70
    32
  0
VERTEX
  8
0
  5
5963
 10
160.105
 20
390.624
 30
0.000000
  70
    32
  0
VERTEX
  8
0
  5
5964
 10
160.066
 20
390.683
 30
0.000000
  70
    32
  0
VERTEX
  8
0
  5
5965
 10
160.027
 20
390.741
 30
0.000000
  70
    32
  0
VERTEX
  8
0
  5
5966
 10
159.987
 20
390.800
 30
0.000000
  70
    32
  0
VERTEX
  8
0
  5
5967
 10
159.948
 20
390.859
 30
0.000000
  70
    32
  0
VERTEX
  8
0
  5
5968
 10
159.909
 20
390.918
 30
0.000000
  70
    32
  0
VERTEX
  8
0
  5
5969
 10
159.869
 20
390.977
 30
0.000000
  70
    32
  0
VERTEX
  8
0
  5
596A
 10
159.830
 20
391.035
 30
0.000000
  70
    32
  0
VERTEX
  8
0
  5
596B
 10
159.791
 20
391.094
 30
0.000000
  70
    32
  0
VERTEX
  8
0
  5
596C
 10
159.752
 20
391.153
 30
0.000000
  70
    32
  0
VERTEX
  8
0
  5
596D
 10
159.712
 20
391.211
 30
0.000000
  70
    32
  0
VERTEX
  8
0
  5
596E
 10
159.673
 20
391.270
 30
0.000000
  70
    32
  0
VERTEX
  8
0
  5
596F
 10
159.634
 20
391.328
 30
0.000000
  70
    32
  0
VERTEX
  8
0
  5
5970
 10
159.594
 20
391.387
 30
0.000000
  70
    32
  0
VERTEX
  8
0
  5
5971
 10
159.555
 20
391.446
 30
0.000000
  70
    32
  0
VERTEX
  8
0
  5
5972
 10
159.516
 20
391.504
 30
0.000000
  70
    32
  0
VERTEX
  8
0
  5
5973
 10
159.477
 20
391.563
 30
0.000000
  70
    32
  0
VERTEX
  8
0
  5
5974
 10
159.438
 20
391.621
 30
0.000000
  70
    32
  0
VERTEX
  8
0
  5
5975
 10
159.398
 20
391.679
 30
0.000000
  70
    32
  0
VERTEX
  8
0
  5
5976
 10
159.359
 20
391.738
 30
0.000000
  70
    32
  0
VERTEX
  8
0
  5
5977
 10
159.320
 20
391.796
 30
0.000000
  70
    32
  0
VERTEX
  8
0
  5
5978
 10
159.281
 20
391.855
 30
0.000000
  70
    32
  0
VERTEX
  8
0
  5
5979
 10
159.242
 20
391.913
 30
0.000000
  70
    32
  0
VERTEX
  8
0
  5
597A
 10
159.202
 20
391.971
 30
0.000000
  70
    32
  0
VERTEX
  8
0
  5
597B
 10
159.163
 20
392.030
 30
0.000000
  70
    32
  0
VERTEX
  8
0
  5
597C
 10
159.124
 20
392.088
 30
0.000000
  70
    32
  0
VERTEX
  8
0
  5
597D
 10
159.085
 20
392.146
 30
0.000000
  70
    32
  0
VERTEX
  8
0
  5
597E
 10
159.046
 20
392.204
 30
0.000000
  70
    32
  0
VERTEX
  8
0
  5
597F
 10
159.007
 20
392.262
 30
0.000000
  70
    32
  0
VERTEX
  8
0
  5
5980
 10
158.968
 20
392.321
 30
0.000000
  70
    32
  0
VERTEX
  8
0
  5
5981
 10
158.928
 20
392.379
 30
0.000000
  70
    32
  0
VERTEX
  8
0
  5
5982
 10
158.889
 20
392.437
 30
0.000000
  70
    32
  0
VERTEX
  8
0
  5
5983
 10
158.850
 20
392.495
 30
0.000000
  70
    32
  0
VERTEX
  8
0
  5
5984
 10
158.811
 20
392.553
 30
0.000000
  70
    32
  0
VERTEX
  8
0
  5
5985
 10
158.772
 20
392.611
 30
0.000000
  70
    32
  0
VERTEX
  8
0
  5
5986
 10
158.733
 20
392.669
 30
0.000000
  70
    32
  0
VERTEX
  8
0
  5
5987
 10
158.694
 20
392.727
 30
0.000000
  70
    32
  0
VERTEX
  8
0
  5
5988
 10
158.655
 20
392.785
 30
0.000000
  70
    32
  0
VERTEX
  8
0
  5
5989
 10
158.616
 20
392.843
 30
0.000000
  70
    32
  0
VERTEX
  8
0
  5
598A
 10
158.577
 20
392.900
 30
0.000000
  70
    32
  0
VERTEX
  8
0
  5
598B
 10
158.538
 20
392.958
 30
0.000000
  70
    32
  0
VERTEX
  8
0
  5
598C
 10
158.499
 20
393.016
 30
0.000000
  70
    32
  0
VERTEX
  8
0
  5
598D
 10
158.460
 20
393.074
 30
0.000000
  70
    32
  0
VERTEX
  8
0
  5
598E
 10
158.420
 20
393.132
 30
0.000000
  70
    32
  0
VERTEX
  8
0
  5
598F
 10
158.381
 20
393.189
 30
0.000000
  70
    32
  0
VERTEX
  8
0
  5
5990
 10
158.342
 20
393.247
 30
0.000000
  70
    32
  0
VERTEX
  8
0
  5
5991
 10
158.303
 20
393.305
 30
0.000000
  70
    32
  0
VERTEX
  8
0
  5
5992
 10
158.264
 20
393.363
 30
0.000000
  70
    32
  0
VERTEX
  8
0
  5
5993
 10
158.225
 20
393.420
 30
0.000000
  70
    32
  0
VERTEX
  8
0
  5
5994
 10
158.186
 20
393.478
 30
0.000000
  70
    32
  0
VERTEX
  8
0
  5
5995
 10
158.147
 20
393.535
 30
0.000000
  70
    32
  0
VERTEX
  8
0
  5
5996
 10
158.109
 20
393.593
 30
0.000000
  70
    32
  0
VERTEX
  8
0
  5
5997
 10
158.070
 20
393.650
 30
0.000000
  70
    32
  0
VERTEX
  8
0
  5
5998
 10
158.031
 20
393.708
 30
0.000000
  70
    32
  0
VERTEX
  8
0
  5
5999
 10
157.992
 20
393.765
 30
0.000000
  70
    32
  0
VERTEX
  8
0
  5
599A
 10
157.953
 20
393.823
 30
0.000000
  70
    32
  0
VERTEX
  8
0
  5
599B
 10
157.914
 20
393.880
 30
0.000000
  70
    32
  0
VERTEX
  8
0
  5
599C
 10
157.875
 20
393.938
 30
0.000000
  70
    32
  0
VERTEX
  8
0
  5
599D
 10
157.836
 20
393.995
 30
0.000000
  70
    32
  0
VERTEX
  8
0
  5
599E
 10
157.797
 20
394.052
 30
0.000000
  70
    32
  0
VERTEX
  8
0
  5
599F
 10
157.758
 20
394.110
 30
0.000000
  70
    32
  0
VERTEX
  8
0
  5
59A0
 10
157.719
 20
394.167
 30
0.000000
  70
    32
  0
VERTEX
  8
0
  5
59A1
 10
157.680
 20
394.224
 30
0.000000
  70
    32
  0
VERTEX
  8
0
  5
59A2
 10
157.641
 20
394.281
 30
0.000000
  70
    32
  0
VERTEX
  8
0
  5
59A3
 10
157.603
 20
394.339
 30
0.000000
  70
    32
  0
VERTEX
  8
0
  5
59A4
 10
157.564
 20
394.396
 30
0.000000
  70
    32
  0
VERTEX
  8
0
  5
59A5
 10
157.525
 20
394.453
 30
0.000000
  70
    32
  0
VERTEX
  8
0
  5
59A6
 10
157.486
 20
394.510
 30
0.000000
  70
    32
  0
VERTEX
  8
0
  5
59A7
 10
157.447
 20
394.567
 30
0.000000
  70
    32
  0
VERTEX
  8
0
  5
59A8
 10
157.408
 20
394.624
 30
0.000000
  70
    32
  0
VERTEX
  8
0
  5
59A9
 10
157.369
 20
394.681
 30
0.000000
  70
    32
  0
VERTEX
  8
0
  5
59AA
 10
157.331
 20
394.738
 30
0.000000
  70
    32
  0
VERTEX
  8
0
  5
59AB
 10
157.292
 20
394.795
 30
0.000000
  70
    32
  0
VERTEX
  8
0
  5
59AC
 10
157.253
 20
394.852
 30
0.000000
  70
    32
  0
VERTEX
  8
0
  5
59AD
 10
157.214
 20
394.909
 30
0.000000
  70
    32
  0
VERTEX
  8
0
  5
59AE
 10
157.175
 20
394.966
 30
0.000000
  70
    32
  0
VERTEX
  8
0
  5
59AF
 10
157.137
 20
395.023
 30
0.000000
  70
    32
  0
VERTEX
  8
0
  5
59B0
 10
157.098
 20
395.080
 30
0.000000
  70
    32
  0
VERTEX
  8
0
  5
59B1
 10
157.059
 20
395.136
 30
0.000000
  70
    32
  0
VERTEX
  8
0
  5
59B2
 10
157.020
 20
395.193
 30
0.000000
  70
    32
  0
VERTEX
  8
0
  5
59B3
 10
156.982
 20
395.250
 30
0.000000
  70
    32
  0
SEQEND
  8
0
  5
59B4
  0
LINE
  5
4ABB
  8
0
 10
162.0
 20
382.75
 30
0.0
 11
162.0
 21
387.76796426256283
 31
0.0
  0
LINE
  5
4B1C
  8
2
 10
224.4925475583122
 20
410.24999999999989
 30
0.0
 11
224.4925475583122
 21
422.75
 31
0.0
  0
LINE
  5
4B1D
  8
2
 10
217.84554755831229
 20
422.75
 30
0.0
 11
217.84554755831229
 21
410.24999999999989
 31
0.0
  0
ARC
  5
4BC8
  8
0
 10
164.0
 20
698.0
 30
0.0
 40
2.0000000000000142
 50
90.0
 51
180.0
  0
ARC
  5
4BC9
  8
0
 10
185.0
 20
698.0
 30
0.0
 40
2.0000000000000142
 50
0.0
 51
90.0
  0
LINE
  5
4BCA
  8
0
 10
187.0
 20
675.0
 30
0.0
 11
187.0
 21
698.0
 31
0.0
  0
LINE
  5
4BCB
  8
0
 10
162.0
 20
698.0
 30
0.0
 11
162.0
 21
675.0
 31
0.0
  0
LINE
  5
4BCC
  8
0
 10
170.5000000000104
 20
675.0
 30
0.0
 11
170.5000000000102
 21
671.64253994857324
 31
0.0
  0
LINE
  5
4BCD
  8
0
 10
178.4999999999898
 20
671.64253994857324
 30
0.0
 11
178.4999999999898
 21
675.0
 31
0.0
  0
LINE
  5
4BCE
  8
0
 10
185.0
 20
700.0
 30
0.0
 11
164.0
 21
700.0
 31
0.0
  0
LINE
  5
4BD0
  8
0
 10
187.0
 20
675.0
 30
0.0
 11
162.0
 21
675.0
 31
0.0
  0
CIRCLE
  5
4BE1
  8
0
 10
174.5
 20
597.25
 30
0.0
 40
46.0
  0
CIRCLE
  5
4BE2
  8
0
 10
174.5
 20
597.25
 30
0.0
 40
74.499999999999972
  0
LINE
  5
4C15
  8
3
 10
177.90000000000009
 20
671.67237566753693
 30
0.0
 11
177.90000000000009
 21
675.0
 31
0.0
  0
LINE
  5
4C16
  8
3
 10
171.10000000000011
 20
675.0
 30
0.0
 11
171.10000000000011
 21
671.67237566753693
 31
0.0
  0
ARC
  5
4C55
  8
0
 10
524.24999999999932
 20
400.24999999999977
 30
0.0
 40
2.0000000000000071
 50
0.0
 51
90.0
  0
ARC
  5
4C56
  8
0
 10
524.24999999999932
 20
379.24999999999989
 30
0.0
 40
2.0000000000000071
 50
270.0
 51
0.0
  0
LINE
  5
4C57
  8
0
 10
501.24999999999932
 20
377.24999999999989
 30
0.0
 11
524.24999999999932
 21
377.24999999999989
 31
0.0
  0
LINE
  5
4C58
  8
0
 10
524.24999999999932
 20
402.24999999999989
 30
0.0
 11
501.24999999999932
 21
402.24999999999989
 31
0.0
  0
LINE
  5
4C59
  8
0
 10
501.24999999999932
 20
393.74999999998971
 30
0.0
 11
497.99999999999972
 21
393.74999999998971
 31
0.0
  0
LINE
  5
4C5A
  8
0
 10
497.99999999999972
 20
385.75000000001017
 30
0.0
 11
501.24999999999932
 21
385.75000000001017
 31
0.0
  0
LINE
  5
4C5B
  8
0
 10
497.99999999999972
 20
383.75
 30
0.0
 11
497.99999999999972
 21
408.74999999999989
 31
0.0
  0
LINE
  5
4C5D
  8
0
 10
348.99999999999977
 20
408.74999999999989
 30
0.0
 11
348.99999999999977
 21
396.25
 31
0.0
  0
LINE
  5
4C5E
  8
0
 10
348.99999999999977
 20
422.75
 30
0.0
 11
348.99999999999977
 21
410.24999999999989
 31
0.0
  0
LINE
  5
4C5F
  8
0
 10
497.99999999999972
 20
410.24999999999989
 30
0.0
 11
497.99999999999972
 21
422.75
 31
0.0
  0
LINE
  5
4C60
  8
0
 10
363.49999999999977
 20
410.24999999999989
 30
0.0
 11
363.49999999999977
 21
408.74999999999989
 31
0.0
  0
LINE
  5
4C61
  8
0
 10
363.49999999999977
 20
396.25
 30
0.0
 11
363.49999999999977
 21
395.25
 31
0.0
  0
LINE
  5
4C62
  8
0
 10
483.49999999999977
 20
408.74999999999989
 30
0.0
 11
483.49999999999977
 21
410.24999999999989
 31
0.0
  0
LINE
  5
4C64
  8
0
 10
526.24999999999932
 20
379.24999999999989
 30
0.0
 11
526.24999999999932
 21
400.24999999999977
 31
0.0
  0
LINE
  5
4C65
  8
0
 10
501.24999999999932
 20
377.24999999999989
 30
0.0
 11
501.24999999999932
 21
402.24999999999989
 31
0.0
  0
CIRCLE
  5
4C66
  8
0
 10
423.49999999999972
 20
395.7499999999996
 30
0.0
 40
3.4000000000000048
  0
LINE
  5
4C67
  8
0
 10
368.27093156679172
 20
396.25
 30
0.0
 11
368.27093156679172
 21
383.75
 31
0.0
  0
LINE
  5
4C68
  8
0
 10
348.99999999999977
 20
396.25
 30
0.0
 11
368.27093156679172
 21
396.25
 31
0.0
  0
LINE
  5
4C69
  8
0
 10
368.27093156679172
 20
383.75
 30
0.0
 11
497.99999999999972
 21
383.75
 31
0.0
  0
LINE
  5
4C6A
  8
0
 10
497.99999999999972
 20
408.74999999999989
 30
0.0
 11
349.0
 21
408.74999999999989
 31
0.0
  0
LINE
  5
4C6B
  8
0
 10
348.99999999999977
 20
422.75
 30
0.0
 11
497.99999999999972
 21
422.75
 31
0.0
  0
LINE
  5
4C6C
  8
0
 10
348.99999999999977
 20
410.24999999999989
 30
0.0
 11
497.99999999999972
 21
410.24999999999989
 31
0.0
  0
POLYLINE
  5
4C6D
  8
0
 10
464.45715350622783
 20
382.74999999999994
 30
0.0
 66
     1
 70
     8
  0
VERTEX
  8
0
  5
59B5
 10
464.457
 20
382.750
 30
0.000000
  70
    32
  0
VERTEX
  8
0
  5
59B6
 10
464.453
 20
382.758
 30
0.000000
  70
    32
  0
VERTEX
  8
0
  5
59B7
 10
464.450
 20
382.766
 30
0.000000
  70
    32
  0
VERTEX
  8
0
  5
59B8
 10
464.446
 20
382.774
 30
0.000000
  70
    32
  0
VERTEX
  8
0
  5
59B9
 10
464.442
 20
382.781
 30
0.000000
  70
    32
  0
VERTEX
  8
0
  5
59BA
 10
464.438
 20
382.789
 30
0.000000
  70
    32
  0
VERTEX
  8
0
  5
59BB
 10
464.435
 20
382.797
 30
0.000000
  70
    32
  0
VERTEX
  8
0
  5
59BC
 10
464.431
 20
382.805
 30
0.000000
  70
    32
  0
VERTEX
  8
0
  5
59BD
 10
464.427
 20
382.813
 30
0.000000
  70
    32
  0
VERTEX
  8
0
  5
59BE
 10
464.423
 20
382.821
 30
0.000000
  70
    32
  0
VERTEX
  8
0
  5
59BF
 10
464.420
 20
382.828
 30
0.000000
  70
    32
  0
VERTEX
  8
0
  5
59C0
 10
464.416
 20
382.836
 30
0.000000
  70
    32
  0
VERTEX
  8
0
  5
59C1
 10
464.412
 20
382.844
 30
0.000000
  70
    32
  0
VERTEX
  8
0
  5
59C2
 10
464.409
 20
382.852
 30
0.000000
  70
    32
  0
VERTEX
  8
0
  5
59C3
 10
464.405
 20
382.860
 30
0.000000
  70
    32
  0
VERTEX
  8
0
  5
59C4
 10
464.401
 20
382.867
 30
0.000000
  70
    32
  0
VERTEX
  8
0
  5
59C5
 10
464.397
 20
382.875
 30
0.000000
  70
    32
  0
VERTEX
  8
0
  5
59C6
 10
464.394
 20
382.883
 30
0.000000
  70
    32
  0
VERTEX
  8
0
  5
59C7
 10
464.390
 20
382.891
 30
0.000000
  70
    32
  0
VERTEX
  8
0
  5
59C8
 10
464.386
 20
382.899
 30
0.000000
  70
    32
  0
VERTEX
  8
0
  5
59C9
 10
464.382
 20
382.907
 30
0.000000
  70
    32
  0
VERTEX
  8
0
  5
59CA
 10
464.379
 20
382.914
 30
0.000000
  70
    32
  0
VERTEX
  8
0
  5
59CB
 10
464.375
 20
382.922
 30
0.000000
  70
    32
  0
VERTEX
  8
0
  5
59CC
 10
464.371
 20
382.930
 30
0.000000
  70
    32
  0
VERTEX
  8
0
  5
59CD
 10
464.367
 20
382.938
 30
0.000000
  70
    32
  0
VERTEX
  8
0
  5
59CE
 10
464.364
 20
382.946
 30
0.000000
  70
    32
  0
VERTEX
  8
0
  5
59CF
 10
464.360
 20
382.954
 30
0.000000
  70
    32
  0
VERTEX
  8
0
  5
59D0
 10
464.356
 20
382.961
 30
0.000000
  70
    32
  0
VERTEX
  8
0
  5
59D1
 10
464.352
 20
382.969
 30
0.000000
  70
    32
  0
VERTEX
  8
0
  5
59D2
 10
464.349
 20
382.977
 30
0.000000
  70
    32
  0
VERTEX
  8
0
  5
59D3
 10
464.345
 20
382.985
 30
0.000000
  70
    32
  0
VERTEX
  8
0
  5
59D4
 10
464.341
 20
382.993
 30
0.000000
  70
    32
  0
VERTEX
  8
0
  5
59D5
 10
464.337
 20
383.001
 30
0.000000
  70
    32
  0
VERTEX
  8
0
  5
59D6
 10
464.334
 20
383.008
 30
0.000000
  70
    32
  0
VERTEX
  8
0
  5
59D7
 10
464.330
 20
383.016
 30
0.000000
  70
    32
  0
VERTEX
  8
0
  5
59D8
 10
464.326
 20
383.024
 30
0.000000
  70
    32
  0
VERTEX
  8
0
  5
59D9
 10
464.322
 20
383.032
 30
0.000000
  70
    32
  0
VERTEX
  8
0
  5
59DA
 10
464.319
 20
383.040
 30
0.000000
  70
    32
  0
VERTEX
  8
0
  5
59DB
 10
464.315
 20
383.047
 30
0.000000
  70
    32
  0
VERTEX
  8
0
  5
59DC
 10
464.311
 20
383.055
 30
0.000000
  70
    32
  0
VERTEX
  8
0
  5
59DD
 10
464.307
 20
383.063
 30
0.000000
  70
    32
  0
VERTEX
  8
0
  5
59DE
 10
464.304
 20
383.071
 30
0.000000
  70
    32
  0
VERTEX
  8
0
  5
59DF
 10
464.300
 20
383.079
 30
0.000000
  70
    32
  0
VERTEX
  8
0
  5
59E0
 10
464.296
 20
383.087
 30
0.000000
  70
    32
  0
VERTEX
  8
0
  5
59E1
 10
464.292
 20
383.094
 30
0.000000
  70
    32
  0
VERTEX
  8
0
  5
59E2
 10
464.289
 20
383.102
 30
0.000000
  70
    32
  0
VERTEX
  8
0
  5
59E3
 10
464.285
 20
383.110
 30
0.000000
  70
    32
  0
VERTEX
  8
0
  5
59E4
 10
464.281
 20
383.118
 30
0.000000
  70
    32
  0
VERTEX
  8
0
  5
59E5
 10
464.277
 20
383.126
 30
0.000000
  70
    32
  0
VERTEX
  8
0
  5
59E6
 10
464.274
 20
383.134
 30
0.000000
  70
    32
  0
VERTEX
  8
0
  5
59E7
 10
464.270
 20
383.141
 30
0.000000
  70
    32
  0
VERTEX
  8
0
  5
59E8
 10
464.266
 20
383.149
 30
0.000000
  70
    32
  0
VERTEX
  8
0
  5
59E9
 10
464.262
 20
383.157
 30
0.000000
  70
    32
  0
VERTEX
  8
0
  5
59EA
 10
464.258
 20
383.165
 30
0.000000
  70
    32
  0
VERTEX
  8
0
  5
59EB
 10
464.255
 20
383.173
 30
0.000000
  70
    32
  0
VERTEX
  8
0
  5
59EC
 10
464.251
 20
383.180
 30
0.000000
  70
    32
  0
VERTEX
  8
0
  5
59ED
 10
464.247
 20
383.188
 30
0.000000
  70
    32
  0
VERTEX
  8
0
  5
59EE
 10
464.243
 20
383.196
 30
0.000000
  70
    32
  0
VERTEX
  8
0
  5
59EF
 10
464.240
 20
383.204
 30
0.000000
  70
    32
  0
VERTEX
  8
0
  5
59F0
 10
464.236
 20
383.212
 30
0.000000
  70
    32
  0
VERTEX
  8
0
  5
59F1
 10
464.232
 20
383.219
 30
0.000000
  70
    32
  0
VERTEX
  8
0
  5
59F2
 10
464.228
 20
383.227
 30
0.000000
  70
    32
  0
VERTEX
  8
0
  5
59F3
 10
464.225
 20
383.235
 30
0.000000
  70
    32
  0
VERTEX
  8
0
  5
59F4
 10
464.221
 20
383.243
 30
0.000000
  70
    32
  0
VERTEX
  8
0
  5
59F5
 10
464.217
 20
383.251
 30
0.000000
  70
    32
  0
VERTEX
  8
0
  5
59F6
 10
464.213
 20
383.259
 30
0.000000
  70
    32
  0
VERTEX
  8
0
  5
59F7
 10
464.210
 20
383.266
 30
0.000000
  70
    32
  0
VERTEX
  8
0
  5
59F8
 10
464.206
 20
383.274
 30
0.000000
  70
    32
  0
VERTEX
  8
0
  5
59F9
 10
464.202
 20
383.282
 30
0.000000
  70
    32
  0
VERTEX
  8
0
  5
59FA
 10
464.198
 20
383.290
 30
0.000000
  70
    32
  0
VERTEX
  8
0
  5
59FB
 10
464.195
 20
383.298
 30
0.000000
  70
    32
  0
VERTEX
  8
0
  5
59FC
 10
464.191
 20
383.305
 30
0.000000
  70
    32
  0
VERTEX
  8
0
  5
59FD
 10
464.187
 20
383.313
 30
0.000000
  70
    32
  0
VERTEX
  8
0
  5
59FE
 10
464.183
 20
383.321
 30
0.000000
  70
    32
  0
VERTEX
  8
0
  5
59FF
 10
464.180
 20
383.329
 30
0.000000
  70
    32
  0
VERTEX
  8
0
  5
5A00
 10
464.176
 20
383.337
 30
0.000000
  70
    32
  0
VERTEX
  8
0
  5
5A01
 10
464.172
 20
383.344
 30
0.000000
  70
    32
  0
VERTEX
  8
0
  5
5A02
 10
464.168
 20
383.352
 30
0.000000
  70
    32
  0
VERTEX
  8
0
  5
5A03
 10
464.164
 20
383.360
 30
0.000000
  70
    32
  0
VERTEX
  8
0
  5
5A04
 10
464.161
 20
383.368
 30
0.000000
  70
    32
  0
VERTEX
  8
0
  5
5A05
 10
464.157
 20
383.376
 30
0.000000
  70
    32
  0
VERTEX
  8
0
  5
5A06
 10
464.153
 20
383.383
 30
0.000000
  70
    32
  0
VERTEX
  8
0
  5
5A07
 10
464.149
 20
383.391
 30
0.000000
  70
    32
  0
VERTEX
  8
0
  5
5A08
 10
464.146
 20
383.399
 30
0.000000
  70
    32
  0
VERTEX
  8
0
  5
5A09
 10
464.142
 20
383.407
 30
0.000000
  70
    32
  0
VERTEX
  8
0
  5
5A0A
 10
464.138
 20
383.415
 30
0.000000
  70
    32
  0
VERTEX
  8
0
  5
5A0B
 10
464.134
 20
383.423
 30
0.000000
  70
    32
  0
VERTEX
  8
0
  5
5A0C
 10
464.131
 20
383.430
 30
0.000000
  70
    32
  0
VERTEX
  8
0
  5
5A0D
 10
464.127
 20
383.438
 30
0.000000
  70
    32
  0
VERTEX
  8
0
  5
5A0E
 10
464.123
 20
383.446
 30
0.000000
  70
    32
  0
VERTEX
  8
0
  5
5A0F
 10
464.119
 20
383.454
 30
0.000000
  70
    32
  0
VERTEX
  8
0
  5
5A10
 10
464.116
 20
383.462
 30
0.000000
  70
    32
  0
VERTEX
  8
0
  5
5A11
 10
464.112
 20
383.469
 30
0.000000
  70
    32
  0
VERTEX
  8
0
  5
5A12
 10
464.108
 20
383.477
 30
0.000000
  70
    32
  0
VERTEX
  8
0
  5
5A13
 10
464.104
 20
383.485
 30
0.000000
  70
    32
  0
VERTEX
  8
0
  5
5A14
 10
464.100
 20
383.493
 30
0.000000
  70
    32
  0
VERTEX
  8
0
  5
5A15
 10
464.097
 20
383.501
 30
0.000000
  70
    32
  0
VERTEX
  8
0
  5
5A16
 10
464.093
 20
383.508
 30
0.000000
  70
    32
  0
VERTEX
  8
0
  5
5A17
 10
464.089
 20
383.516
 30
0.000000
  70
    32
  0
VERTEX
  8
0
  5
5A18
 10
464.085
 20
383.524
 30
0.000000
  70
    32
  0
VERTEX
  8
0
  5
5A19
 10
464.082
 20
383.532
 30
0.000000
  70
    32
  0
VERTEX
  8
0
  5
5A1A
 10
464.078
 20
383.540
 30
0.000000
  70
    32
  0
VERTEX
  8
0
  5
5A1B
 10
464.074
 20
383.547
 30
0.000000
  70
    32
  0
VERTEX
  8
0
  5
5A1C
 10
464.070
 20
383.555
 30
0.000000
  70
    32
  0
VERTEX
  8
0
  5
5A1D
 10
464.067
 20
383.563
 30
0.000000
  70
    32
  0
VERTEX
  8
0
  5
5A1E
 10
464.063
 20
383.571
 30
0.000000
  70
    32
  0
VERTEX
  8
0
  5
5A1F
 10
464.059
 20
383.579
 30
0.000000
  70
    32
  0
VERTEX
  8
0
  5
5A20
 10
464.055
 20
383.586
 30
0.000000
  70
    32
  0
VERTEX
  8
0
  5
5A21
 10
464.051
 20
383.594
 30
0.000000
  70
    32
  0
VERTEX
  8
0
  5
5A22
 10
464.048
 20
383.602
 30
0.000000
  70
    32
  0
VERTEX
  8
0
  5
5A23
 10
464.044
 20
383.610
 30
0.000000
  70
    32
  0
VERTEX
  8
0
  5
5A24
 10
464.040
 20
383.618
 30
0.000000
  70
    32
  0
VERTEX
  8
0
  5
5A25
 10
464.036
 20
383.625
 30
0.000000
  70
    32
  0
VERTEX
  8
0
  5
5A26
 10
464.033
 20
383.633
 30
0.000000
  70
    32
  0
VERTEX
  8
0
  5
5A27
 10
464.029
 20
383.641
 30
0.000000
  70
    32
  0
VERTEX
  8
0
  5
5A28
 10
464.025
 20
383.649
 30
0.000000
  70
    32
  0
VERTEX
  8
0
  5
5A29
 10
464.021
 20
383.656
 30
0.000000
  70
    32
  0
VERTEX
  8
0
  5
5A2A
 10
464.017
 20
383.664
 30
0.000000
  70
    32
  0
VERTEX
  8
0
  5
5A2B
 10
464.014
 20
383.672
 30
0.000000
  70
    32
  0
VERTEX
  8
0
  5
5A2C
 10
464.010
 20
383.680
 30
0.000000
  70
    32
  0
VERTEX
  8
0
  5
5A2D
 10
464.006
 20
383.688
 30
0.000000
  70
    32
  0
VERTEX
  8
0
  5
5A2E
 10
464.002
 20
383.695
 30
0.000000
  70
    32
  0
VERTEX
  8
0
  5
5A2F
 10
463.999
 20
383.703
 30
0.000000
  70
    32
  0
VERTEX
  8
0
  5
5A30
 10
463.995
 20
383.711
 30
0.000000
  70
    32
  0
VERTEX
  8
0
  5
5A31
 10
463.991
 20
383.719
 30
0.000000
  70
    32
  0
VERTEX
  8
0
  5
5A32
 10
463.987
 20
383.727
 30
0.000000
  70
    32
  0
VERTEX
  8
0
  5
5A33
 10
463.983
 20
383.734
 30
0.000000
  70
    32
  0
VERTEX
  8
0
  5
5A34
 10
463.980
 20
383.742
 30
0.000000
  70
    32
  0
VERTEX
  8
0
  5
5A35
 10
463.976
 20
383.750
 30
0.000000
  70
    32
  0
SEQEND
  8
0
  5
5A36
  0
LINE
  5
4C6E
  8
0
 10
364.81652702847242
 20
382.75
 30
0.0
 11
464.45715350622788
 21
382.75
 31
0.0
  0
LINE
  5
4C6F
  8
0
 10
364.81652702847242
 20
387.76796426256283
 30
0.0
 11
364.81652702847242
 21
382.75
 31
0.0
  0
POLYLINE
  5
4C70
  8
0
 10
366.11439303664866
 20
395.24999999999852
 30
0.0
 66
     1
 70
     8
  0
VERTEX
  8
0
  5
5A37
 10
366.114
 20
395.250
 30
0.000000
  70
    32
  0
VERTEX
  8
0
  5
5A38
 10
366.103
 20
395.193
 30
0.000000
  70
    32
  0
VERTEX
  8
0
  5
5A39
 10
366.091
 20
395.136
 30
0.000000
  70
    32
  0
VERTEX
  8
0
  5
5A3A
 10
366.079
 20
395.080
 30
0.000000
  70
    32
  0
VERTEX
  8
0
  5
5A3B
 10
366.067
 20
395.023
 30
0.000000
  70
    32
  0
VERTEX
  8
0
  5
5A3C
 10
366.056
 20
394.966
 30
0.000000
  70
    32
  0
VERTEX
  8
0
  5
5A3D
 10
366.044
 20
394.909
 30
0.000000
  70
    32
  0
VERTEX
  8
0
  5
5A3E
 10
366.032
 20
394.852
 30
0.000000
  70
    32
  0
VERTEX
  8
0
  5
5A3F
 10
366.021
 20
394.795
 30
0.000000
  70
    32
  0
VERTEX
  8
0
  5
5A40
 10
366.009
 20
394.738
 30
0.000000
  70
    32
  0
VERTEX
  8
0
  5
5A41
 10
365.997
 20
394.681
 30
0.000000
  70
    32
  0
VERTEX
  8
0
  5
5A42
 10
365.986
 20
394.624
 30
0.000000
  70
    32
  0
VERTEX
  8
0
  5
5A43
 10
365.974
 20
394.567
 30
0.000000
  70
    32
  0
VERTEX
  8
0
  5
5A44
 10
365.963
 20
394.510
 30
0.000000
  70
    32
  0
VERTEX
  8
0
  5
5A45
 10
365.951
 20
394.453
 30
0.000000
  70
    32
  0
VERTEX
  8
0
  5
5A46
 10
365.940
 20
394.396
 30
0.000000
  70
    32
  0
VERTEX
  8
0
  5
5A47
 10
365.929
 20
394.339
 30
0.000000
  70
    32
  0
VERTEX
  8
0
  5
5A48
 10
365.917
 20
394.281
 30
0.000000
  70
    32
  0
VERTEX
  8
0
  5
5A49
 10
365.906
 20
394.224
 30
0.000000
  70
    32
  0
VERTEX
  8
0
  5
5A4A
 10
365.894
 20
394.167
 30
0.000000
  70
    32
  0
VERTEX
  8
0
  5
5A4B
 10
365.883
 20
394.110
 30
0.000000
  70
    32
  0
VERTEX
  8
0
  5
5A4C
 10
365.872
 20
394.052
 30
0.000000
  70
    32
  0
VERTEX
  8
0
  5
5A4D
 10
365.861
 20
393.995
 30
0.000000
  70
    32
  0
VERTEX
  8
0
  5
5A4E
 10
365.849
 20
393.938
 30
0.000000
  70
    32
  0
VERTEX
  8
0
  5
5A4F
 10
365.838
 20
393.880
 30
0.000000
  70
    32
  0
VERTEX
  8
0
  5
5A50
 10
365.827
 20
393.823
 30
0.000000
  70
    32
  0
VERTEX
  8
0
  5
5A51
 10
365.816
 20
393.765
 30
0.000000
  70
    32
  0
VERTEX
  8
0
  5
5A52
 10
365.805
 20
393.708
 30
0.000000
  70
    32
  0
VERTEX
  8
0
  5
5A53
 10
365.794
 20
393.650
 30
0.000000
  70
    32
  0
VERTEX
  8
0
  5
5A54
 10
365.782
 20
393.593
 30
0.000000
  70
    32
  0
VERTEX
  8
0
  5
5A55
 10
365.771
 20
393.535
 30
0.000000
  70
    32
  0
VERTEX
  8
0
  5
5A56
 10
365.760
 20
393.478
 30
0.000000
  70
    32
  0
VERTEX
  8
0
  5
5A57
 10
365.749
 20
393.420
 30
0.000000
  70
    32
  0
VERTEX
  8
0
  5
5A58
 10
365.738
 20
393.363
 30
0.000000
  70
    32
  0
VERTEX
  8
0
  5
5A59
 10
365.727
 20
393.305
 30
0.000000
  70
    32
  0
VERTEX
  8
0
  5
5A5A
 10
365.716
 20
393.247
 30
0.000000
  70
    32
  0
VERTEX
  8
0
  5
5A5B
 10
365.706
 20
393.189
 30
0.000000
  70
    32
  0
VERTEX
  8
0
  5
5A5C
 10
365.695
 20
393.132
 30
0.000000
  70
    32
  0
VERTEX
  8
0
  5
5A5D
 10
365.684
 20
393.074
 30
0.000000
  70
    32
  0
VERTEX
  8
0
  5
5A5E
 10
365.673
 20
393.016
 30
0.000000
  70
    32
  0
VERTEX
  8
0
  5
5A5F
 10
365.662
 20
392.958
 30
0.000000
  70
    32
  0
VERTEX
  8
0
  5
5A60
 10
365.652
 20
392.900
 30
0.000000
  70
    32
  0
VERTEX
  8
0
  5
5A61
 10
365.641
 20
392.843
 30
0.000000
  70
    32
  0
VERTEX
  8
0
  5
5A62
 10
365.630
 20
392.785
 30
0.000000
  70
    32
  0
VERTEX
  8
0
  5
5A63
 10
365.619
 20
392.727
 30
0.000000
  70
    32
  0
VERTEX
  8
0
  5
5A64
 10
365.609
 20
392.669
 30
0.000000
  70
    32
  0
VERTEX
  8
0
  5
5A65
 10
365.598
 20
392.611
 30
0.000000
  70
    32
  0
VERTEX
  8
0
  5
5A66
 10
365.587
 20
392.553
 30
0.000000
  70
    32
  0
VERTEX
  8
0
  5
5A67
 10
365.577
 20
392.495
 30
0.000000
  70
    32
  0
VERTEX
  8
0
  5
5A68
 10
365.566
 20
392.437
 30
0.000000
  70
    32
  0
VERTEX
  8
0
  5
5A69
 10
365.556
 20
392.379
 30
0.000000
  70
    32
  0
VERTEX
  8
0
  5
5A6A
 10
365.545
 20
392.321
 30
0.000000
  70
    32
  0
VERTEX
  8
0
  5
5A6B
 10
365.535
 20
392.262
 30
0.000000
  70
    32
  0
VERTEX
  8
0
  5
5A6C
 10
365.524
 20
392.204
 30
0.000000
  70
    32
  0
VERTEX
  8
0
  5
5A6D
 10
365.514
 20
392.146
 30
0.000000
  70
    32
  0
VERTEX
  8
0
  5
5A6E
 10
365.504
 20
392.088
 30
0.000000
  70
    32
  0
VERTEX
  8
0
  5
5A6F
 10
365.493
 20
392.030
 30
0.000000
  70
    32
  0
VERTEX
  8
0
  5
5A70
 10
365.483
 20
391.971
 30
0.000000
  70
    32
  0
VERTEX
  8
0
  5
5A71
 10
365.473
 20
391.913
 30
0.000000
  70
    32
  0
VERTEX
  8
0
  5
5A72
 10
365.462
 20
391.855
 30
0.000000
  70
    32
  0
VERTEX
  8
0
  5
5A73
 10
365.452
 20
391.796
 30
0.000000
  70
    32
  0
VERTEX
  8
0
  5
5A74
 10
365.442
 20
391.738
 30
0.000000
  70
    32
  0
VERTEX
  8
0
  5
5A75
 10
365.432
 20
391.679
 30
0.000000
  70
    32
  0
VERTEX
  8
0
  5
5A76
 10
365.421
 20
391.621
 30
0.000000
  70
    32
  0
VERTEX
  8
0
  5
5A77
 10
365.411
 20
391.563
 30
0.000000
  70
    32
  0
VERTEX
  8
0
  5
5A78
 10
365.401
 20
391.504
 30
0.000000
  70
    32
  0
VERTEX
  8
0
  5
5A79
 10
365.391
 20
391.446
 30
0.000000
  70
    32
  0
VERTEX
  8
0
  5
5A7A
 10
365.381
 20
391.387
 30
0.000000
  70
    32
  0
VERTEX
  8
0
  5
5A7B
 10
365.371
 20
391.328
 30
0.000000
  70
    32
  0
VERTEX
  8
0
  5
5A7C
 10
365.361
 20
391.270
 30
0.000000
  70
    32
  0
VERTEX
  8
0
  5
5A7D
 10
365.351
 20
391.211
 30
0.000000
  70
    32
  0
VERTEX
  8
0
  5
5A7E
 10
365.341
 20
391.153
 30
0.000000
  70
    32
  0
VERTEX
  8
0
  5
5A7F
 10
365.331
 20
391.094
 30
0.000000
  70
    32
  0
VERTEX
  8
0
  5
5A80
 10
365.321
 20
391.035
 30
0.000000
  70
    32
  0
VERTEX
  8
0
  5
5A81
 10
365.311
 20
390.977
 30
0.000000
  70
    32
  0
VERTEX
  8
0
  5
5A82
 10
365.301
 20
390.918
 30
0.000000
  70
    32
  0
VERTEX
  8
0
  5
5A83
 10
365.291
 20
390.859
 30
0.000000
  70
    32
  0
VERTEX
  8
0
  5
5A84
 10
365.282
 20
390.800
 30
0.000000
  70
    32
  0
VERTEX
  8
0
  5
5A85
 10
365.272
 20
390.741
 30
0.000000
  70
    32
  0
VERTEX
  8
0
  5
5A86
 10
365.262
 20
390.683
 30
0.000000
  70
    32
  0
VERTEX
  8
0
  5
5A87
 10
365.252
 20
390.624
 30
0.000000
  70
    32
  0
VERTEX
  8
0
  5
5A88
 10
365.243
 20
390.565
 30
0.000000
  70
    32
  0
VERTEX
  8
0
  5
5A89
 10
365.233
 20
390.506
 30
0.000000
  70
    32
  0
VERTEX
  8
0
  5
5A8A
 10
365.223
 20
390.447
 30
0.000000
  70
    32
  0
VERTEX
  8
0
  5
5A8B
 10
365.214
 20
390.388
 30
0.000000
  70
    32
  0
VERTEX
  8
0
  5
5A8C
 10
365.204
 20
390.329
 30
0.000000
  70
    32
  0
VERTEX
  8
0
  5
5A8D
 10
365.195
 20
390.270
 30
0.000000
  70
    32
  0
VERTEX
  8
0
  5
5A8E
 10
365.185
 20
390.211
 30
0.000000
  70
    32
  0
VERTEX
  8
0
  5
5A8F
 10
365.175
 20
390.152
 30
0.000000
  70
    32
  0
VERTEX
  8
0
  5
5A90
 10
365.166
 20
390.093
 30
0.000000
  70
    32
  0
VERTEX
  8
0
  5
5A91
 10
365.156
 20
390.034
 30
0.000000
  70
    32
  0
VERTEX
  8
0
  5
5A92
 10
365.147
 20
389.974
 30
0.000000
  70
    32
  0
VERTEX
  8
0
  5
5A93
 10
365.138
 20
389.915
 30
0.000000
  70
    32
  0
VERTEX
  8
0
  5
5A94
 10
365.128
 20
389.856
 30
0.000000
  70
    32
  0
VERTEX
  8
0
  5
5A95
 10
365.119
 20
389.797
 30
0.000000
  70
    32
  0
VERTEX
  8
0
  5
5A96
 10
365.110
 20
389.738
 30
0.000000
  70
    32
  0
VERTEX
  8
0
  5
5A97
 10
365.100
 20
389.678
 30
0.000000
  70
    32
  0
VERTEX
  8
0
  5
5A98
 10
365.091
 20
389.619
 30
0.000000
  70
    32
  0
VERTEX
  8
0
  5
5A99
 10
365.082
 20
389.560
 30
0.000000
  70
    32
  0
VERTEX
  8
0
  5
5A9A
 10
365.072
 20
389.500
 30
0.000000
  70
    32
  0
VERTEX
  8
0
  5
5A9B
 10
365.063
 20
389.441
 30
0.000000
  70
    32
  0
VERTEX
  8
0
  5
5A9C
 10
365.054
 20
389.381
 30
0.000000
  70
    32
  0
VERTEX
  8
0
  5
5A9D
 10
365.045
 20
389.322
 30
0.000000
  70
    32
  0
VERTEX
  8
0
  5
5A9E
 10
365.036
 20
389.263
 30
0.000000
  70
    32
  0
VERTEX
  8
0
  5
5A9F
 10
365.027
 20
389.203
 30
0.000000
  70
    32
  0
VERTEX
  8
0
  5
5AA0
 10
365.018
 20
389.144
 30
0.000000
  70
    32
  0
VERTEX
  8
0
  5
5AA1
 10
365.009
 20
389.084
 30
0.000000
  70
    32
  0
VERTEX
  8
0
  5
5AA2
 10
365.000
 20
389.024
 30
0.000000
  70
    32
  0
VERTEX
  8
0
  5
5AA3
 10
364.991
 20
388.965
 30
0.000000
  70
    32
  0
VERTEX
  8
0
  5
5AA4
 10
364.982
 20
388.905
 30
0.000000
  70
    32
  0
VERTEX
  8
0
  5
5AA5
 10
364.973
 20
388.846
 30
0.000000
  70
    32
  0
VERTEX
  8
0
  5
5AA6
 10
364.964
 20
388.786
 30
0.000000
  70
    32
  0
VERTEX
  8
0
  5
5AA7
 10
364.955
 20
388.726
 30
0.000000
  70
    32
  0
VERTEX
  8
0
  5
5AA8
 10
364.946
 20
388.667
 30
0.000000
  70
    32
  0
VERTEX
  8
0
  5
5AA9
 10
364.937
 20
388.607
 30
0.000000
  70
    32
  0
VERTEX
  8
0
  5
5AAA
 10
364.928
 20
388.547
 30
0.000000
  70
    32
  0
VERTEX
  8
0
  5
5AAB
 10
364.920
 20
388.487
 30
0.000000
  70
    32
  0
VERTEX
  8
0
  5
5AAC
 10
364.911
 20
388.427
 30
0.000000
  70
    32
  0
VERTEX
  8
0
  5
5AAD
 10
364.902
 20
388.368
 30
0.000000
  70
    32
  0
VERTEX
  8
0
  5
5AAE
 10
364.894
 20
388.308
 30
0.000000
  70
    32
  0
VERTEX
  8
0
  5
5AAF
 10
364.885
 20
388.248
 30
0.000000
  70
    32
  0
VERTEX
  8
0
  5
5AB0
 10
364.876
 20
388.188
 30
0.000000
  70
    32
  0
VERTEX
  8
0
  5
5AB1
 10
364.868
 20
388.128
 30
0.000000
  70
    32
  0
VERTEX
  8
0
  5
5AB2
 10
364.859
 20
388.068
 30
0.000000
  70
    32
  0
VERTEX
  8
0
  5
5AB3
 10
364.850
 20
388.008
 30
0.000000
  70
    32
  0
VERTEX
  8
0
  5
5AB4
 10
364.842
 20
387.948
 30
0.000000
  70
    32
  0
VERTEX
  8
0
  5
5AB5
 10
364.833
 20
387.888
 30
0.000000
  70
    32
  0
VERTEX
  8
0
  5
5AB6
 10
364.825
 20
387.828
 30
0.000000
  70
    32
  0
VERTEX
  8
0
  5
5AB7
 10
364.817
 20
387.768
 30
0.000000
  70
    32
  0
SEQEND
  8
0
  5
5AB8
  0
LINE
  5
4C71
  8
0
 10
363.49999999999977
 20
395.25
 30
0.0
 11
366.11439303664901
 21
395.25
 31
0.0
  0
CIRCLE
  5
4C72
  8
0
 10
423.49999999999949
 20
395.74999999999989
 30
0.0
 40
1.4999999999996869
  0
LINE
  5
4D58
  8
0
 10
775.24999999999932
 20
383.75000000000011
 30
0.0
 11
775.24999999999932
 21
408.75
 31
0.0
  0
LINE
  5
4D59
  8
0
 10
626.24999999999932
 20
392.35254877489962
 30
0.0
 11
626.24999999999932
 21
383.75000000000011
 31
0.0
  0
LINE
  5
4D5A
  8
0
 10
626.24999999999932
 20
408.75
 30
0.0
 11
626.24999999999932
 21
399.1474512251005
 31
0.0
  0
LINE
  5
4D5B
  8
0
 10
626.24999999999932
 20
422.75
 30
0.0
 11
626.24999999999932
 21
410.25
 31
0.0
  0
LINE
  5
4D5C
  8
0
 10
775.24999999999932
 20
410.25
 30
0.0
 11
775.24999999999932
 21
422.75
 31
0.0
  0
LINE
  5
4D5D
  8
0
 10
640.74999999999932
 20
383.75000000000011
 30
0.0
 11
640.74999999999932
 21
382.75
 31
0.0
  0
LINE
  5
4D5E
  8
0
 10
640.74999999999932
 20
410.25
 30
0.0
 11
640.74999999999932
 21
408.75
 31
0.0
  0
LINE
  5
4D5F
  8
0
 10
760.74999999999932
 20
408.75
 30
0.0
 11
760.74999999999932
 21
410.25
 31
0.0
  0
LINE
  5
4D60
  8
0
 10
760.74999999999932
 20
382.75
 30
0.0
 11
760.74999999999932
 21
383.75000000000011
 31
0.0
  0
CIRCLE
  5
4D62
  8
0
 10
700.74999999999932
 20
389.75
 30
0.0
 40
12.499999999999989
  0
LINE
  5
4D63
  8
0
 10
775.24999999999932
 20
408.75000000000011
 30
0.0
 11
626.24999999999932
 21
408.75
 31
0.0
  0
POLYLINE
  5
4D65
  8
0
 66
     1
 10
0.0
 20
0.0
 30
0.0
 70
   128
  0
VERTEX
  5
5891
  8
0
 10
626.24999999999932
 20
399.1474512251005
 30
0.0
  0
VERTEX
  5
5892
  8
0
 10
626.25103118714583
 20
399.12732944476772
 30
0.0
  0
VERTEX
  5
5893
  8
0
 10
626.25596967742865
 20
399.01658134753711
 30
0.0
  0
VERTEX
  5
5894
  8
0
 10
626.25982528167674
 20
398.9274407258435
 30
0.0
  0
VERTEX
  5
5895
  8
0
 10
626.26483568671028
 20
398.80772836884762
 30
0.0
  0
VERTEX
  5
5896
  8
0
 10
626.27605935681072
 20
398.52089063753249
 30
0.0
  0
VERTEX
  5
5897
  8
0
 10
626.28227452562635
 20
398.34848750748557
 30
0.0
  0
VERTEX
  5
5898
  8
0
 10
626.289131994429
 20
398.14392233436928
 30
0.0
  0
VERTEX
  5
5899
  8
0
 10
626.29552944346801
 20
397.9359061858629
 30
0.0
  0
VERTEX
  5
589A
  8
0
 10
626.30174321294203
 20
397.71289037687512
 30
0.0
  0
VERTEX
  5
589B
  8
0
 10
626.30760306526531
 20
397.4764012825795
 30
0.0
  0
VERTEX
  5
589C
  8
0
 10
626.31331048412164
 20
397.20970753342959
 30
0.0
  0
VERTEX
  5
589D
  8
0
 10
626.32177451294069
 20
396.68313940674773
 30
0.0
  0
VERTEX
  5
589E
  8
0
 10
626.32470391427182
 20
396.4093158940978
 30
0.0
  0
VERTEX
  5
589F
  8
0
 10
626.32675027450864
 20
396.11069336384787
 30
0.0
  0
VERTEX
  5
58A0
  8
0
 10
626.32762433246228
 20
395.75
 30
0.0
  0
VERTEX
  5
58A1
  8
0
 10
626.3255141040064
 20
395.18955296162562
 30
0.0
  0
VERTEX
  5
58A2
  8
0
 10
626.32293060270797
 20
394.91414171703963
 30
0.0
  0
VERTEX
  5
58A3
  8
0
 10
626.31912553372399
 20
394.62524499804192
 30
0.0
  0
VERTEX
  5
58A4
  8
0
 10
626.3095964557757
 20
394.11180592515751
 30
0.0
  0
VERTEX
  5
58A5
  8
0
 10
626.3039095574029
 20
393.87106887107848
 30
0.0
  0
VERTEX
  5
58A6
  8
0
 10
626.29735847129928
 20
393.62730581545537
 30
0.0
  0
VERTEX
  5
58A7
  8
0
 10
626.28457811241697
 20
393.21838847853309
 30
0.0
  0
VERTEX
  5
58A8
  8
0
 10
626.27827429317529
 20
393.03929349570802
 30
0.0
  0
VERTEX
  5
58A9
  8
0
 10
626.2718406011146
 20
392.8679473555049
 30
0.0
  0
VERTEX
  5
58AA
  8
0
 10
626.2663152877883
 20
392.72852878417791
 30
0.0
  0
VERTEX
  5
58AB
  8
0
 10
626.26140632983243
 20
392.60984284481992
 30
0.0
  0
VERTEX
  5
58AC
  8
0
 10
626.25724821295103
 20
392.5127065615228
 30
0.0
  0
VERTEX
  5
58AD
  8
0
 10
626.25375280875255
 20
392.4332477362085
 30
0.0
  0
VERTEX
  5
58AE
  8
0
 10
626.25024389337625
 20
392.35534833210983
 30
0.0
  0
VERTEX
  5
58AF
  8
0
 10
626.24999999999932
 20
392.35254877489962
 30
0.0
  0
SEQEND
  5
58B0
  8
0
  0
LINE
  5
4D66
  8
0
 10
626.24999999999932
 20
383.75000000000011
 30
0.0
 11
689.78414390026876
 21
383.75000000000011
 31
0.0
  0
LINE
  5
4D67
  8
0
 10
711.71585609973022
 20
383.75000000000011
 30
0.0
 11
775.24999999999932
 21
383.75000000000011
 31
0.0
  0
LINE
  5
4D69
  8
0
 10
626.24999999999932
 20
410.25
 30
0.0
 11
775.24999999999932
 21
410.25
 31
0.0
  0
LINE
  5
4D6B
  8
0
 10
626.24999999999932
 20
422.75
 30
0.0
 11
775.24999999999955
 21
422.75
 31
0.0
  0
POLYLINE
  5
4D6D
  8
0
 10
744.59645455070699
 20
382.75
 30
0.0
 66
     1
 70
     8
  0
VERTEX
  8
0
  5
5AB9
 10
744.596
 20
382.750
 30
0.000000
  70
    32
  0
VERTEX
  8
0
  5
5ABA
 10
744.600
 20
382.758
 30
0.000000
  70
    32
  0
VERTEX
  8
0
  5
5ABB
 10
744.603
 20
382.766
 30
0.000000
  70
    32
  0
VERTEX
  8
0
  5
5ABC
 10
744.607
 20
382.774
 30
0.000000
  70
    32
  0
VERTEX
  8
0
  5
5ABD
 10
744.610
 20
382.781
 30
0.000000
  70
    32
  0
VERTEX
  8
0
  5
5ABE
 10
744.614
 20
382.789
 30
0.000000
  70
    32
  0
VERTEX
  8
0
  5
5ABF
 10
744.617
 20
382.797
 30
0.000000
  70
    32
  0
VERTEX
  8
0
  5
5AC0
 10
744.621
 20
382.805
 30
0.000000
  70
    32
  0
VERTEX
  8
0
  5
5AC1
 10
744.624
 20
382.813
 30
0.000000
  70
    32
  0
VERTEX
  8
0
  5
5AC2
 10
744.628
 20
382.821
 30
0.000000
  70
    32
  0
VERTEX
  8
0
  5
5AC3
 10
744.631
 20
382.828
 30
0.000000
  70
    32
  0
VERTEX
  8
0
  5
5AC4
 10
744.635
 20
382.836
 30
0.000000
  70
    32
  0
VERTEX
  8
0
  5
5AC5
 10
744.638
 20
382.844
 30
0.000000
  70
    32
  0
VERTEX
  8
0
  5
5AC6
 10
744.642
 20
382.852
 30
0.000000
  70
    32
  0
VERTEX
  8
0
  5
5AC7
 10
744.645
 20
382.860
 30
0.000000
  70
    32
  0
VERTEX
  8
0
  5
5AC8
 10
744.649
 20
382.867
 30
0.000000
  70
    32
  0
VERTEX
  8
0
  5
5AC9
 10
744.652
 20
382.875
 30
0.000000
  70
    32
  0
VERTEX
  8
0
  5
5ACA
 10
744.656
 20
382.883
 30
0.000000
  70
    32
  0
VERTEX
  8
0
  5
5ACB
 10
744.659
 20
382.891
 30
0.000000
  70
    32
  0
VERTEX
  8
0
  5
5ACC
 10
744.663
 20
382.899
 30
0.000000
  70
    32
  0
VERTEX
  8
0
  5
5ACD
 10
744.666
 20
382.907
 30
0.000000
  70
    32
  0
VERTEX
  8
0
  5
5ACE
 10
744.670
 20
382.914
 30
0.000000
  70
    32
  0
VERTEX
  8
0
  5
5ACF
 10
744.673
 20
382.922
 30
0.000000
  70
    32
  0
VERTEX
  8
0
  5
5AD0
 10
744.677
 20
382.930
 30
0.000000
  70
    32
  0
VERTEX
  8
0
  5
5AD1
 10
744.680
 20
382.938
 30
0.000000
  70
    32
  0
VERTEX
  8
0
  5
5AD2
 10
744.684
 20
382.946
 30
0.000000
  70
    32
  0
VERTEX
  8
0
  5
5AD3
 10
744.687
 20
382.954
 30
0.000000
  70
    32
  0
VERTEX
  8
0
  5
5AD4
 10
744.691
 20
382.961
 30
0.000000
  70
    32
  0
VERTEX
  8
0
  5
5AD5
 10
744.694
 20
382.969
 30
0.000000
  70
    32
  0
VERTEX
  8
0
  5
5AD6
 10
744.698
 20
382.977
 30
0.000000
  70
    32
  0
VERTEX
  8
0
  5
5AD7
 10
744.701
 20
382.985
 30
0.000000
  70
    32
  0
VERTEX
  8
0
  5
5AD8
 10
744.705
 20
382.993
 30
0.000000
  70
    32
  0
VERTEX
  8
0
  5
5AD9
 10
744.708
 20
383.001
 30
0.000000
  70
    32
  0
VERTEX
  8
0
  5
5ADA
 10
744.712
 20
383.008
 30
0.000000
  70
    32
  0
VERTEX
  8
0
  5
5ADB
 10
744.715
 20
383.016
 30
0.000000
  70
    32
  0
VERTEX
  8
0
  5
5ADC
 10
744.719
 20
383.024
 30
0.000000
  70
    32
  0
VERTEX
  8
0
  5
5ADD
 10
744.722
 20
383.032
 30
0.000000
  70
    32
  0
VERTEX
  8
0
  5
5ADE
 10
744.726
 20
383.040
 30
0.000000
  70
    32
  0
VERTEX
  8
0
  5
5ADF
 10
744.729
 20
383.047
 30
0.000000
  70
    32
  0
VERTEX
  8
0
  5
5AE0
 10
744.732
 20
383.055
 30
0.000000
  70
    32
  0
VERTEX
  8
0
  5
5AE1
 10
744.736
 20
383.063
 30
0.000000
  70
    32
  0
VERTEX
  8
0
  5
5AE2
 10
744.739
 20
383.071
 30
0.000000
  70
    32
  0
VERTEX
  8
0
  5
5AE3
 10
744.743
 20
383.079
 30
0.000000
  70
    32
  0
VERTEX
  8
0
  5
5AE4
 10
744.746
 20
383.087
 30
0.000000
  70
    32
  0
VERTEX
  8
0
  5
5AE5
 10
744.750
 20
383.094
 30
0.000000
  70
    32
  0
VERTEX
  8
0
  5
5AE6
 10
744.753
 20
383.102
 30
0.000000
  70
    32
  0
VERTEX
  8
0
  5
5AE7
 10
744.757
 20
383.110
 30
0.000000
  70
    32
  0
VERTEX
  8
0
  5
5AE8
 10
744.760
 20
383.118
 30
0.000000
  70
    32
  0
VERTEX
  8
0
  5
5AE9
 10
744.764
 20
383.126
 30
0.000000
  70
    32
  0
VERTEX
  8
0
  5
5AEA
 10
744.767
 20
383.134
 30
0.000000
  70
    32
  0
VERTEX
  8
0
  5
5AEB
 10
744.771
 20
383.141
 30
0.000000
  70
    32
  0
VERTEX
  8
0
  5
5AEC
 10
744.774
 20
383.149
 30
0.000000
  70
    32
  0
VERTEX
  8
0
  5
5AED
 10
744.778
 20
383.157
 30
0.000000
  70
    32
  0
VERTEX
  8
0
  5
5AEE
 10
744.781
 20
383.165
 30
0.000000
  70
    32
  0
VERTEX
  8
0
  5
5AEF
 10
744.785
 20
383.173
 30
0.000000
  70
    32
  0
VERTEX
  8
0
  5
5AF0
 10
744.788
 20
383.180
 30
0.000000
  70
    32
  0
VERTEX
  8
0
  5
5AF1
 10
744.792
 20
383.188
 30
0.000000
  70
    32
  0
VERTEX
  8
0
  5
5AF2
 10
744.795
 20
383.196
 30
0.000000
  70
    32
  0
VERTEX
  8
0
  5
5AF3
 10
744.799
 20
383.204
 30
0.000000
  70
    32
  0
VERTEX
  8
0
  5
5AF4
 10
744.802
 20
383.212
 30
0.000000
  70
    32
  0
VERTEX
  8
0
  5
5AF5
 10
744.806
 20
383.219
 30
0.000000
  70
    32
  0
VERTEX
  8
0
  5
5AF6
 10
744.809
 20
383.227
 30
0.000000
  70
    32
  0
VERTEX
  8
0
  5
5AF7
 10
744.812
 20
383.235
 30
0.000000
  70
    32
  0
VERTEX
  8
0
  5
5AF8
 10
744.816
 20
383.243
 30
0.000000
  70
    32
  0
VERTEX
  8
0
  5
5AF9
 10
744.819
 20
383.251
 30
0.000000
  70
    32
  0
VERTEX
  8
0
  5
5AFA
 10
744.823
 20
383.259
 30
0.000000
  70
    32
  0
VERTEX
  8
0
  5
5AFB
 10
744.826
 20
383.266
 30
0.000000
  70
    32
  0
VERTEX
  8
0
  5
5AFC
 10
744.830
 20
383.274
 30
0.000000
  70
    32
  0
VERTEX
  8
0
  5
5AFD
 10
744.833
 20
383.282
 30
0.000000
  70
    32
  0
VERTEX
  8
0
  5
5AFE
 10
744.837
 20
383.290
 30
0.000000
  70
    32
  0
VERTEX
  8
0
  5
5AFF
 10
744.840
 20
383.298
 30
0.000000
  70
    32
  0
VERTEX
  8
0
  5
5B00
 10
744.844
 20
383.305
 30
0.000000
  70
    32
  0
VERTEX
  8
0
  5
5B01
 10
744.847
 20
383.313
 30
0.000000
  70
    32
  0
VERTEX
  8
0
  5
5B02
 10
744.851
 20
383.321
 30
0.000000
  70
    32
  0
VERTEX
  8
0
  5
5B03
 10
744.854
 20
383.329
 30
0.000000
  70
    32
  0
VERTEX
  8
0
  5
5B04
 10
744.858
 20
383.337
 30
0.000000
  70
    32
  0
VERTEX
  8
0
  5
5B05
 10
744.861
 20
383.344
 30
0.000000
  70
    32
  0
VERTEX
  8
0
  5
5B06
 10
744.865
 20
383.352
 30
0.000000
  70
    32
  0
VERTEX
  8
0
  5
5B07
 10
744.868
 20
383.360
 30
0.000000
  70
    32
  0
VERTEX
  8
0
  5
5B08
 10
744.871
 20
383.368
 30
0.000000
  70
    32
  0
VERTEX
  8
0
  5
5B09
 10
744.875
 20
383.376
 30
0.000000
  70
    32
  0
VERTEX
  8
0
  5
5B0A
 10
744.878
 20
383.383
 30
0.000000
  70
    32
  0
VERTEX
  8
0
  5
5B0B
 10
744.882
 20
383.391
 30
0.000000
  70
    32
  0
VERTEX
  8
0
  5
5B0C
 10
744.885
 20
383.399
 30
0.000000
  70
    32
  0
VERTEX
  8
0
  5
5B0D
 10
744.889
 20
383.407
 30
0.000000
  70
    32
  0
VERTEX
  8
0
  5
5B0E
 10
744.892
 20
383.415
 30
0.000000
  70
    32
  0
VERTEX
  8
0
  5
5B0F
 10
744.896
 20
383.423
 30
0.000000
  70
    32
  0
VERTEX
  8
0
  5
5B10
 10
744.899
 20
383.430
 30
0.000000
  70
    32
  0
VERTEX
  8
0
  5
5B11
 10
744.903
 20
383.438
 30
0.000000
  70
    32
  0
VERTEX
  8
0
  5
5B12
 10
744.906
 20
383.446
 30
0.000000
  70
    32
  0
VERTEX
  8
0
  5
5B13
 10
744.910
 20
383.454
 30
0.000000
  70
    32
  0
VERTEX
  8
0
  5
5B14
 10
744.913
 20
383.462
 30
0.000000
  70
    32
  0
VERTEX
  8
0
  5
5B15
 10
744.917
 20
383.469
 30
0.000000
  70
    32
  0
VERTEX
  8
0
  5
5B16
 10
744.920
 20
383.477
 30
0.000000
  70
    32
  0
VERTEX
  8
0
  5
5B17
 10
744.923
 20
383.485
 30
0.000000
  70
    32
  0
VERTEX
  8
0
  5
5B18
 10
744.927
 20
383.493
 30
0.000000
  70
    32
  0
VERTEX
  8
0
  5
5B19
 10
744.930
 20
383.501
 30
0.000000
  70
    32
  0
VERTEX
  8
0
  5
5B1A
 10
744.934
 20
383.508
 30
0.000000
  70
    32
  0
VERTEX
  8
0
  5
5B1B
 10
744.937
 20
383.516
 30
0.000000
  70
    32
  0
VERTEX
  8
0
  5
5B1C
 10
744.941
 20
383.524
 30
0.000000
  70
    32
  0
VERTEX
  8
0
  5
5B1D
 10
744.944
 20
383.532
 30
0.000000
  70
    32
  0
VERTEX
  8
0
  5
5B1E
 10
744.948
 20
383.540
 30
0.000000
  70
    32
  0
VERTEX
  8
0
  5
5B1F
 10
744.951
 20
383.547
 30
0.000000
  70
    32
  0
VERTEX
  8
0
  5
5B20
 10
744.955
 20
383.555
 30
0.000000
  70
    32
  0
VERTEX
  8
0
  5
5B21
 10
744.958
 20
383.563
 30
0.000000
  70
    32
  0
VERTEX
  8
0
  5
5B22
 10
744.962
 20
383.571
 30
0.000000
  70
    32
  0
VERTEX
  8
0
  5
5B23
 10
744.965
 20
383.579
 30
0.000000
  70
    32
  0
VERTEX
  8
0
  5
5B24
 10
744.968
 20
383.586
 30
0.000000
  70
    32
  0
VERTEX
  8
0
  5
5B25
 10
744.972
 20
383.594
 30
0.000000
  70
    32
  0
VERTEX
  8
0
  5
5B26
 10
744.975
 20
383.602
 30
0.000000
  70
    32
  0
VERTEX
  8
0
  5
5B27
 10
744.979
 20
383.610
 30
0.000000
  70
    32
  0
VERTEX
  8
0
  5
5B28
 10
744.982
 20
383.618
 30
0.000000
  70
    32
  0
VERTEX
  8
0
  5
5B29
 10
744.986
 20
383.625
 30
0.000000
  70
    32
  0
VERTEX
  8
0
  5
5B2A
 10
744.989
 20
383.633
 30
0.000000
  70
    32
  0
VERTEX
  8
0
  5
5B2B
 10
744.993
 20
383.641
 30
0.000000
  70
    32
  0
VERTEX
  8
0
  5
5B2C
 10
744.996
 20
383.649
 30
0.000000
  70
    32
  0
VERTEX
  8
0
  5
5B2D
 10
745.000
 20
383.656
 30
0.000000
  70
    32
  0
VERTEX
  8
0
  5
5B2E
 10
745.003
 20
383.664
 30
0.000000
  70
    32
  0
VERTEX
  8
0
  5
5B2F
 10
745.007
 20
383.672
 30
0.000000
  70
    32
  0
VERTEX
  8
0
  5
5B30
 10
745.010
 20
383.680
 30
0.000000
  70
    32
  0
VERTEX
  8
0
  5
5B31
 10
745.013
 20
383.688
 30
0.000000
  70
    32
  0
VERTEX
  8
0
  5
5B32
 10
745.017
 20
383.695
 30
0.000000
  70
    32
  0
VERTEX
  8
0
  5
5B33
 10
745.020
 20
383.703
 30
0.000000
  70
    32
  0
VERTEX
  8
0
  5
5B34
 10
745.024
 20
383.711
 30
0.000000
  70
    32
  0
VERTEX
  8
0
  5
5B35
 10
745.027
 20
383.719
 30
0.000000
  70
    32
  0
VERTEX
  8
0
  5
5B36
 10
745.031
 20
383.727
 30
0.000000
  70
    32
  0
VERTEX
  8
0
  5
5B37
 10
745.034
 20
383.734
 30
0.000000
  70
    32
  0
VERTEX
  8
0
  5
5B38
 10
745.038
 20
383.742
 30
0.000000
  70
    32
  0
VERTEX
  8
0
  5
5B39
 10
745.041
 20
383.750
 30
0.000000
  70
    32
  0
SEQEND
  8
0
  5
5B3A
  0
POLYLINE
  5
4D6E
  8
0
 10
656.45892769395732
 20
383.7499999999975
 30
0.0
 66
     1
 70
     8
  0
VERTEX
  8
0
  5
5B3B
 10
656.459
 20
383.750
 30
0.000000
  70
    32
  0
VERTEX
  8
0
  5
5B3C
 10
656.462
 20
383.742
 30
0.000000
  70
    32
  0
VERTEX
  8
0
  5
5B3D
 10
656.466
 20
383.734
 30
0.000000
  70
    32
  0
VERTEX
  8
0
  5
5B3E
 10
656.469
 20
383.727
 30
0.000000
  70
    32
  0
VERTEX
  8
0
  5
5B3F
 10
656.473
 20
383.719
 30
0.000000
  70
    32
  0
VERTEX
  8
0
  5
5B40
 10
656.476
 20
383.711
 30
0.000000
  70
    32
  0
VERTEX
  8
0
  5
5B41
 10
656.480
 20
383.703
 30
0.000000
  70
    32
  0
VERTEX
  8
0
  5
5B42
 10
656.483
 20
383.695
 30
0.000000
  70
    32
  0
VERTEX
  8
0
  5
5B43
 10
656.487
 20
383.688
 30
0.000000
  70
    32
  0
VERTEX
  8
0
  5
5B44
 10
656.490
 20
383.680
 30
0.000000
  70
    32
  0
VERTEX
  8
0
  5
5B45
 10
656.493
 20
383.672
 30
0.000000
  70
    32
  0
VERTEX
  8
0
  5
5B46
 10
656.497
 20
383.664
 30
0.000000
  70
    32
  0
VERTEX
  8
0
  5
5B47
 10
656.500
 20
383.656
 30
0.000000
  70
    32
  0
VERTEX
  8
0
  5
5B48
 10
656.504
 20
383.649
 30
0.000000
  70
    32
  0
VERTEX
  8
0
  5
5B49
 10
656.507
 20
383.641
 30
0.000000
  70
    32
  0
VERTEX
  8
0
  5
5B4A
 10
656.511
 20
383.633
 30
0.000000
  70
    32
  0
VERTEX
  8
0
  5
5B4B
 10
656.514
 20
383.625
 30
0.000000
  70
    32
  0
VERTEX
  8
0
  5
5B4C
 10
656.518
 20
383.618
 30
0.000000
  70
    32
  0
VERTEX
  8
0
  5
5B4D
 10
656.521
 20
383.610
 30
0.000000
  70
    32
  0
VERTEX
  8
0
  5
5B4E
 10
656.525
 20
383.602
 30
0.000000
  70
    32
  0
VERTEX
  8
0
  5
5B4F
 10
656.528
 20
383.594
 30
0.000000
  70
    32
  0
VERTEX
  8
0
  5
5B50
 10
656.532
 20
383.586
 30
0.000000
  70
    32
  0
VERTEX
  8
0
  5
5B51
 10
656.535
 20
383.579
 30
0.000000
  70
    32
  0
VERTEX
  8
0
  5
5B52
 10
656.538
 20
383.571
 30
0.000000
  70
    32
  0
VERTEX
  8
0
  5
5B53
 10
656.542
 20
383.563
 30
0.000000
  70
    32
  0
VERTEX
  8
0
  5
5B54
 10
656.545
 20
383.555
 30
0.000000
  70
    32
  0
VERTEX
  8
0
  5
5B55
 10
656.549
 20
383.547
 30
0.000000
  70
    32
  0
VERTEX
  8
0
  5
5B56
 10
656.552
 20
383.540
 30
0.000000
  70
    32
  0
VERTEX
  8
0
  5
5B57
 10
656.556
 20
383.532
 30
0.000000
  70
    32
  0
VERTEX
  8
0
  5
5B58
 10
656.559
 20
383.524
 30
0.000000
  70
    32
  0
VERTEX
  8
0
  5
5B59
 10
656.563
 20
383.516
 30
0.000000
  70
    32
  0
VERTEX
  8
0
  5
5B5A
 10
656.566
 20
383.508
 30
0.000000
  70
    32
  0
VERTEX
  8
0
  5
5B5B
 10
656.570
 20
383.501
 30
0.000000
  70
    32
  0
VERTEX
  8
0
  5
5B5C
 10
656.573
 20
383.493
 30
0.000000
  70
    32
  0
VERTEX
  8
0
  5
5B5D
 10
656.577
 20
383.485
 30
0.000000
  70
    32
  0
VERTEX
  8
0
  5
5B5E
 10
656.580
 20
383.477
 30
0.000000
  70
    32
  0
VERTEX
  8
0
  5
5B5F
 10
656.583
 20
383.469
 30
0.000000
  70
    32
  0
VERTEX
  8
0
  5
5B60
 10
656.587
 20
383.462
 30
0.000000
  70
    32
  0
VERTEX
  8
0
  5
5B61
 10
656.590
 20
383.454
 30
0.000000
  70
    32
  0
VERTEX
  8
0
  5
5B62
 10
656.594
 20
383.446
 30
0.000000
  70
    32
  0
VERTEX
  8
0
  5
5B63
 10
656.597
 20
383.438
 30
0.000000
  70
    32
  0
VERTEX
  8
0
  5
5B64
 10
656.601
 20
383.430
 30
0.000000
  70
    32
  0
VERTEX
  8
0
  5
5B65
 10
656.604
 20
383.423
 30
0.000000
  70
    32
  0
VERTEX
  8
0
  5
5B66
 10
656.608
 20
383.415
 30
0.000000
  70
    32
  0
VERTEX
  8
0
  5
5B67
 10
656.611
 20
383.407
 30
0.000000
  70
    32
  0
VERTEX
  8
0
  5
5B68
 10
656.615
 20
383.399
 30
0.000000
  70
    32
  0
VERTEX
  8
0
  5
5B69
 10
656.618
 20
383.391
 30
0.000000
  70
    32
  0
VERTEX
  8
0
  5
5B6A
 10
656.622
 20
383.383
 30
0.000000
  70
    32
  0
VERTEX
  8
0
  5
5B6B
 10
656.625
 20
383.376
 30
0.000000
  70
    32
  0
VERTEX
  8
0
  5
5B6C
 10
656.629
 20
383.368
 30
0.000000
  70
    32
  0
VERTEX
  8
0
  5
5B6D
 10
656.632
 20
383.360
 30
0.000000
  70
    32
  0
VERTEX
  8
0
  5
5B6E
 10
656.635
 20
383.352
 30
0.000000
  70
    32
  0
VERTEX
  8
0
  5
5B6F
 10
656.639
 20
383.344
 30
0.000000
  70
    32
  0
VERTEX
  8
0
  5
5B70
 10
656.642
 20
383.337
 30
0.000000
  70
    32
  0
VERTEX
  8
0
  5
5B71
 10
656.646
 20
383.329
 30
0.000000
  70
    32
  0
VERTEX
  8
0
  5
5B72
 10
656.649
 20
383.321
 30
0.000000
  70
    32
  0
VERTEX
  8
0
  5
5B73
 10
656.653
 20
383.313
 30
0.000000
  70
    32
  0
VERTEX
  8
0
  5
5B74
 10
656.656
 20
383.305
 30
0.000000
  70
    32
  0
VERTEX
  8
0
  5
5B75
 10
656.660
 20
383.298
 30
0.000000
  70
    32
  0
VERTEX
  8
0
  5
5B76
 10
656.663
 20
383.290
 30
0.000000
  70
    32
  0
VERTEX
  8
0
  5
5B77
 10
656.667
 20
383.282
 30
0.000000
  70
    32
  0
VERTEX
  8
0
  5
5B78
 10
656.670
 20
383.274
 30
0.000000
  70
    32
  0
VERTEX
  8
0
  5
5B79
 10
656.674
 20
383.266
 30
0.000000
  70
    32
  0
VERTEX
  8
0
  5
5B7A
 10
656.677
 20
383.259
 30
0.000000
  70
    32
  0
VERTEX
  8
0
  5
5B7B
 10
656.681
 20
383.251
 30
0.000000
  70
    32
  0
VERTEX
  8
0
  5
5B7C
 10
656.684
 20
383.243
 30
0.000000
  70
    32
  0
VERTEX
  8
0
  5
5B7D
 10
656.688
 20
383.235
 30
0.000000
  70
    32
  0
VERTEX
  8
0
  5
5B7E
 10
656.691
 20
383.227
 30
0.000000
  70
    32
  0
VERTEX
  8
0
  5
5B7F
 10
656.694
 20
383.219
 30
0.000000
  70
    32
  0
VERTEX
  8
0
  5
5B80
 10
656.698
 20
383.212
 30
0.000000
  70
    32
  0
VERTEX
  8
0
  5
5B81
 10
656.701
 20
383.204
 30
0.000000
  70
    32
  0
VERTEX
  8
0
  5
5B82
 10
656.705
 20
383.196
 30
0.000000
  70
    32
  0
VERTEX
  8
0
  5
5B83
 10
656.708
 20
383.188
 30
0.000000
  70
    32
  0
VERTEX
  8
0
  5
5B84
 10
656.712
 20
383.180
 30
0.000000
  70
    32
  0
VERTEX
  8
0
  5
5B85
 10
656.715
 20
383.173
 30
0.000000
  70
    32
  0
VERTEX
  8
0
  5
5B86
 10
656.719
 20
383.165
 30
0.000000
  70
    32
  0
VERTEX
  8
0
  5
5B87
 10
656.722
 20
383.157
 30
0.000000
  70
    32
  0
VERTEX
  8
0
  5
5B88
 10
656.726
 20
383.149
 30
0.000000
  70
    32
  0
VERTEX
  8
0
  5
5B89
 10
656.729
 20
383.141
 30
0.000000
  70
    32
  0
VERTEX
  8
0
  5
5B8A
 10
656.733
 20
383.134
 30
0.000000
  70
    32
  0
VERTEX
  8
0
  5
5B8B
 10
656.736
 20
383.126
 30
0.000000
  70
    32
  0
VERTEX
  8
0
  5
5B8C
 10
656.740
 20
383.118
 30
0.000000
  70
    32
  0
VERTEX
  8
0
  5
5B8D
 10
656.743
 20
383.110
 30
0.000000
  70
    32
  0
VERTEX
  8
0
  5
5B8E
 10
656.747
 20
383.102
 30
0.000000
  70
    32
  0
VERTEX
  8
0
  5
5B8F
 10
656.750
 20
383.094
 30
0.000000
  70
    32
  0
VERTEX
  8
0
  5
5B90
 10
656.754
 20
383.087
 30
0.000000
  70
    32
  0
VERTEX
  8
0
  5
5B91
 10
656.757
 20
383.079
 30
0.000000
  70
    32
  0
VERTEX
  8
0
  5
5B92
 10
656.761
 20
383.071
 30
0.000000
  70
    32
  0
VERTEX
  8
0
  5
5B93
 10
656.764
 20
383.063
 30
0.000000
  70
    32
  0
VERTEX
  8
0
  5
5B94
 10
656.768
 20
383.055
 30
0.000000
  70
    32
  0
VERTEX
  8
0
  5
5B95
 10
656.771
 20
383.047
 30
0.000000
  70
    32
  0
VERTEX
  8
0
  5
5B96
 10
656.774
 20
383.040
 30
0.000000
  70
    32
  0
VERTEX
  8
0
  5
5B97
 10
656.778
 20
383.032
 30
0.000000
  70
    32
  0
VERTEX
  8
0
  5
5B98
 10
656.781
 20
383.024
 30
0.000000
  70
    32
  0
VERTEX
  8
0
  5
5B99
 10
656.785
 20
383.016
 30
0.000000
  70
    32
  0
VERTEX
  8
0
  5
5B9A
 10
656.788
 20
383.008
 30
0.000000
  70
    32
  0
VERTEX
  8
0
  5
5B9B
 10
656.792
 20
383.001
 30
0.000000
  70
    32
  0
VERTEX
  8
0
  5
5B9C
 10
656.795
 20
382.993
 30
0.000000
  70
    32
  0
VERTEX
  8
0
  5
5B9D
 10
656.799
 20
382.985
 30
0.000000
  70
    32
  0
VERTEX
  8
0
  5
5B9E
 10
656.802
 20
382.977
 30
0.000000
  70
    32
  0
VERTEX
  8
0
  5
5B9F
 10
656.806
 20
382.969
 30
0.000000
  70
    32
  0
VERTEX
  8
0
  5
5BA0
 10
656.809
 20
382.961
 30
0.000000
  70
    32
  0
VERTEX
  8
0
  5
5BA1
 10
656.813
 20
382.954
 30
0.000000
  70
    32
  0
VERTEX
  8
0
  5
5BA2
 10
656.816
 20
382.946
 30
0.000000
  70
    32
  0
VERTEX
  8
0
  5
5BA3
 10
656.820
 20
382.938
 30
0.000000
  70
    32
  0
VERTEX
  8
0
  5
5BA4
 10
656.823
 20
382.930
 30
0.000000
  70
    32
  0
VERTEX
  8
0
  5
5BA5
 10
656.827
 20
382.922
 30
0.000000
  70
    32
  0
VERTEX
  8
0
  5
5BA6
 10
656.830
 20
382.914
 30
0.000000
  70
    32
  0
VERTEX
  8
0
  5
5BA7
 10
656.834
 20
382.907
 30
0.000000
  70
    32
  0
VERTEX
  8
0
  5
5BA8
 10
656.837
 20
382.899
 30
0.000000
  70
    32
  0
VERTEX
  8
0
  5
5BA9
 10
656.841
 20
382.891
 30
0.000000
  70
    32
  0
VERTEX
  8
0
  5
5BAA
 10
656.844
 20
382.883
 30
0.000000
  70
    32
  0
VERTEX
  8
0
  5
5BAB
 10
656.848
 20
382.875
 30
0.000000
  70
    32
  0
VERTEX
  8
0
  5
5BAC
 10
656.851
 20
382.867
 30
0.000000
  70
    32
  0
VERTEX
  8
0
  5
5BAD
 10
656.855
 20
382.860
 30
0.000000
  70
    32
  0
VERTEX
  8
0
  5
5BAE
 10
656.858
 20
382.852
 30
0.000000
  70
    32
  0
VERTEX
  8
0
  5
5BAF
 10
656.862
 20
382.844
 30
0.000000
  70
    32
  0
VERTEX
  8
0
  5
5BB0
 10
656.865
 20
382.836
 30
0.000000
  70
    32
  0
VERTEX
  8
0
  5
5BB1
 10
656.869
 20
382.828
 30
0.000000
  70
    32
  0
VERTEX
  8
0
  5
5BB2
 10
656.872
 20
382.821
 30
0.000000
  70
    32
  0
VERTEX
  8
0
  5
5BB3
 10
656.876
 20
382.813
 30
0.000000
  70
    32
  0
VERTEX
  8
0
  5
5BB4
 10
656.879
 20
382.805
 30
0.000000
  70
    32
  0
VERTEX
  8
0
  5
5BB5
 10
656.883
 20
382.797
 30
0.000000
  70
    32
  0
VERTEX
  8
0
  5
5BB6
 10
656.886
 20
382.789
 30
0.000000
  70
    32
  0
VERTEX
  8
0
  5
5BB7
 10
656.890
 20
382.781
 30
0.000000
  70
    32
  0
VERTEX
  8
0
  5
5BB8
 10
656.893
 20
382.774
 30
0.000000
  70
    32
  0
VERTEX
  8
0
  5
5BB9
 10
656.897
 20
382.766
 30
0.000000
  70
    32
  0
VERTEX
  8
0
  5
5BBA
 10
656.900
 20
382.758
 30
0.000000
  70
    32
  0
VERTEX
  8
0
  5
5BBB
 10
656.904
 20
382.750
 30
0.000000
  70
    32
  0
SEQEND
  8
0
  5
5BBC
  0
LINE
  5
4D70
  8
0
 10
688.24999999999932
 20
382.75
 30
0.0
 11
688.24999999999955
 21
383.75000000000011
 31
0.0
  0
LINE
  5
4D71
  8
0
 10
640.74999999999932
 20
382.75
 30
0.0
 11
688.24999999999932
 21
382.75
 31
0.0
  0
LINE
  5
4D72
  8
0
 10
713.24999999999932
 20
382.75
 30
0.0
 11
760.74999999999932
 21
382.75
 31
0.0
  0
LINE
  5
4D73
  8
0
 10
713.24999999999932
 20
383.75000000000011
 30
0.0
 11
713.24999999999932
 21
382.75
 31
0.0
  0
LINE
  5
4DD7
  8
2
 10
657.40445244168723
 20
410.25
 30
0.0
 11
657.40445244168723
 21
422.75
 31
0.0
  0
LINE
  5
4DD8
  8
2
 10
650.75745244168695
 20
422.75
 30
0.0
 11
650.75745244168695
 21
410.25
 31
0.0
  0
LINE
  5
4DD9
  8
2
 10
750.74254755831112
 20
410.25
 30
0.0
 11
750.74254755831112
 21
422.75
 31
0.0
  0
LINE
  5
4DDA
  8
2
 10
744.09554755831118
 20
422.75
 30
0.0
 11
744.09554755831118
 21
410.25
 31
0.0
  0
LINE
  5
5322
  8
0
 10
124.5
 20
236.3664022465224
 30
0.0
 11
124.5
 21
257.97906843320823
 31
0.0
  0
LINE
  5
5324
  8
0
 10
224.5
 20
257.97906843320823
 30
0.0
 11
224.5
 21
236.3664022465224
 31
0.0
  0
LINE
  5
5328
  8
0
 10
162.0
 20
261.43347297152752
 30
0.0
 11
162.0
 21
252.55848914816929
 31
0.0
  0
LINE
  5
5329
  8
0
 10
162.0
 20
252.55848914816929
 30
0.0
 11
130.65354544929249
 21
161.7928464937718
 31
0.0
  0
LINE
  5
532B
  8
0
 10
187.0
 20
261.43347297152752
 30
0.0
 11
187.0
 21
252.55848914816909
 31
0.0
  0
LINE
  5
532C
  8
0
 10
218.3464545507077
 20
161.7928464937718
 30
0.0
 11
187.0
 21
252.55848914816909
 31
0.0
  0
ARC
  5
53B2
  8
0
 10
164.0
 20
102.0
 30
0.0
 40
2.0000000000000142
 50
180.0
 51
270.0
  0
ARC
  5
53B3
  8
0
 10
185.0
 20
102.0
 30
0.0
 40
2.0000000000000142
 50
270.0
 51
0.0
  0
LINE
  5
53B4
  8
0
 10
187.0
 20
125.0
 30
0.0
 11
187.0
 21
102.0
 31
0.0
  0
LINE
  5
53B5
  8
0
 10
162.0
 20
102.0
 30
0.0
 11
162.0
 21
125.0
 31
0.0
  0
LINE
  5
53B6
  8
0
 10
170.5000000000102
 20
125.0
 30
0.0
 11
170.5000000000102
 21
128.3574600514267
 31
0.0
  0
LINE
  5
53B7
  8
0
 10
178.4999999999898
 20
128.3574600514267
 30
0.0
 11
178.49999999998951
 21
125.0
 31
0.0
  0
LINE
  5
53B8
  8
0
 10
185.0
 20
100.0
 30
0.0
 11
164.0
 21
100.0
 31
0.0
  0
LINE
  5
53BA
  8
0
 10
187.0
 20
125.0
 30
0.0
 11
162.0000000000002
 21
125.0
 31
0.0
  0
CIRCLE
  5
5446
  8
0
 10
174.5
 20
202.75
 30
0.0
 40
74.499999999999943
  0
CIRCLE
  5
5447
  8
0
 10
174.5
 20
202.75
 30
0.0
 40
60.25
  0
CIRCLE
  5
5448
  8
0
 10
174.5
 20
202.75
 30
0.0
 40
59.999999999999943
  0
LINE
  5
5449
  8
1
 10
174.5
 20
90.000000000000014
 30
0.0
 11
174.5
 21
287.25
 31
0.0
  0
LINE
  5
544A
  8
1
 10
90.0
 20
202.75
 30
0.0
 11
259.0
 21
202.75
 31
0.0
  0
CIRCLE
  5
5491
  8
3
 10
221.16904755831229
 20
643.91904755831195
 30
0.0
 40
4.0
  0
CIRCLE
  5
5492
  8
0
 10
221.16904755831229
 20
643.91904755831195
 30
0.0
 40
3.3235000000000001
  0
CIRCLE
  5
5493
  8
3
 10
127.8309524416879
 20
643.91904755831229
 30
0.0
 40
4.0
  0
CIRCLE
  5
5494
  8
0
 10
127.8309524416879
 20
643.91904755831229
 30
0.0
 40
3.3235000000000001
  0
CIRCLE
  5
5495
  8
3
 10
127.8309524416879
 20
550.58095244168794
 30
0.0
 40
4.0
  0
CIRCLE
  5
5496
  8
0
 10
127.8309524416879
 20
550.58095244168794
 30
0.0
 40
3.3235000000000001
  0
CIRCLE
  5
5497
  8
3
 10
221.16904755831229
 20
550.58095244168794
 30
0.0
 40
4.0
  0
CIRCLE
  5
5498
  8
0
 10
221.16904755831229
 20
550.58095244168794
 30
0.0
 40
3.3235000000000001
  0
LINE
  5
54A0
  8
1
 10
174.5
 20
710.0
 30
0.0
 11
174.5
 21
512.75
 31
0.0
  0
LINE
  5
54A1
  8
1
 10
259.0
 20
597.25
 30
0.0
 11
90.0
 21
597.25
 31
0.0
  0
CIRCLE
  5
54B9
  8
1
 10
174.5
 20
597.25
 30
0.0
 40
66.0
  0
LINE
  5
54C1
  8
1
 10
227.53300858899109
 20
650.28300858899092
 30
0.0
 11
214.80508652763339
 21
637.55508652763308
 31
0.0
  0
LINE
  5
54C2
  8
1
 10
227.53300858899109
 20
544.21699141100896
 30
0.0
 11
214.80508652763339
 21
556.94491347236681
 31
0.0
  0
LINE
  5
54C7
  8
1
 10
134.19491347236681
 20
637.55508652763342
 30
0.0
 11
121.466991411009
 21
650.28300858899115
 31
0.0
  0
LINE
  5
54C8
  8
1
 10
134.19491347236681
 20
556.94491347236681
 30
0.0
 11
121.466991411009
 21
544.21699141100896
 31
0.0
  0
LINE
  5
555F
  8
2
 10
217.16904755831229
 20
422.75
 30
0.0
 11
217.16904755831229
 21
410.24999999999989
 31
0.0
  0
LINE
  5
5560
  8
2
 10
225.16904755831229
 20
422.75
 30
0.0
 11
225.16904755831229
 21
410.24999999999989
 31
0.0
  0
LINE
  5
5568
  8
2
 10
124.5074524416877
 20
410.24999999999989
 30
0.0
 11
124.5074524416877
 21
422.75
 31
0.0
  0
LINE
  5
5569
  8
2
 10
131.15445244168771
 20
422.75
 30
0.0
 11
131.15445244168771
 21
410.24999999999989
 31
0.0
  0
LINE
  5
556A
  8
2
 10
131.83095244168771
 20
422.75
 30
0.0
 11
131.83095244168771
 21
410.24999999999989
 31
0.0
  0
LINE
  5
556B
  8
2
 10
123.8309524416877
 20
422.75
 30
0.0
 11
123.8309524416877
 21
410.24999999999989
 31
0.0
  0
LINE
  5
559B
  8
1
 10
221.16904755831229
 20
427.74999999999989
 30
0.0
 11
221.16904755831229
 21
405.24999999999989
 31
0.0
  0
LINE
  5
559C
  8
1
 10
127.8309524416879
 20
427.74999999999989
 30
0.0
 11
127.8309524416879
 21
405.24999999999989
 31
0.0
  0
LINE
  5
55A6
  8
1
 10
174.5
 20
432.74999999999989
 30
0.0
 11
174.5
 21
367.24999999999989
 31
0.0
  0
LINE
  5
55F6
  8
3
 10
177.90000000000009
 20
125.0
 30
0.0
 11
177.90000000000009
 21
128.32762433246299
 31
0.0
  0
LINE
  5
55F7
  8
3
 10
171.09999999999991
 20
128.32762433246299
 30
0.0
 11
171.10000000000011
 21
125.0
 31
0.0
  0
LINE
  5
5600
  8
3
 10
497.99999999999972
 20
393.14999999999998
 30
0.0
 11
501.24999999999932
 21
393.14999999999998
 31
0.0
  0
LINE
  5
5601
  8
3
 10
497.99999999999972
 20
386.35000000000002
 30
0.0
 11
501.24999999999932
 21
386.35000000000002
 31
0.0
  0
LINE
  5
560B
  8
1
 10
423.49999999999972
 20
432.74999999999989
 30
0.0
 11
423.49999999999972
 21
372.75
 31
0.0
  0
LINE
  5
560C
  8
1
 10
531.2499999999992
 20
389.74999999999989
 30
0.0
 11
492.99999999999972
 21
389.74999999999989
 31
0.0
  0
LINE
  5
5664
  8
2
 10
373.50745244168769
 20
422.75
 30
0.0
 11
373.50745244168769
 21
410.24999999999989
 31
0.0
  0
LINE
  5
5665
  8
2
 10
372.83095244168771
 20
422.75
 30
0.0
 11
372.83095244168771
 21
410.24999999999989
 31
0.0
  0
LINE
  5
5666
  8
2
 10
380.15445244168768
 20
422.75
 30
0.0
 11
380.15445244168768
 21
410.24999999999989
 31
0.0
  0
LINE
  5
5667
  8
2
 10
380.83095244168771
 20
422.75
 30
0.0
 11
380.83095244168771
 21
410.24999999999989
 31
0.0
  0
LINE
  5
566F
  8
2
 10
466.84554755831209
 20
422.75
 30
0.0
 11
466.84554755831209
 21
410.24999999999989
 31
0.0
  0
LINE
  5
5670
  8
2
 10
466.169047558312
 20
422.75
 30
0.0
 11
466.169047558312
 21
410.24999999999989
 31
0.0
  0
LINE
  5
5671
  8
2
 10
473.49254755831203
 20
422.75
 30
0.0
 11
473.49254755831203
 21
410.24999999999989
 31
0.0
  0
LINE
  5
5672
  8
2
 10
474.169047558312
 20
422.75
 30
0.0
 11
474.169047558312
 21
410.24999999999989
 31
0.0
  0
LINE
  5
5681
  8
1
 10
376.83095244168749
 20
427.74999999999989
 30
0.0
 11
376.83095244168749
 21
405.24999999999989
 31
0.0
  0
LINE
  5
5682
  8
1
 10
470.16904755831177
 20
427.74999999999989
 30
0.0
 11
470.16904755831177
 21
405.24999999999989
 31
0.0
  0
LINE
  5
56E8
  8
1
 10
700.74999999999932
 20
432.75
 30
0.0
 11
700.74999999999932
 21
367.25
 31
0.0
  0
LINE
  5
56F2
  8
1
 10
718.24999999999932
 20
389.75
 30
0.0
 11
683.24999999999932
 21
389.75
 31
0.0
  0
LINE
  5
573C
  8
1
 10
654.08095244168715
 20
427.75
 30
0.0
 11
654.08095244168715
 21
405.25
 31
0.0
  0
LINE
  5
573F
  8
1
 10
747.41904755831115
 20
427.75
 30
0.0
 11
747.41904755831115
 21
405.25
 31
0.0
  0
LINE
  5
5742
  8
2
 10
743.41904755831115
 20
422.75
 30
0.0
 11
743.41904755831115
 21
410.25
 31
0.0
  0
LINE
  5
5743
  8
2
 10
751.41904755831115
 20
422.75
 30
0.0
 11
751.41904755831115
 21
410.25
 31
0.0
  0
LINE
  5
5754
  8
2
 10
650.08095244168703
 20
422.75
 30
0.0
 11
650.08095244168703
 21
410.25
 31
0.0
  0
LINE
  5
5755
  8
2
 10
658.08095244168703
 20
422.75
 30
0.0
 11
658.08095244168703
 21
410.25
 31
0.0
  0
ENDSEC
  0
EOF
