  0
SECTION
  2
HEADER
  9
$ACADVER
  1
AC1009
  9
$INSBASE
 10
0.0
 20
0.0
 30
0.0
  9
$EXTMIN
 10
0.0
 20
-2.960436562073669
 30
0.0
  9
$EXTMAX
 10
278.99999664718018
 20
287.98989243805403
 30
0.0
  9
$LIMMIN
 10
0.0
 20
0.0
  9
$LIMMAX
 10
375.0
 20
270.0
  9
$ORTHOMODE
 70
     1
  9
$REGENMODE
 70
     1
  9
$FILLMODE
 70
     1
  9
$QTEXTMODE
 70
     0
  9
$MIRRTEXT
 70
     0
  9
$DRAGMODE
 70
     2
  9
$LTSCALE
 40
10.0
  9
$OSMODE
 70
    37
  9
$ATTMODE
 70
     1
  9
$TEXTSIZE
 40
0.2
  9
$TRACEWID
 40
0.05
  9
$TEXTSTYLE
  7
K90
  9
$CLAYER
  8
0
  9
$CELTYPE
  6
BYLAYER
  9
$CECOLOR
 62
   256
  9
$DIMSCALE
 40
1.0
  9
$DIMASZ
 40
3.0
  9
$DIMEXO
 40
2.0
  9
$DIMDLI
 40
0.38
  9
$DIMRND
 40
0.0
  9
$DIMDLE
 40
0.0
  9
$DIMEXE
 40
2.0
  9
$DIMTP
 40
0.0
  9
$DIMTM
 40
0.0
  9
$DIMTXT
 40
3.2000000000000002
  9
$DIMCEN
 40
0.0
  9
$DIMTSZ
 40
0.0
  9
$DIMTOL
 70
     0
  9
$DIMLIM
 70
     0
  9
$DIMTIH
 70
     0
  9
$DIMTOH
 70
     0
  9
$DIMSE1
 70
     0
  9
$DIMSE2
 70
     0
  9
$DIMTAD
 70
     1
  9
$DIMZIN
 70
     8
  9
$DIMBLK
  1

  9
$DIMASO
 70
     1
  9
$DIMSHO
 70
     0
  9
$DIMPOST
  1

  9
$DIMAPOST
  1

  9
$DIMALT
 70
     0
  9
$DIMALTD
 70
     2
  9
$DIMALTF
 40
25.399999999999999
  9
$DIMLFAC
 40
1.0
  9
$DIMTOFL
 70
     1
  9
$DIMTVP
 40
1.6000000000000001
  9
$DIMTIX
 70
     0
  9
$DIMSOXD
 70
     0
  9
$DIMSAH
 70
     0
  9
$DIMBLK1
  1

  9
$DIMBLK2
  1

  9
$DIMSTYLE
  2
STANDARD
  9
$DIMCLRD
 70
     0
  9
$DIMCLRE
 70
     0
  9
$DIMCLRT
 70
     0
  9
$DIMTFAC
 40
1.0
  9
$DIMGAP
 40
0.09
  9
$LUNITS
 70
     2
  9
$LUPREC
 70
     1
  9
$SKETCHINC
 40
0.1
  9
$FILLETRAD
 40
0.0
  9
$AUNITS
 70
     0
  9
$AUPREC
 70
     0
  9
$MENU
  1
E:\r13\win\SUPPORT\ACAD
  9
$ELEVATION
 40
0.0
  9
$PELEVATION
 40
0.0
  9
$THICKNESS
 40
0.0
  9
$LIMCHECK
 70
     0
  9
$BLIPMODE
 70
     0
  9
$CHAMFERA
 40
0.0
  9
$CHAMFERB
 40
0.0
  9
$SKPOLY
 70
     0
  9
$TDCREATE
 40
2449840.60318287
  9
$TDUPDATE
 40
2459657.6534853471
  9
$TDINDWG
 40
0.810124537
  9
$TDUSRTIMER
 40
0.810124537
  9
$USRTIMER
 70
     1
  9
$ANGBASE
 50
0.0
  9
$ANGDIR
 70
     0
  9
$PDMODE
 70
     0
  9
$PDSIZE
 40
0.0
  9
$PLINEWID
 40
0.0
  9
$COORDS
 70
     1
  9
$SPLFRAME
 70
     0
  9
$SPLINETYPE
 70
     6
  9
$SPLINESEGS
 70
     8
  9
$ATTDIA
 70
     0
  9
$ATTREQ
 70
     1
  9
$HANDLING
 70
     1
  9
$HANDSEED
  5
BF9D
  9
$SURFTAB1
 70
     6
  9
$SURFTAB2
 70
     6
  9
$SURFTYPE
 70
     6
  9
$SURFU
 70
     6
  9
$SURFV
 70
     6
  9
$UCSNAME
  2

  9
$UCSORG
 10
0.0
 20
0.0
 30
0.0
  9
$UCSXDIR
 10
1.0
 20
0.0
 30
0.0
  9
$UCSYDIR
 10
0.0
 20
1.0
 30
0.0
  9
$PUCSNAME
  2

  9
$PUCSORG
 10
0.0
 20
0.0
 30
0.0
  9
$PUCSXDIR
 10
1.0
 20
0.0
 30
0.0
  9
$PUCSYDIR
 10
0.0
 20
1.0
 30
0.0
  9
$USERI1
 70
     0
  9
$USERI2
 70
     1
  9
$USERI3
 70
     1
  9
$USERI4
 70
     0
  9
$USERI5
 70
     0
  9
$USERR1
 40
0.0
  9
$USERR2
 40
0.0
  9
$USERR3
 40
0.0
  9
$USERR4
 40
0.0
  9
$USERR5
 40
0.0
  9
$WORLDVIEW
 70
     1
  9
$SHADEDGE
 70
     3
  9
$SHADEDIF
 70
    70
  9
$TILEMODE
 70
     1
  9
$MAXACTVP
 70
    16
  9
$PLIMCHECK
 70
     0
  9
$PEXTMIN
 10
1.0000000000000000E+020
 20
1.0000000000000000E+020
 30
1.0000000000000000E+020
  9
$PEXTMAX
 10
-1.0000000000000000E+020
 20
-1.0000000000000000E+020
 30
-1.0000000000000000E+020
  9
$PLIMMIN
 10
0.0
 20
0.0
  9
$PLIMMAX
 10
12.0
 20
9.0
  9
$UNITMODE
 70
     0
  9
$VISRETAIN
 70
     0
  9
$PLINEGEN
 70
     0
  9
$PSLTSCALE
 70
     0
  0
ENDSEC
  0
SECTION
  2
TABLES
  0
TABLE
  2
VPORT
 70
     1
  0
VPORT
  2
*ACTIVE
 70
     0
 10
0.0
 20
0.0
 11
1.0
 21
1.0
 12
362.23203026481713
 22
150.0
 13
0.0
 23
0.0
 14
10.0
 24
10.0
 15
10.0
 25
10.0
 16
0.0
 26
0.0
 36
1.0
 17
0.0
 27
0.0
 37
0.0
 40
300.0
 41
2.4148802017654472
 42
50.0
 43
0.0
 44
0.0
 50
0.0
 51
0.0
 71
     0
 72
   500
 73
     1
 74
     0
 75
     0
 76
     0
 77
     0
 78
     0
  0
ENDTAB
  0
TABLE
  2
LTYPE
 70
     4
  0
LTYPE
  2
CONTINUOUS
 70
     0
  3
Solid Line
 72
    65
 73
     0
 40
0.0
  0
LTYPE
  2
CENTER
 70
     0
  3
____ _ ____ _ ____ _ ____ _ ____ _ ____ _ ____
 72
    65
 73
     4
 40
2.0
 49
1.25
 49
-0.25
 49
0.25
 49
-0.25
  0
LTYPE
  2
HIDDEN
 70
     0
  3
_ _ _ _ _ _ _ _ _ _ _ _ _ _ _ _ _ _ _ _ _ _ _
 72
    65
 73
     2
 40
0.375
 49
0.25
 49
-0.125
  0
LTYPE
  2
PHANTOM2
 70
     0
  3
___ _ _ ___ _ _ ___ _ _ ___ _ _
 72
    65
 73
     6
 40
1.25
 49
0.625
 49
-0.125
 49
0.125
 49
-0.125
 49
0.125
 49
-0.125
  0
ENDTAB
  0
TABLE
  2
LAYER
 70
     5
  0
LAYER
  2
0
 70
     0
 62
     7
  6
CONTINUOUS
  0
LAYER
  2
1
 70
     0
 62
     1
  6
CENTER
  0
LAYER
  2
2
 70
     0
 62
     2
  6
HIDDEN
  0
LAYER
  2
DEFPOINTS
 70
     0
 62
     7
  6
CONTINUOUS
  0
LAYER
  2
3
 70
     0
 62
     3
  6
CONTINUOUS
  0
ENDTAB
  0
TABLE
  2
STYLE
 70
     3
  0
STYLE
  2
STANDARD
 70
     0
 40
0.0
 41
1.0
 50
0.0
 71
     0
 42
0.2
  3
romans.shx
  4

  0
STYLE
  2
K90
 70
     0
 40
0.0
 41
1.0
 50
0.0
 71
     0
 42
0.2
  3
romans.shx
  4

  0
STYLE
  2
STANDARD1
 70
     0
 40
0.0
 41
1.0
 50
0.0
 71
     0
 42
3.0
  3
txt
  4

  0
ENDTAB
  0
TABLE
  2
VIEW
 70
     1
  0
VIEW
  2
ALL
 70
     0
 40
179.5384664489153
 10
135.0
 20
89.769233224457665
 41
0.0
 11
0.0
 21
0.0
 31
1.0
 12
0.0
 22
0.0
 32
0.0
 42
0.0
 43
0.0
 44
0.0
 50
0.0
 71
     0
  0
ENDTAB
  0
TABLE
  2
UCS
 70
     0
  0
ENDTAB
  0
TABLE
  2
APPID
 70
     8
  0
APPID
  2
ACAD
 70
     0
  0
APPID
  2
ACAD_MLEADERVER
 70
     0
  0
APPID
  2
ACAD_NAV_VCDISPLAY
 70
     0
  0
APPID
  2
ACAD_EXEMPT_FROM_CAD_STANDARDS
 70
     0
  0
APPID
  2
ACAD_DSTYLE_DIMRADIAL_EXTENSION
 70
     0
  0
APPID
  2
ACAD_DSTYLE_DIMJAG
 70
     0
  0
APPID
  2
ACAD_DSTYLE_DIMTALN
 70
     0
  0
APPID
  2
ACAD_PSEXT
 70
     0
  0
ENDTAB
  0
TABLE
  2
DIMSTYLE
 70
     1
  0
DIMSTYLE
  2
STANDARD
 70
     0
  3

  4

  5

  6

  7

 40
1.0
 41
0.18
 42
0.0625
 43
0.38
 44
0.18
 45
0.0
 46
0.0
 47
0.0
 48
0.0
140
0.18
141
0.09
142
0.0
143
25.399999999999999
144
1.0
145
0.0
146
1.0
147
0.09
 71
     0
 72
     0
 73
     1
 74
     1
 75
     0
 76
     0
 77
     0
 78
     0
170
     0
171
     2
172
     0
173
     0
174
     0
175
     0
176
     0
177
     0
178
     0
  0
ENDTAB
  0
ENDSEC
  0
SECTION
  2
BLOCKS
  0
BLOCK
  8
0
  2
$MODEL_SPACE
 70
     0
 10
0.0
 20
0.0
 30
0.0
  3
$MODEL_SPACE
  1

  0
ENDBLK
  5
2DF
  8
0
  0
BLOCK
 67
     1
  8
0
  2
$PAPER_SPACE
 70
     0
 10
0.0
 20
0.0
 30
0.0
  3
$PAPER_SPACE
  1

  0
ENDBLK
  5
2DB
 67
     1
  8
0
  0
ENDSEC
  0
SECTION
  2
ENTITIES
  0
TEXT
  5
67C
  8
0
 62
     3
 10
0.0
 20
0.0
 30
0.0
 40
10.0
  1
SSR-EF2111
  7
STANDARD1
  0
LINE
  5
7829
  8
1
 10
256.99999715387793
 20
196.98989517986769
 30
0.0
 11
256.9999971538781
 21
135.99999725818631
 31
0.0
  0
LINE
  5
7832
  8
1
 10
239.99999715387821
 20
169.74999816380239
 30
0.0
 11
239.99999715387781
 21
162.2499981638025
 31
0.0
  0
LINE
  5
7833
  8
1
 10
236.24999664724859
 20
165.99999849498261
 30
0.0
 11
243.74999664724859
 21
165.99999849498261
 31
0.0
  0
LINE
  5
8561
  8
0
 10
238.49999640882001
 20
165.62999807298181
 30
0.0
 11
238.49999640882001
 21
166.3699981197714
 31
0.0
  0
CIRCLE
  5
8562
  8
0
 10
239.99999664724859
 20
165.9999981638025
 30
0.0
 40
2.7499999999999711
  0
LINE
  5
8565
  8
0
 10
239.629996165633
 20
167.4999983422457
 30
0.0
 11
240.36999714374531
 21
167.4999983422457
 31
0.0
  0
LINE
  5
856B
  8
0
 10
239.629996165633
 20
164.4999983161687
 30
0.0
 11
240.36999714374531
 21
164.4999983161687
 31
0.0
  0
LINE
  5
856F
  8
0
 10
241.4999969005583
 20
165.62999807298181
 30
0.0
 11
241.4999969005583
 21
166.3699981197714
 31
0.0
  0
LINE
  5
857B
  8
0
 10
238.49999640882001
 20
166.36999811977151
 30
0.0
 11
239.58498348295669
 21
166.3699981197714
 31
0.0
  0
LINE
  5
857C
  8
0
 10
239.629996165633
 20
166.415011268109
 30
0.0
 11
239.6299961656328
 21
167.4999983422457
 31
0.0
  0
ARC
  5
857D
  8
0
 10
239.99999664724859
 20
165.9999981638025
 30
0.0
 40
0.5560000000034379
 50
131.71821038138989
 51
138.2817896186346
  0
ARC
  5
857E
  8
0
 10
239.99999664724859
 20
165.9999981638025
 30
0.0
 40
0.5560000000035438
 50
311.71821038137159
 51
318.2817896186346
  0
LINE
  5
857F
  8
0
 10
240.4150098264216
 20
165.62999807298181
 30
0.0
 11
241.4999969005585
 21
165.62999807298181
 31
0.0
  0
LINE
  5
8580
  8
0
 10
240.369997143745
 20
164.4999983161687
 30
0.0
 11
240.36999714374531
 21
165.5849849246442
 31
0.0
  0
ARC
  5
8581
  8
0
 10
239.99999664724859
 20
165.9999981638025
 30
0.0
 40
0.5560000000035014
 50
221.7182103813652
 51
228.2817896186283
  0
LINE
  5
8582
  8
0
 10
239.6299961656328
 20
164.4999983161687
 30
0.0
 11
239.629996165633
 21
165.5849849246442
 31
0.0
  0
LINE
  5
8583
  8
0
 10
238.49999640882001
 20
165.62999807298181
 30
0.0
 11
239.58498348295669
 21
165.62999807298181
 31
0.0
  0
ARC
  5
8584
  8
0
 10
239.99999664724859
 20
165.9999981638025
 30
0.0
 40
0.5560000000034613
 50
41.718210381365331
 51
48.281789618628338
  0
LINE
  5
8585
  8
0
 10
240.4150098264216
 20
166.3699981197714
 30
0.0
 11
241.4999969005585
 21
166.36999811977151
 31
0.0
  0
LINE
  5
8586
  8
0
 10
240.36999714374531
 20
166.415011268109
 30
0.0
 11
240.369997143745
 21
167.4999983422457
 31
0.0
  0
CIRCLE
  5
85C8
  8
0
 10
256.99999664723862
 20
171.9898944236858
 30
0.0
 40
4.3379142453487978
  0
ARC
  5
85C9
  8
0
 10
256.91635202896572
 20
134.6996301348623
 30
0.0
 40
37.746781402946269
 50
91.131090219330233
 51
92.958666701214156
  0
ARC
  5
85CA
  8
0
 10
264.74382195386931
 20
171.98989442273151
 30
0.0
 40
9.7842255930558881
 50
177.62062525380509
 51
182.3793747461948
  0
ARC
  5
85CB
  8
0
 10
256.9163498763686
 20
209.28010800982179
 30
0.0
 40
37.746730658642349
 50
267.04133258959757
 51
268.86891152796591
  0
ARC
  5
85CC
  8
0
 10
256.1623462133872
 20
171.1522439893059
 30
0.0
 40
0.3885899736207726
 50
1.310255427035806
 51
88.689741827445346
  0
ARC
  5
85CD
  8
0
 10
294.29015468787242
 20
171.9062460865735
 30
0.0
 40
37.746675092469488
 50
181.13108778850159
 51
182.9586693297305
  0
ARC
  5
85CE
  8
0
 10
256.99999664723862
 20
179.73367410470669
 30
0.0
 40
9.7841799673001564
 50
267.62061421585361
 51
272.37938578414639
  0
ARC
  5
85CF
  8
0
 10
219.70983860660479
 20
171.9062460865735
 30
0.0
 40
37.746675092469488
 50
357.04133067026947
 51
358.8689122114983
  0
ARC
  5
85D0
  8
0
 10
257.83764710940193
 20
171.15224396099421
 30
0.0
 40
0.3885900025724411
 50
91.310262250423918
 51
178.68974049508191
  0
ARC
  5
85D1
  8
0
 10
257.08364341810892
 20
209.28010800982179
 30
0.0
 40
37.746730658642349
 50
271.13108847203409
 51
272.95866741040243
  0
ARC
  5
85D2
  8
0
 10
249.25617134060809
 20
171.98989442273151
 30
0.0
 40
9.7842255930559467
 50
357.62062525380509
 51
2.3793747461948449
  0
ARC
  5
85D3
  8
0
 10
257.08364126551157
 20
134.6996301348623
 30
0.0
 40
37.746781402946297
 50
87.041333298798889
 51
88.868909780669767
  0
ARC
  5
85D4
  8
0
 10
257.83764705208171
 20
172.8275448391698
 30
0.0
 40
0.3885899450633397
 50
181.31025838338249
 51
268.68974600943199
  0
ARC
  5
85D5
  8
0
 10
219.7098271344226
 20
172.07354250140421
 30
0.0
 40
37.746686566781086
 50
1.1310877803187109
 51
2.9586689425567019
  0
ARC
  5
85D6
  8
0
 10
256.99999664723862
 20
164.24606979859479
 30
0.0
 40
9.7842249506808088
 50
87.620625161464403
 51
92.379374838535597
  0
ARC
  5
85D7
  8
0
 10
294.29016616005481
 20
172.07354250140421
 30
0.0
 40
37.746686566781072
 50
177.0413310574433
 51
178.86891221968131
  0
ARC
  5
85D8
  8
0
 10
256.16234625481081
 20
172.8275448267546
 30
0.0
 40
0.3885899323675143
 50
271.31025220235563
 51
358.68974340481691
  0
CIRCLE
  5
85F1
  8
0
 10
256.99999664723862
 20
171.9898944236858
 30
0.0
 40
4.9999999999999707
  0
LINE
  5
8632
  8
0
 10
236.2572151869534
 20
163.89710897579781
 30
0.0
 11
239.74277746677379
 21
162.50288415700189
 31
0.0
  0
LINE
  5
8634
  8
0
 10
274.25721582770342
 20
162.50288415700189
 30
0.0
 11
277.7427781075238
 21
163.89710897579781
 31
0.0
  0
LINE
  5
8641
  8
0
 10
276.74277794361097
 20
147.50288449227801
 30
0.0
 11
274.25721582770342
 21
148.49710859358299
 31
0.0
  0
LINE
  5
8643
  8
0
 10
237.9999972581862
 20
140.99999725818631
 30
0.0
 11
275.99999603629101
 21
140.99999725818631
 31
0.0
  0
ARC
  5
8648
  8
0
 10
275.99999664723322
 20
145.64593055228349
 30
0.0
 40
1.999999999996219
 50
359.99999999990882
 51
68.198590513153192
  0
LINE
  5
864F
  8
0
 10
239.74277746677379
 20
148.49710859358299
 30
0.0
 11
237.2572153508662
 21
147.50288449227801
 31
0.0
  0
ARC
  5
8650
  8
0
 10
237.99999664724879
 20
145.64593055228019
 30
0.0
 40
1.9999999999999709
 50
111.80140948628561
 51
180.0
  0
ARC
  5
8652
  8
0
 10
274.99999664723271
 20
160.64593055232561
 30
0.0
 40
1.999999999976745
 50
111.8014094862436
 51
180.00000000130271
  0
LINE
  5
8654
  8
0
 10
272.99999740719778
 20
150.3540614992379
 30
0.0
 11
272.99999740719778
 21
160.64593032002441
 31
0.0
  0
ARC
  5
8656
  8
0
 10
275.99999664722839
 20
142.9999964751344
 30
0.0
 40
2.0
 50
270.0
 51
0.0
  0
LINE
  5
8658
  8
0
 10
277.99999636411661
 20
145.64592972397801
 30
0.0
 11
277.99999636411661
 21
142.99999572336671
 31
0.0
  0
LINE
  5
865B
  8
0
 10
278.99999652802933
 20
165.754062347114
 30
0.0
 11
278.99999652802933
 21
183.04355744272459
 31
0.0
  0
LINE
  5
865D
  8
0
 10
240.9999958872794
 20
160.64593032002441
 30
0.0
 11
240.9999958872794
 21
150.3540614992379
 31
0.0
  0
ARC
  5
865F
  8
0
 10
276.99999664717041
 20
165.7540623979647
 30
0.0
 40
2.0000000000097731
 50
291.80140948587859
 51
0.0
  0
ARC
  5
8660
  8
0
 10
238.99999664725041
 20
160.64593055226709
 30
0.0
 40
2.000000000005878
 50
0.0
 51
68.198590513644263
  0
ARC
  5
8663
  8
0
 10
236.9999966473068
 20
165.7540623979647
 30
0.0
 40
1.9999999999998861
 50
180.0000000003256
 51
248.1985905143037
  0
LINE
  5
8666
  8
0
 10
234.99999676644791
 20
183.04355744272459
 30
0.0
 11
234.99999676644791
 21
165.754062347114
 31
0.0
  0
ARC
  5
8667
  8
0
 10
274.99999664722748
 20
150.35406239803299
 30
0.0
 40
2.00000000001552
 50
180.0
 51
248.1985905129707
  0
ARC
  5
866A
  8
0
 10
237.99999664724879
 20
142.9999964751344
 30
0.0
 40
2.0
 50
180.0
 51
270.0
  0
LINE
  5
866B
  8
0
 10
235.9999969303606
 20
142.99999572336671
 30
0.0
 11
235.9999969303606
 21
145.64592972397801
 31
0.0
  0
ARC
  5
866E
  8
0
 10
238.9999966472661
 20
150.35406239796831
 30
0.0
 40
1.9999999999805651
 50
291.80140948621539
 51
0.0000000001823857
  0
LINE
  5
8673
  8
0
 10
278.99999652802933
 20
183.04355744272459
 30
0.0
 11
275.09549555182451
 21
191.98989517986769
 31
0.0
  0
LINE
  5
8675
  8
0
 10
275.09549555182451
 20
191.98989517986769
 30
0.0
 11
238.90449774265269
 21
191.98989517986769
 31
0.0
  0
LINE
  5
8676
  8
0
 10
238.90449774265269
 20
191.98989517986769
 30
0.0
 11
234.99999676644791
 21
183.04355744272459
 31
0.0
  0
ARC
  5
9A39
  8
0
 10
256.99999664723862
 20
152.0999964751343
 30
0.0
 40
2.8150000000000248
 50
80.340762928909484
 51
99.700893216242449
  0
ARC
  5
9B45
  8
0
 10
256.99999664723862
 20
152.0999964751343
 30
0.0
 40
6.0000000000030989
 50
83.556464309175496
 51
96.443535694259424
  0
POLYLINE
  5
9B46
  8
0
 66
     1
 10
0.0
 20
0.0
 30
0.0
 70
   128
  0
VERTEX
  5
BE13
  8
0
 10
261.82665272429568
 20
155.66417783498761
 30
0.0
  0
VERTEX
  5
BE14
  8
0
 10
259.76242094114411
 20
156.8559633940458
 30
0.0
  0
VERTEX
  5
BE15
  8
0
 10
257.67334065679449
 20
158.06209411472079
 30
0.0
  0
SEQEND
  5
BE16
  8
0
  0
ARC
  5
9B47
  8
0
 10
256.99999664723862
 20
152.0999964751343
 30
0.0
 40
6.0000000000140936
 50
23.556464309117931
 51
36.44353569425445
  0
LINE
  5
9B48
  8
0
 10
262.4999966174363
 20
149.70207981765259
 30
0.0
 11
262.4999966174363
 21
154.49791237711901
 31
0.0
  0
ARC
  5
9B49
  8
0
 10
256.99999664723862
 20
152.0999964751343
 30
0.0
 40
5.9999999999449134
 50
323.55646430789318
 51
336.4435356947522
  0
POLYLINE
  5
9B4A
  8
0
 66
     1
 10
0.0
 20
0.0
 30
0.0
 70
   128
  0
VERTEX
  5
BE17
  8
0
 10
257.67334065679449
 20
146.13789901137349
 30
0.0
  0
VERTEX
  5
BE18
  8
0
 10
259.7375723235308
 20
147.3296827077865
 30
0.0
  0
VERTEX
  5
BE19
  8
0
 10
261.82665272429568
 20
148.5358143597841
 30
0.0
  0
SEQEND
  5
BE1A
  8
0
  0
ARC
  5
9B4B
  8
0
 10
256.99999664723862
 20
152.0999964751343
 30
0.0
 40
6.0000000000030989
 50
263.5564643091754
 51
276.44353569425942
  0
POLYLINE
  5
9B4C
  8
0
 66
     1
 10
0.0
 20
0.0
 30
0.0
 70
   128
  0
VERTEX
  5
BE1B
  8
0
 10
252.17334057018149
 20
148.5358143597841
 30
0.0
  0
VERTEX
  5
BE1C
  8
0
 10
254.23757235333309
 20
147.344030663371
 30
0.0
  0
VERTEX
  5
BE1D
  8
0
 10
256.32665263768268
 20
146.13789901137349
 30
0.0
  0
SEQEND
  5
BE1E
  8
0
  0
ARC
  5
9B4D
  8
0
 10
256.99999664723862
 20
152.0999964751343
 30
0.0
 40
5.9999999999482476
 50
203.5564643071834
 51
216.44353569425439
  0
LINE
  5
9B4E
  8
0
 10
251.49999667704091
 20
154.49791237711901
 30
0.0
 11
251.49999667704091
 21
149.70207981765259
 31
0.0
  0
ARC
  5
9B4F
  8
0
 10
256.99999664723862
 20
152.0999964751343
 30
0.0
 40
6.0000000000030589
 50
143.55646430916849
 51
156.4435356942671
  0
POLYLINE
  5
9B50
  8
0
 66
     1
 10
0.0
 20
0.0
 30
0.0
 70
   128
  0
VERTEX
  5
BE1F
  8
0
 10
256.32665263768268
 20
158.06209411472079
 30
0.0
  0
VERTEX
  5
BE20
  8
0
 10
254.26242097094641
 20
156.87030948698509
 30
0.0
  0
VERTEX
  5
BE21
  8
0
 10
252.17334057018149
 20
155.66417783498761
 30
0.0
  0
SEQEND
  5
BE22
  8
0
  0
CIRCLE
  5
9B51
  8
0
 10
256.99999664723862
 20
152.0999964751343
 30
0.0
 40
4.4499999999999309
  0
LINE
  5
9B56
  8
0
 10
256.66805884614581
 20
152.74099655449379
 30
0.0
 11
256.66805884614581
 21
152.90099591016761
 31
0.0
  0
LINE
  5
9B57
  8
0
 10
256.66805884614581
 20
152.90099591016761
 30
0.0
 11
257.16405885398842
 21
152.90099591016761
 31
0.0
  0
LINE
  5
9B58
  8
0
 10
257.16405885398842
 20
152.90099591016761
 30
0.0
 11
257.16405885398842
 21
153.1409958750009
 31
0.0
  0
LINE
  5
9B59
  8
0
 10
256.86805885564519
 20
153.1409958750009
 30
0.0
 11
256.86805885564519
 21
153.30099709331981
 31
0.0
  0
LINE
  5
9B5A
  8
0
 10
257.3240588644984
 20
153.30099709331981
 30
0.0
 11
257.3240588644984
 21
152.74099655449379
 31
0.0
  0
LINE
  5
9B5B
  8
0
 10
257.3240588644984
 20
152.74099655449379
 30
0.0
 11
256.66805884614581
 21
152.74099655449379
 31
0.0
  0
LINE
  5
9B5C
  8
0
 10
256.86805885564519
 20
153.30099709331981
 30
0.0
 11
257.3240588644984
 21
153.30099709331981
 31
0.0
  0
LINE
  5
9B5D
  8
0
 10
257.16405885398842
 20
153.1409958750009
 30
0.0
 11
256.86805885564519
 21
153.1409958750009
 31
0.0
  0
LINE
  5
9B5E
  8
0
 10
257.12405885499891
 20
153.10099557042119
 30
0.0
 11
257.12405885499891
 21
152.9409962147474
 31
0.0
  0
LINE
  5
9B5F
  8
0
 10
257.12405885499891
 20
152.9409962147474
 30
0.0
 11
256.66805884614581
 21
152.9409962147474
 31
0.0
  0
LINE
  5
9B60
  8
0
 10
256.66805884614581
 20
152.9409962147474
 30
0.0
 11
256.66805884614581
 21
153.5409970581531
 31
0.0
  0
LINE
  5
9B61
  8
0
 10
256.66805884614581
 20
153.5409970581531
 30
0.0
 11
256.82805885665567
 21
153.5409970581531
 31
0.0
  0
LINE
  5
9B62
  8
0
 10
256.82805885665567
 20
153.10099557042119
 30
0.0
 11
257.12405885499891
 21
153.10099557042119
 31
0.0
  0
LINE
  5
9B63
  8
0
 10
256.82805885665567
 20
153.5409970581531
 30
0.0
 11
256.82805885665567
 21
153.10099557042119
 31
0.0
  0
ARC
  5
9B64
  8
0
 10
256.99999664723862
 20
152.0999964751343
 30
0.0
 40
2.8249999999999811
 50
100.5728895899326
 51
79.427110410054112
  0
LINE
  5
9B6D
  8
0
 10
256.59999665734352
 20
154.77873221039769
 30
0.0
 11
256.59999665734352
 21
154.5999965071677
 31
0.0
  0
LINE
  5
9B6E
  8
0
 10
257.39999663713382
 20
154.5999965071677
 30
0.0
 11
257.39999663713382
 21
154.77873221039769
 31
0.0
  0
ARC
  5
9B6F
  8
0
 10
256.49999664723862
 20
154.77873218438239
 30
0.0
 40
0.1000000000000796
 50
0.0
 51
100.5728895897868
  0
ARC
  5
9B70
  8
0
 10
257.49999664723862
 20
154.77873218438219
 30
0.0
 40
0.1000000000000688
 50
79.427110409789066
 51
179.99999999996089
  0
ARC
  5
9B71
  8
0
 10
256.99999664723862
 20
154.5999964751343
 30
0.0
 40
0.4000000000000341
 50
180.0
 51
0.0
  0
CIRCLE
  5
9B72
  8
0
 10
257.89999664723871
 20
153.7499964751344
 30
0.0
 40
0.3499999999283432
  0
CIRCLE
  5
9B73
  8
0
 10
256.09999664723881
 20
153.7499964751344
 30
0.0
 40
0.3499999999269789
  0
CIRCLE
  5
9B74
  8
0
 10
256.99999664723862
 20
150.2499964751344
 30
0.0
 40
0.3499999999844476
  0
CIRCLE
  5
9B75
  8
0
 10
258.44999664723872
 20
150.89999647513429
 30
0.0
 40
0.3500000000440764
  0
CIRCLE
  5
9B76
  8
0
 10
255.14999664723871
 20
152.4499964751345
 30
0.0
 40
0.350000000017701
  0
CIRCLE
  5
9B77
  8
0
 10
258.84999664723853
 20
152.4499964751345
 30
0.0
 40
0.3500000000364594
  0
CIRCLE
  5
9B78
  8
0
 10
255.5499966472388
 20
150.89999647513429
 30
0.0
 40
0.3499999999959868
  0
CIRCLE
  5
9B79
  8
0
 10
256.99999664723862
 20
152.0999964751343
 30
0.0
 40
0.3500000000270802
  0
LINE
  5
9B7A
  8
0
 10
261.49999645352352
 20
149.9205476045608
 30
0.0
 11
261.49999645352352
 21
154.27944645285601
 31
0.0
  0
LINE
  5
9B7C
  8
0
 10
252.49999684095371
 20
154.27944645285601
 30
0.0
 11
252.49999684095371
 21
149.9205476045608
 31
0.0
  0
LINE
  5
ACEA
  8
1
 10
273.9999971538785
 20
169.7499978326222
 30
0.0
 11
273.9999971538781
 21
162.24999783262231
 31
0.0
  0
LINE
  5
ACEB
  8
1
 10
270.24999664724891
 20
165.9999981638025
 30
0.0
 11
277.74999664724879
 21
165.9999981638025
 31
0.0
  0
LINE
  5
ACEC
  8
0
 10
272.49999640882021
 20
165.62999774180159
 30
0.0
 11
272.49999640882021
 21
166.36999778859121
 31
0.0
  0
CIRCLE
  5
ACED
  8
0
 10
273.99999664724879
 20
165.99999783262231
 30
0.0
 40
2.7499999999999711
  0
LINE
  5
ACEE
  8
0
 10
273.62999616563332
 20
167.4999980110656
 30
0.0
 11
274.36999714374548
 21
167.4999980110656
 31
0.0
  0
LINE
  5
ACEF
  8
0
 10
273.62999616563332
 20
164.49999798498851
 30
0.0
 11
274.36999714374548
 21
164.49999798498851
 31
0.0
  0
LINE
  5
ACF0
  8
0
 10
275.49999690055859
 20
165.62999774180159
 30
0.0
 11
275.49999690055859
 21
166.36999778859121
 31
0.0
  0
LINE
  5
ACF1
  8
0
 10
272.49999640882021
 20
166.36999778859129
 30
0.0
 11
273.584983482957
 21
166.36999778859121
 31
0.0
  0
LINE
  5
ACF2
  8
0
 10
273.62999616563332
 20
166.41501093692881
 30
0.0
 11
273.62999616563309
 21
167.4999980110656
 31
0.0
  0
ARC
  5
ACF3
  8
0
 10
273.99999664724879
 20
165.99999783262231
 30
0.0
 40
0.5560000000034379
 50
131.71821038138989
 51
138.2817896186346
  0
ARC
  5
ACF4
  8
0
 10
273.99999664724879
 20
165.99999783262231
 30
0.0
 40
0.5560000000035438
 50
311.71821038137159
 51
318.2817896186346
  0
LINE
  5
ACF5
  8
0
 10
274.41500982642179
 20
165.62999774180159
 30
0.0
 11
275.49999690055881
 21
165.62999774180159
 31
0.0
  0
LINE
  5
ACF6
  8
0
 10
274.36999714374531
 20
164.49999798498851
 30
0.0
 11
274.36999714374548
 21
165.58498459346399
 31
0.0
  0
ARC
  5
ACF7
  8
0
 10
273.99999664724879
 20
165.99999783262231
 30
0.0
 40
0.5560000000035014
 50
221.7182103813652
 51
228.2817896186283
  0
LINE
  5
ACF8
  8
0
 10
273.62999616563309
 20
164.49999798498851
 30
0.0
 11
273.62999616563332
 21
165.58498459346399
 31
0.0
  0
LINE
  5
ACF9
  8
0
 10
272.49999640882021
 20
165.62999774180159
 30
0.0
 11
273.584983482957
 21
165.62999774180159
 31
0.0
  0
ARC
  5
ACFA
  8
0
 10
273.99999664724879
 20
165.99999783262231
 30
0.0
 40
0.5560000000034613
 50
41.718210381365253
 51
48.281789618628338
  0
LINE
  5
ACFB
  8
0
 10
274.41500982642179
 20
166.36999778859121
 30
0.0
 11
275.49999690055881
 21
166.36999778859129
 31
0.0
  0
LINE
  5
ACFC
  8
0
 10
274.36999714374548
 20
166.41501093692881
 30
0.0
 11
274.36999714374531
 21
167.4999980110656
 31
0.0
  0
LINE
  5
ACFD
  8
1
 10
273.9999971538785
 20
148.74999816380131
 30
0.0
 11
273.9999971538781
 21
141.24999816380139
 31
0.0
  0
LINE
  5
ACFE
  8
1
 10
270.24999664724891
 20
144.9999984949815
 30
0.0
 11
277.74999664724879
 21
144.9999984949815
 31
0.0
  0
LINE
  5
ACFF
  8
0
 10
272.49999640882021
 20
144.6299980729807
 30
0.0
 11
272.49999640882021
 21
145.3699981197704
 31
0.0
  0
CIRCLE
  5
AD00
  8
0
 10
273.99999664724879
 20
144.99999816380139
 30
0.0
 40
2.7499999999999711
  0
LINE
  5
AD01
  8
0
 10
273.62999616563332
 20
146.49999834224471
 30
0.0
 11
274.36999714374548
 21
146.49999834224471
 31
0.0
  0
LINE
  5
AD02
  8
0
 10
273.62999616563332
 20
143.49999831616771
 30
0.0
 11
274.36999714374548
 21
143.49999831616771
 31
0.0
  0
LINE
  5
AD03
  8
0
 10
275.49999690055859
 20
144.6299980729807
 30
0.0
 11
275.49999690055859
 21
145.3699981197704
 31
0.0
  0
LINE
  5
AD04
  8
0
 10
272.49999640882021
 20
145.3699981197704
 30
0.0
 11
273.584983482957
 21
145.3699981197704
 31
0.0
  0
LINE
  5
AD05
  8
0
 10
273.62999616563332
 20
145.415011268108
 30
0.0
 11
273.62999616563309
 21
146.49999834224471
 31
0.0
  0
ARC
  5
AD06
  8
0
 10
273.99999664724879
 20
144.99999816380139
 30
0.0
 40
0.5560000000034379
 50
131.71821038138989
 51
138.2817896186346
  0
ARC
  5
AD07
  8
0
 10
273.99999664724879
 20
144.99999816380139
 30
0.0
 40
0.5560000000035438
 50
311.71821038137159
 51
318.2817896186346
  0
LINE
  5
AD08
  8
0
 10
274.41500982642179
 20
144.6299980729807
 30
0.0
 11
275.49999690055881
 21
144.6299980729807
 31
0.0
  0
LINE
  5
AD09
  8
0
 10
274.36999714374531
 20
143.49999831616759
 30
0.0
 11
274.36999714374548
 21
144.58498492464309
 31
0.0
  0
ARC
  5
AD0A
  8
0
 10
273.99999664724879
 20
144.99999816380139
 30
0.0
 40
0.5560000000035014
 50
221.7182103813652
 51
228.2817896186283
  0
LINE
  5
AD0B
  8
0
 10
273.62999616563309
 20
143.49999831616759
 30
0.0
 11
273.62999616563332
 21
144.58498492464309
 31
0.0
  0
LINE
  5
AD0C
  8
0
 10
272.49999640882021
 20
144.6299980729807
 30
0.0
 11
273.584983482957
 21
144.6299980729807
 31
0.0
  0
ARC
  5
AD0D
  8
0
 10
273.99999664724879
 20
144.99999816380139
 30
0.0
 40
0.5560000000034613
 50
41.718210381365253
 51
48.281789618628338
  0
LINE
  5
AD0E
  8
0
 10
274.41500982642179
 20
145.3699981197704
 30
0.0
 11
275.49999690055881
 21
145.3699981197704
 31
0.0
  0
LINE
  5
AD0F
  8
0
 10
274.36999714374548
 20
145.415011268108
 30
0.0
 11
274.36999714374531
 21
146.49999834224471
 31
0.0
  0
LINE
  5
AD10
  8
1
 10
239.99999715387821
 20
148.74999816380131
 30
0.0
 11
239.99999715387781
 21
141.24999816380139
 31
0.0
  0
LINE
  5
AD11
  8
1
 10
236.24999664724859
 20
144.9999984949815
 30
0.0
 11
243.74999664724859
 21
144.9999984949815
 31
0.0
  0
LINE
  5
AD12
  8
0
 10
238.49999640882001
 20
144.6299980729807
 30
0.0
 11
238.49999640882001
 21
145.3699981197704
 31
0.0
  0
CIRCLE
  5
AD13
  8
0
 10
239.99999664724859
 20
144.99999816380139
 30
0.0
 40
2.7499999999999711
  0
LINE
  5
AD14
  8
0
 10
239.629996165633
 20
146.49999834224471
 30
0.0
 11
240.36999714374531
 21
146.49999834224471
 31
0.0
  0
LINE
  5
AD15
  8
0
 10
239.629996165633
 20
143.49999831616771
 30
0.0
 11
240.36999714374531
 21
143.49999831616771
 31
0.0
  0
LINE
  5
AD16
  8
0
 10
241.4999969005583
 20
144.6299980729807
 30
0.0
 11
241.4999969005583
 21
145.3699981197704
 31
0.0
  0
LINE
  5
AD17
  8
0
 10
238.49999640882001
 20
145.3699981197704
 30
0.0
 11
239.58498348295669
 21
145.3699981197704
 31
0.0
  0
LINE
  5
AD18
  8
0
 10
239.629996165633
 20
145.415011268108
 30
0.0
 11
239.6299961656328
 21
146.49999834224471
 31
0.0
  0
ARC
  5
AD19
  8
0
 10
239.99999664724859
 20
144.99999816380139
 30
0.0
 40
0.5560000000034379
 50
131.71821038138989
 51
138.2817896186346
  0
ARC
  5
AD1A
  8
0
 10
239.99999664724859
 20
144.99999816380139
 30
0.0
 40
0.5560000000035438
 50
311.71821038137159
 51
318.2817896186346
  0
LINE
  5
AD1B
  8
0
 10
240.4150098264216
 20
144.6299980729807
 30
0.0
 11
241.4999969005585
 21
144.6299980729807
 31
0.0
  0
LINE
  5
AD1C
  8
0
 10
240.369997143745
 20
143.49999831616759
 30
0.0
 11
240.36999714374531
 21
144.58498492464309
 31
0.0
  0
ARC
  5
AD1D
  8
0
 10
239.99999664724859
 20
144.99999816380139
 30
0.0
 40
0.5560000000035014
 50
221.7182103813652
 51
228.2817896186283
  0
LINE
  5
AD1E
  8
0
 10
239.6299961656328
 20
143.49999831616759
 30
0.0
 11
239.629996165633
 21
144.58498492464309
 31
0.0
  0
LINE
  5
AD1F
  8
0
 10
238.49999640882001
 20
144.6299980729807
 30
0.0
 11
239.58498348295669
 21
144.6299980729807
 31
0.0
  0
ARC
  5
AD20
  8
0
 10
239.99999664724859
 20
144.99999816380139
 30
0.0
 40
0.5560000000034613
 50
41.718210381365331
 51
48.281789618628324
  0
LINE
  5
AD21
  8
0
 10
240.4150098264216
 20
145.3699981197704
 30
0.0
 11
241.4999969005585
 21
145.3699981197704
 31
0.0
  0
LINE
  5
AD22
  8
0
 10
240.36999714374531
 20
145.415011268108
 30
0.0
 11
240.369997143745
 21
146.49999834224471
 31
0.0
  0
CIRCLE
  5
AD53
  8
0
 10
256.99999664723862
 20
152.0999964751343
 30
0.0
 40
4.9999998882411774
  0
CIRCLE
  5
AF02
  8
3
 10
256.99999664723862
 20
152.0999964751343
 30
0.0
 40
4.0
  0
CIRCLE
  5
AF03
  8
0
 10
256.99999664723862
 20
152.0999964751343
 30
0.0
 40
3.3235000000000001
  0
LINE
  5
AF04
  8
1
 10
264.4999966174363
 20
152.0999964751343
 30
0.0
 11
249.49999667704091
 21
152.0999964751343
 31
0.0
  0
ARC
  5
B491
  8
0
 10
71.99999988079071
 20
111.999998986721
 30
0.0
 40
31.5
 50
225.7002074099606
 51
314.29979259003937
  0
ARC
  5
B492
  8
0
 10
71.999999880790114
 20
220.9898934513331
 30
0.0
 40
31.5
 50
45.700207409958232
 51
134.2997925900394
  0
LINE
  5
B493
  8
1
 10
71.999999880790114
 20
247.48989345133299
 30
0.0
 11
71.999999880790114
 21
287.98989243805403
 31
0.0
  0
LINE
  5
B494
  8
1
 10
71.999999880790114
 20
196.9898951798676
 30
0.0
 11
71.999999880790114
 21
135.99999725818631
 31
0.0
  0
LINE
  5
B498
  8
1
 10
71.99999988079054
 20
85.499998986720982
 30
0.0
 11
71.999999880790483
 21
45.0
 31
0.0
  0
CIRCLE
  5
B499
  8
0
 10
74.999999374180646
 20
179.74999703802291
 30
0.0
 40
1.4499999999999309
  0
CIRCLE
  5
B49A
  8
0
 10
62.999999374182693
 20
179.74999703802291
 30
0.0
 40
1.4499999999999309
  0
CIRCLE
  5
B49B
  8
0
 10
62.999999374182693
 20
185.74999703802101
 30
0.0
 40
1.449999999999988
  0
CIRCLE
  5
B49C
  8
0
 10
74.999999374139946
 20
185.74999703802101
 30
0.0
 40
1.449999999999988
  0
CIRCLE
  5
B49D
  8
0
 10
80.999999374182693
 20
179.74999703802291
 30
0.0
 40
1.4499999999999309
  0
CIRCLE
  5
B49E
  8
0
 10
68.999999374184739
 20
179.74999703802291
 30
0.0
 40
1.4499999999999309
  0
CIRCLE
  5
B49F
  8
0
 10
80.999999374118346
 20
185.74999703802101
 30
0.0
 40
1.449999999999988
  0
CIRCLE
  5
B4A0
  8
0
 10
68.999999374161092
 20
185.74999703802101
 30
0.0
 40
1.449999999999988
  0
LINE
  5
B4A1
  8
0
 10
49.999999493359923
 20
183.04355744272459
 30
0.0
 11
49.999999999999403
 21
167.9999967943877
 31
0.0
  0
LINE
  5
B4A2
  8
0
 10
53.904500469564802
 20
191.98989517986769
 30
0.0
 11
49.999999493359923
 21
183.04355744272459
 31
0.0
  0
LINE
  5
B4A3
  8
0
 10
90.095498278736457
 20
191.98989517986769
 30
0.0
 11
53.904500469564802
 21
191.98989517986769
 31
0.0
  0
LINE
  5
B4A4
  8
0
 10
93.999999761580824
 20
167.9999967943877
 30
0.0
 11
93.999999254941329
 21
183.04355744272459
 31
0.0
  0
LINE
  5
B4A5
  8
0
 10
93.999999254941329
 20
183.04355744272459
 30
0.0
 11
90.095498278736457
 21
191.98989517986769
 31
0.0
  0
LINE
  5
B4AA
  8
0
 10
61.549999937414519
 20
262.28989221155638
 30
0.0
 11
62.500000186263911
 21
260.48989526927471
 31
0.0
  0
LINE
  5
B4AB
  8
0
 10
63.499999418854109
 20
260.48989526927471
 30
0.0
 11
64.449999667703509
 21
262.28989221155638
 31
0.0
  0
LINE
  5
B4AC
  8
0
 10
64.449999667703509
 20
262.28989221155638
 30
0.0
 11
64.449999667703509
 21
262.48989187181002
 31
0.0
  0
LINE
  5
B4AD
  8
0
 10
61.549999937414519
 20
262.48989187181002
 30
0.0
 11
61.549999937414519
 21
262.28989221155638
 31
0.0
  0
LINE
  5
B4AE
  8
0
 10
73.549999925307333
 20
262.28989221155638
 30
0.0
 11
74.499999824910759
 21
260.48989526927471
 31
0.0
  0
LINE
  5
B4AF
  8
0
 10
75.499999988823532
 20
260.48989526927471
 30
0.0
 11
76.449999772011637
 21
262.28989221155638
 31
0.0
  0
LINE
  5
B4B0
  8
0
 10
76.449999772011637
 20
262.28989221155638
 30
0.0
 11
76.449999772011637
 21
262.48989187181002
 31
0.0
  0
LINE
  5
B4B1
  8
0
 10
73.549999925307333
 20
262.48989187181002
 30
0.0
 11
73.549999925307333
 21
262.28989221155638
 31
0.0
  0
LINE
  5
B4B2
  8
0
 10
79.550000093876719
 20
262.28989221155638
 30
0.0
 11
80.500000342726125
 21
260.48989526927471
 31
0.0
  0
LINE
  5
B4B3
  8
0
 10
81.499999575316309
 20
260.48989526927471
 30
0.0
 11
82.449999824165715
 21
262.28989221155638
 31
0.0
  0
LINE
  5
B4B4
  8
0
 10
82.449999824165715
 20
262.28989221155638
 30
0.0
 11
82.449999824165715
 21
262.48989187181002
 31
0.0
  0
LINE
  5
B4B5
  8
0
 10
79.550000093876719
 20
262.48989187181002
 30
0.0
 11
79.550000093876719
 21
262.28989221155638
 31
0.0
  0
LINE
  5
B4B6
  8
0
 10
67.54999998956859
 20
262.28989221155638
 30
0.0
 11
68.499999772756695
 21
260.48989526927471
 31
0.0
  0
LINE
  5
B4B7
  8
0
 10
69.499999936669454
 20
260.48989526927471
 30
0.0
 11
70.449999836272895
 21
262.28989221155638
 31
0.0
  0
LINE
  5
B4B8
  8
0
 10
70.449999836272895
 20
262.28989221155638
 30
0.0
 11
70.449999836272895
 21
262.48989187181002
 31
0.0
  0
LINE
  5
B4B9
  8
0
 10
67.54999998956859
 20
262.48989187181002
 30
0.0
 11
67.54999998956859
 21
262.28989221155638
 31
0.0
  0
LINE
  5
B4C4
  8
0
 10
61.549999937414519
 20
262.28989221155638
 30
0.0
 11
64.449999667703509
 21
262.28989221155638
 31
0.0
  0
LINE
  5
B4C5
  8
0
 10
62.500000186263911
 20
260.48989526927471
 30
0.0
 11
63.499999418854109
 21
260.48989526927471
 31
0.0
  0
LINE
  5
B4C6
  8
0
 10
73.549999925307333
 20
262.28989221155638
 30
0.0
 11
76.449999772011637
 21
262.28989221155638
 31
0.0
  0
LINE
  5
B4C7
  8
0
 10
74.499999824910759
 20
260.48989526927471
 30
0.0
 11
75.499999988823532
 21
260.48989526927471
 31
0.0
  0
LINE
  5
B4C8
  8
0
 10
79.550000093876719
 20
262.28989221155638
 30
0.0
 11
82.449999824165474
 21
262.28989221155632
 31
0.0
  0
LINE
  5
B4C9
  8
0
 10
80.500000342726125
 20
260.48989526927471
 30
0.0
 11
81.499999575316082
 21
260.48989526927471
 31
0.0
  0
LINE
  5
B4CA
  8
0
 10
67.54999998956859
 20
262.28989221155638
 30
0.0
 11
70.449999836273122
 21
262.28989221155638
 31
0.0
  0
LINE
  5
B4CB
  8
0
 10
68.499999772756695
 20
260.48989526927471
 30
0.0
 11
69.499999936669454
 21
260.48989526927471
 31
0.0
  0
LINE
  5
B4CC
  8
0
 10
53.904500976204268
 20
275.98989315330982
 30
0.0
 11
53.904500976204503
 21
262.48989187181002
 31
0.0
  0
LINE
  5
B4CD
  8
0
 10
90.095498785375966
 20
275.98989315330982
 30
0.0
 11
90.095498785375966
 21
262.48989187181002
 31
0.0
  0
LINE
  5
B4CE
  8
0
 10
93.999999761580824
 20
275.98989315330982
 30
0.0
 11
93.999999761580824
 21
243.53429420285471
 31
0.0
  0
LINE
  5
B4CF
  8
0
 10
54.559155553578726
 20
276.9898951798678
 30
0.0
 11
53.904500976204268
 21
275.98989315330982
 31
0.0
  0
LINE
  5
B4D0
  8
0
 10
89.440844208001494
 20
276.9898951798678
 30
0.0
 11
90.095498785375966
 21
275.98989315330982
 31
0.0
  0
LINE
  5
B4D1
  8
0
 10
92.999999597668065
 20
276.9898951798678
 30
0.0
 11
93.999999761580824
 21
275.98989315330982
 31
0.0
  0
LINE
  5
B4D2
  8
0
 10
49.999999999999403
 20
275.98989315330982
 30
0.0
 11
49.999999999999403
 21
243.53429420285471
 31
0.0
  0
LINE
  5
B4D3
  8
0
 10
49.999999999999403
 20
275.98989315330982
 30
0.0
 11
93.999999761580824
 21
275.98989315330982
 31
0.0
  0
LINE
  5
B4D4
  8
0
 10
51.000000163912169
 20
276.9898951798678
 30
0.0
 11
49.999999999999403
 21
275.98989315330982
 31
0.0
  0
LINE
  5
B4D5
  8
0
 10
51.000000163912169
 20
276.9898951798678
 30
0.0
 11
92.999999597667824
 21
276.9898951798678
 31
0.0
  0
ARC
  5
B4D6
  8
0
 10
76.999999880790114
 20
248.53984807924479
 30
0.0
 40
5.0000000000000879
 50
30.592481122466491
 51
79.7134393885175
  0
ARC
  5
B4D7
  8
0
 10
71.999999880790114
 20
220.98989345133279
 30
0.0
 40
33.000000000000107
 50
79.7134393885175
 51
100.2865606114825
  0
ARC
  5
B4D8
  8
0
 10
66.999999880790114
 20
248.53984807924479
 30
0.0
 40
5.0000000000000258
 50
100.2865606114825
 51
149.40751887753351
  0
LINE
  5
B4D9
  8
0
 10
93.999999761580824
 20
262.48989187181002
 30
0.0
 11
49.999999999999403
 21
262.48989187181002
 31
0.0
  0
LINE
  5
B515
  8
0
 10
178.99999950826111
 20
166.98989434167731
 30
0.0
 11
180.09999950230059
 21
166.98989434167731
 31
0.0
  0
LINE
  5
B516
  8
0
 10
180.09999950230059
 20
176.9898945838211
 30
0.0
 11
178.99999950826111
 21
176.9898945838211
 31
0.0
  0
ARC
  5
B517
  8
0
 10
176.24999777972519
 20
171.98989442368571
 30
0.0
 40
5.7999999999999581
 50
311.58980206932068
 51
339.40298101937651
  0
ARC
  5
B518
  8
0
 10
176.24999777972519
 20
171.98989442368571
 30
0.0
 40
5.7999999999999803
 50
20.597018980623481
 51
48.410197930679317
  0
LINE
  5
B519
  8
0
 10
164.29999653994969
 20
187.19999700784669
 30
0.0
 11
162.49999959766799
 21
186.2499967589973
 31
0.0
  0
LINE
  5
B51A
  8
0
 10
162.49999959766799
 20
185.2499965950845
 30
0.0
 11
164.29999653994969
 21
184.29999727755771
 31
0.0
  0
LINE
  5
B51B
  8
0
 10
164.29999653994969
 20
184.29999727755771
 30
0.0
 11
164.4999962002033
 21
184.29999727755771
 31
0.0
  0
LINE
  5
B51C
  8
0
 10
164.4999962002033
 20
187.19999700784669
 30
0.0
 11
164.29999653994969
 21
187.19999700784669
 31
0.0
  0
LINE
  5
B51D
  8
0
 10
164.29999653994969
 20
181.1999969556926
 30
0.0
 11
162.49999959766799
 21
180.24999670684321
 31
0.0
  0
LINE
  5
B51E
  8
0
 10
162.49999959766799
 20
179.24999700859169
 30
0.0
 11
164.29999653994969
 21
178.29999722540359
 31
0.0
  0
LINE
  5
B51F
  8
0
 10
164.29999653994969
 20
178.29999722540359
 30
0.0
 11
164.4999962002033
 21
178.29999722540359
 31
0.0
  0
LINE
  5
B520
  8
0
 10
164.4999962002033
 20
181.1999969556926
 30
0.0
 11
164.29999653994969
 21
181.1999969556926
 31
0.0
  0
LINE
  5
B521
  8
0
 10
180.09999950230059
 20
166.98989434167731
 30
0.0
 11
180.09999950230059
 21
176.9898945838211
 31
0.0
  0
POLYLINE
  5
B522
  8
0
 66
     1
 10
0.0
 20
0.0
 30
0.0
 70
   128
  0
VERTEX
  5
BE23
  8
0
 10
181.97288174927169
 20
172.4390564975327
 30
0.0
  0
VERTEX
  5
BE24
  8
0
 10
181.948782846331
 20
172.4356695101595
 30
0.0
  0
VERTEX
  5
BE25
  8
0
 10
181.92060475051341
 20
172.4317092355339
 30
0.0
  0
VERTEX
  5
BE26
  8
0
 10
181.88836608827049
 20
172.42717846762369
 30
0.0
  0
VERTEX
  5
BE27
  8
0
 10
181.85209293663439
 20
172.42208046605791
 30
0.0
  0
VERTEX
  5
BE28
  8
0
 10
181.8118076473468
 20
172.41641895612679
 30
0.0
  0
VERTEX
  5
BE29
  8
0
 10
181.7675437480205
 20
172.41019801236669
 30
0.0
  0
VERTEX
  5
BE2A
  8
0
 10
181.71933104097781
 20
172.40342217497511
 30
0.0
  0
VERTEX
  5
BE2B
  8
0
 10
181.6672030538314
 20
172.3960962169802
 30
0.0
  0
SEQEND
  5
BE2C
  8
0
  0
ARC
  5
B523
  8
0
 10
174.82543668058091
 20
171.9898944227314
 30
0.0
 40
6.8538140479438816
 50
356.60228673758218
 51
3.397713262417803
  0
POLYLINE
  5
B524
  8
0
 66
     1
 10
0.0
 20
0.0
 30
0.0
 70
   128
  0
VERTEX
  5
BE2D
  8
0
 10
181.6672030538314
 20
171.58369262848259
 30
0.0
  0
VERTEX
  5
BE2E
  8
0
 10
181.71933104097781
 20
171.5763666995916
 30
0.0
  0
VERTEX
  5
BE2F
  8
0
 10
181.7675437480205
 20
171.56959081854421
 30
0.0
  0
VERTEX
  5
BE30
  8
0
 10
181.8118076473468
 20
171.56336988205999
 30
0.0
  0
VERTEX
  5
BE31
  8
0
 10
181.85209293663439
 20
171.55770837940489
 30
0.0
  0
VERTEX
  5
BE32
  8
0
 10
181.88836608827049
 20
171.552610399667
 30
0.0
  0
VERTEX
  5
BE33
  8
0
 10
181.92060475051341
 20
171.54807962448089
 30
0.0
  0
VERTEX
  5
BE34
  8
0
 10
181.948782846331
 20
171.54411932438941
 30
0.0
  0
VERTEX
  5
BE35
  8
0
 10
181.97288174927169
 20
171.54073235884411
 30
0.0
  0
SEQEND
  5
BE36
  8
0
  0
ARC
  5
B525
  8
0
 10
181.19175769872621
 20
171.3509309772779
 30
0.0
 40
0.803852814130027
 50
346.34266657097851
 51
13.65733342902154
  0
ARC
  5
B526
  8
0
 10
176.19670296805231
 20
171.9881660398311
 30
0.0
 40
5.8350861683877868
 50
339.638879090486
 51
351.85173930530277
  0
POLYLINE
  5
B527
  8
0
 66
     1
 10
0.0
 20
0.0
 30
0.0
 70
   128
  0
VERTEX
  5
BE37
  8
0
 10
181.6672030538314
 20
169.95792974717901
 30
0.0
  0
VERTEX
  5
BE38
  8
0
 10
181.67247061431351
 20
169.95424054563031
 30
0.0
  0
VERTEX
  5
BE39
  8
0
 10
181.6762368828052
 20
169.95160466991351
 30
0.0
  0
VERTEX
  5
BE3A
  8
0
 10
181.6784944087261
 20
169.9500227021052
 30
0.0
  0
VERTEX
  5
BE3B
  8
0
 10
181.67925064265671
 20
169.9494953406973
 30
0.0
  0
SEQEND
  5
BE3C
  8
0
  0
LINE
  5
B528
  8
0
 10
181.67925064265671
 20
174.03029346838579
 30
0.0
 11
181.6672030538314
 21
174.0218591783194
 31
0.0
  0
ARC
  5
B529
  8
0
 10
176.19670132127479
 20
171.9916225473155
 30
0.0
 40
5.8350878299965281
 50
8.1482605600793612
 51
20.36111839814377
  0
ARC
  5
B52A
  8
0
 10
181.4096499049684
 20
172.62885785545211
 30
0.0
 40
0.594352307899375
 50
341.3768936821748
 51
18.623106317838989
  0
LINE
  5
B52B
  8
0
 10
164.29999653994969
 20
187.19999700784669
 30
0.0
 11
164.29999653994969
 21
184.29999727755771
 31
0.0
  0
LINE
  5
B52C
  8
0
 10
162.49999959766799
 20
186.2499967589973
 30
0.0
 11
162.49999959766799
 21
185.2499965950845
 31
0.0
  0
LINE
  5
B52D
  8
0
 10
164.29999653994969
 20
181.1999969556926
 30
0.0
 11
164.29999653994969
 21
178.29999722540359
 31
0.0
  0
LINE
  5
B52E
  8
0
 10
162.49999959766799
 20
180.24999670684321
 30
0.0
 11
162.49999959766799
 21
179.24999700859169
 31
0.0
  0
LINE
  5
B52F
  8
0
 10
178.99999950826111
 20
182.83484525978551
 30
0.0
 11
177.9999974817031
 21
183.04355744272451
 31
0.0
  0
LINE
  5
B530
  8
0
 10
177.9999974817031
 20
191.9898951798676
 30
0.0
 11
177.9999974817031
 21
140.9999972581862
 31
0.0
  0
LINE
  5
B531
  8
0
 10
178.99999950826111
 20
190.98989501595489
 30
0.0
 11
177.9999974817031
 21
191.9898951798676
 31
0.0
  0
LINE
  5
B532
  8
0
 10
178.99999950826111
 20
141.99999555945379
 30
0.0
 11
178.99999950826111
 21
190.989895015955
 31
0.0
  0
LINE
  5
B533
  8
0
 10
177.9999974817031
 20
140.9999972581862
 30
0.0
 11
178.99999950826111
 21
141.99999555945379
 31
0.0
  0
ARC
  5
B534
  8
0
 10
147.48939885944179
 20
168.0601090774442
 30
0.0
 40
1.9459290010230881
 50
94.515892378085553
 51
181.77021606859279
  0
LINE
  5
B535
  8
0
 10
145.54439854621819
 20
165.75406281277529
 30
0.0
 11
145.54439854621819
 21
167.99999702721831
 31
0.0
  0
ARC
  5
B536
  8
0
 10
147.6058886031297
 20
165.75194602254561
 30
0.0
 40
2.0614911436980332
 50
179.94116726236311
 51
244.1258573577249
  0
POLYLINE
  5
B537
  8
0
 10
149.35219701546109
 20
162.50288449693983
 30
0.0
 66
     1
 70
     8
  0
VERTEX
  8
0
  5
BE99
 10
149.352
 20
162.503
 30
0.000000
  70
    32
  0
VERTEX
  8
0
  5
BE9A
 10
149.333
 20
162.514
 30
0.000000
  70
    32
  0
VERTEX
  8
0
  5
BE9B
 10
149.315
 20
162.526
 30
0.000000
  70
    32
  0
VERTEX
  8
0
  5
BE9C
 10
149.296
 20
162.537
 30
0.000000
  70
    32
  0
VERTEX
  8
0
  5
BE9D
 10
149.277
 20
162.549
 30
0.000000
  70
    32
  0
VERTEX
  8
0
  5
BE9E
 10
149.258
 20
162.560
 30
0.000000
  70
    32
  0
VERTEX
  8
0
  5
BE9F
 10
149.239
 20
162.571
 30
0.000000
  70
    32
  0
VERTEX
  8
0
  5
BEA0
 10
149.220
 20
162.583
 30
0.000000
  70
    32
  0
VERTEX
  8
0
  5
BEA1
 10
149.201
 20
162.594
 30
0.000000
  70
    32
  0
VERTEX
  8
0
  5
BEA2
 10
149.182
 20
162.606
 30
0.000000
  70
    32
  0
VERTEX
  8
0
  5
BEA3
 10
149.163
 20
162.617
 30
0.000000
  70
    32
  0
VERTEX
  8
0
  5
BEA4
 10
149.144
 20
162.628
 30
0.000000
  70
    32
  0
VERTEX
  8
0
  5
BEA5
 10
149.125
 20
162.640
 30
0.000000
  70
    32
  0
VERTEX
  8
0
  5
BEA6
 10
149.106
 20
162.651
 30
0.000000
  70
    32
  0
VERTEX
  8
0
  5
BEA7
 10
149.087
 20
162.662
 30
0.000000
  70
    32
  0
VERTEX
  8
0
  5
BEA8
 10
149.068
 20
162.674
 30
0.000000
  70
    32
  0
VERTEX
  8
0
  5
BEA9
 10
149.048
 20
162.685
 30
0.000000
  70
    32
  0
VERTEX
  8
0
  5
BEAA
 10
149.029
 20
162.696
 30
0.000000
  70
    32
  0
VERTEX
  8
0
  5
BEAB
 10
149.010
 20
162.708
 30
0.000000
  70
    32
  0
VERTEX
  8
0
  5
BEAC
 10
148.990
 20
162.719
 30
0.000000
  70
    32
  0
VERTEX
  8
0
  5
BEAD
 10
148.971
 20
162.730
 30
0.000000
  70
    32
  0
VERTEX
  8
0
  5
BEAE
 10
148.952
 20
162.742
 30
0.000000
  70
    32
  0
VERTEX
  8
0
  5
BEAF
 10
148.932
 20
162.753
 30
0.000000
  70
    32
  0
VERTEX
  8
0
  5
BEB0
 10
148.913
 20
162.764
 30
0.000000
  70
    32
  0
VERTEX
  8
0
  5
BEB1
 10
148.893
 20
162.775
 30
0.000000
  70
    32
  0
VERTEX
  8
0
  5
BEB2
 10
148.874
 20
162.787
 30
0.000000
  70
    32
  0
VERTEX
  8
0
  5
BEB3
 10
148.854
 20
162.798
 30
0.000000
  70
    32
  0
VERTEX
  8
0
  5
BEB4
 10
148.835
 20
162.809
 30
0.000000
  70
    32
  0
VERTEX
  8
0
  5
BEB5
 10
148.815
 20
162.820
 30
0.000000
  70
    32
  0
VERTEX
  8
0
  5
BEB6
 10
148.796
 20
162.831
 30
0.000000
  70
    32
  0
VERTEX
  8
0
  5
BEB7
 10
148.776
 20
162.843
 30
0.000000
  70
    32
  0
VERTEX
  8
0
  5
BEB8
 10
148.756
 20
162.854
 30
0.000000
  70
    32
  0
VERTEX
  8
0
  5
BEB9
 10
148.737
 20
162.865
 30
0.000000
  70
    32
  0
VERTEX
  8
0
  5
BEBA
 10
148.717
 20
162.876
 30
0.000000
  70
    32
  0
VERTEX
  8
0
  5
BEBB
 10
148.697
 20
162.887
 30
0.000000
  70
    32
  0
VERTEX
  8
0
  5
BEBC
 10
148.677
 20
162.899
 30
0.000000
  70
    32
  0
VERTEX
  8
0
  5
BEBD
 10
148.657
 20
162.910
 30
0.000000
  70
    32
  0
VERTEX
  8
0
  5
BEBE
 10
148.638
 20
162.921
 30
0.000000
  70
    32
  0
VERTEX
  8
0
  5
BEBF
 10
148.618
 20
162.932
 30
0.000000
  70
    32
  0
VERTEX
  8
0
  5
BEC0
 10
148.598
 20
162.943
 30
0.000000
  70
    32
  0
VERTEX
  8
0
  5
BEC1
 10
148.578
 20
162.954
 30
0.000000
  70
    32
  0
VERTEX
  8
0
  5
BEC2
 10
148.558
 20
162.965
 30
0.000000
  70
    32
  0
VERTEX
  8
0
  5
BEC3
 10
148.538
 20
162.976
 30
0.000000
  70
    32
  0
VERTEX
  8
0
  5
BEC4
 10
148.518
 20
162.988
 30
0.000000
  70
    32
  0
VERTEX
  8
0
  5
BEC5
 10
148.498
 20
162.999
 30
0.000000
  70
    32
  0
VERTEX
  8
0
  5
BEC6
 10
148.478
 20
163.010
 30
0.000000
  70
    32
  0
VERTEX
  8
0
  5
BEC7
 10
148.457
 20
163.021
 30
0.000000
  70
    32
  0
VERTEX
  8
0
  5
BEC8
 10
148.437
 20
163.032
 30
0.000000
  70
    32
  0
VERTEX
  8
0
  5
BEC9
 10
148.417
 20
163.043
 30
0.000000
  70
    32
  0
VERTEX
  8
0
  5
BECA
 10
148.397
 20
163.054
 30
0.000000
  70
    32
  0
VERTEX
  8
0
  5
BECB
 10
148.377
 20
163.065
 30
0.000000
  70
    32
  0
VERTEX
  8
0
  5
BECC
 10
148.356
 20
163.076
 30
0.000000
  70
    32
  0
VERTEX
  8
0
  5
BECD
 10
148.336
 20
163.087
 30
0.000000
  70
    32
  0
VERTEX
  8
0
  5
BECE
 10
148.316
 20
163.098
 30
0.000000
  70
    32
  0
VERTEX
  8
0
  5
BECF
 10
148.295
 20
163.109
 30
0.000000
  70
    32
  0
VERTEX
  8
0
  5
BED0
 10
148.275
 20
163.120
 30
0.000000
  70
    32
  0
VERTEX
  8
0
  5
BED1
 10
148.254
 20
163.131
 30
0.000000
  70
    32
  0
VERTEX
  8
0
  5
BED2
 10
148.234
 20
163.142
 30
0.000000
  70
    32
  0
VERTEX
  8
0
  5
BED3
 10
148.213
 20
163.153
 30
0.000000
  70
    32
  0
VERTEX
  8
0
  5
BED4
 10
148.193
 20
163.164
 30
0.000000
  70
    32
  0
VERTEX
  8
0
  5
BED5
 10
148.172
 20
163.175
 30
0.000000
  70
    32
  0
VERTEX
  8
0
  5
BED6
 10
148.152
 20
163.186
 30
0.000000
  70
    32
  0
VERTEX
  8
0
  5
BED7
 10
148.131
 20
163.197
 30
0.000000
  70
    32
  0
VERTEX
  8
0
  5
BED8
 10
148.111
 20
163.207
 30
0.000000
  70
    32
  0
VERTEX
  8
0
  5
BED9
 10
148.090
 20
163.218
 30
0.000000
  70
    32
  0
VERTEX
  8
0
  5
BEDA
 10
148.069
 20
163.229
 30
0.000000
  70
    32
  0
VERTEX
  8
0
  5
BEDB
 10
148.048
 20
163.240
 30
0.000000
  70
    32
  0
VERTEX
  8
0
  5
BEDC
 10
148.028
 20
163.251
 30
0.000000
  70
    32
  0
VERTEX
  8
0
  5
BEDD
 10
148.007
 20
163.262
 30
0.000000
  70
    32
  0
VERTEX
  8
0
  5
BEDE
 10
147.986
 20
163.273
 30
0.000000
  70
    32
  0
VERTEX
  8
0
  5
BEDF
 10
147.965
 20
163.284
 30
0.000000
  70
    32
  0
VERTEX
  8
0
  5
BEE0
 10
147.944
 20
163.294
 30
0.000000
  70
    32
  0
VERTEX
  8
0
  5
BEE1
 10
147.923
 20
163.305
 30
0.000000
  70
    32
  0
VERTEX
  8
0
  5
BEE2
 10
147.902
 20
163.316
 30
0.000000
  70
    32
  0
VERTEX
  8
0
  5
BEE3
 10
147.881
 20
163.327
 30
0.000000
  70
    32
  0
VERTEX
  8
0
  5
BEE4
 10
147.860
 20
163.338
 30
0.000000
  70
    32
  0
VERTEX
  8
0
  5
BEE5
 10
147.839
 20
163.349
 30
0.000000
  70
    32
  0
VERTEX
  8
0
  5
BEE6
 10
147.818
 20
163.359
 30
0.000000
  70
    32
  0
VERTEX
  8
0
  5
BEE7
 10
147.797
 20
163.370
 30
0.000000
  70
    32
  0
VERTEX
  8
0
  5
BEE8
 10
147.776
 20
163.381
 30
0.000000
  70
    32
  0
VERTEX
  8
0
  5
BEE9
 10
147.755
 20
163.392
 30
0.000000
  70
    32
  0
VERTEX
  8
0
  5
BEEA
 10
147.734
 20
163.402
 30
0.000000
  70
    32
  0
VERTEX
  8
0
  5
BEEB
 10
147.713
 20
163.413
 30
0.000000
  70
    32
  0
VERTEX
  8
0
  5
BEEC
 10
147.691
 20
163.424
 30
0.000000
  70
    32
  0
VERTEX
  8
0
  5
BEED
 10
147.670
 20
163.435
 30
0.000000
  70
    32
  0
VERTEX
  8
0
  5
BEEE
 10
147.649
 20
163.445
 30
0.000000
  70
    32
  0
VERTEX
  8
0
  5
BEEF
 10
147.628
 20
163.456
 30
0.000000
  70
    32
  0
VERTEX
  8
0
  5
BEF0
 10
147.606
 20
163.467
 30
0.000000
  70
    32
  0
VERTEX
  8
0
  5
BEF1
 10
147.585
 20
163.477
 30
0.000000
  70
    32
  0
VERTEX
  8
0
  5
BEF2
 10
147.563
 20
163.488
 30
0.000000
  70
    32
  0
VERTEX
  8
0
  5
BEF3
 10
147.542
 20
163.499
 30
0.000000
  70
    32
  0
VERTEX
  8
0
  5
BEF4
 10
147.521
 20
163.509
 30
0.000000
  70
    32
  0
VERTEX
  8
0
  5
BEF5
 10
147.499
 20
163.520
 30
0.000000
  70
    32
  0
VERTEX
  8
0
  5
BEF6
 10
147.478
 20
163.531
 30
0.000000
  70
    32
  0
VERTEX
  8
0
  5
BEF7
 10
147.456
 20
163.541
 30
0.000000
  70
    32
  0
VERTEX
  8
0
  5
BEF8
 10
147.434
 20
163.552
 30
0.000000
  70
    32
  0
VERTEX
  8
0
  5
BEF9
 10
147.413
 20
163.563
 30
0.000000
  70
    32
  0
VERTEX
  8
0
  5
BEFA
 10
147.391
 20
163.573
 30
0.000000
  70
    32
  0
VERTEX
  8
0
  5
BEFB
 10
147.369
 20
163.584
 30
0.000000
  70
    32
  0
VERTEX
  8
0
  5
BEFC
 10
147.348
 20
163.594
 30
0.000000
  70
    32
  0
VERTEX
  8
0
  5
BEFD
 10
147.326
 20
163.605
 30
0.000000
  70
    32
  0
VERTEX
  8
0
  5
BEFE
 10
147.304
 20
163.615
 30
0.000000
  70
    32
  0
VERTEX
  8
0
  5
BEFF
 10
147.283
 20
163.626
 30
0.000000
  70
    32
  0
VERTEX
  8
0
  5
BF00
 10
147.261
 20
163.637
 30
0.000000
  70
    32
  0
VERTEX
  8
0
  5
BF01
 10
147.239
 20
163.647
 30
0.000000
  70
    32
  0
VERTEX
  8
0
  5
BF02
 10
147.217
 20
163.658
 30
0.000000
  70
    32
  0
VERTEX
  8
0
  5
BF03
 10
147.195
 20
163.668
 30
0.000000
  70
    32
  0
VERTEX
  8
0
  5
BF04
 10
147.173
 20
163.679
 30
0.000000
  70
    32
  0
VERTEX
  8
0
  5
BF05
 10
147.151
 20
163.689
 30
0.000000
  70
    32
  0
VERTEX
  8
0
  5
BF06
 10
147.129
 20
163.700
 30
0.000000
  70
    32
  0
VERTEX
  8
0
  5
BF07
 10
147.107
 20
163.710
 30
0.000000
  70
    32
  0
VERTEX
  8
0
  5
BF08
 10
147.085
 20
163.721
 30
0.000000
  70
    32
  0
VERTEX
  8
0
  5
BF09
 10
147.063
 20
163.731
 30
0.000000
  70
    32
  0
VERTEX
  8
0
  5
BF0A
 10
147.041
 20
163.742
 30
0.000000
  70
    32
  0
VERTEX
  8
0
  5
BF0B
 10
147.019
 20
163.752
 30
0.000000
  70
    32
  0
VERTEX
  8
0
  5
BF0C
 10
146.997
 20
163.762
 30
0.000000
  70
    32
  0
VERTEX
  8
0
  5
BF0D
 10
146.975
 20
163.773
 30
0.000000
  70
    32
  0
VERTEX
  8
0
  5
BF0E
 10
146.952
 20
163.783
 30
0.000000
  70
    32
  0
VERTEX
  8
0
  5
BF0F
 10
146.930
 20
163.794
 30
0.000000
  70
    32
  0
VERTEX
  8
0
  5
BF10
 10
146.908
 20
163.804
 30
0.000000
  70
    32
  0
VERTEX
  8
0
  5
BF11
 10
146.886
 20
163.814
 30
0.000000
  70
    32
  0
VERTEX
  8
0
  5
BF12
 10
146.863
 20
163.825
 30
0.000000
  70
    32
  0
VERTEX
  8
0
  5
BF13
 10
146.841
 20
163.835
 30
0.000000
  70
    32
  0
VERTEX
  8
0
  5
BF14
 10
146.819
 20
163.845
 30
0.000000
  70
    32
  0
VERTEX
  8
0
  5
BF15
 10
146.796
 20
163.856
 30
0.000000
  70
    32
  0
VERTEX
  8
0
  5
BF16
 10
146.774
 20
163.866
 30
0.000000
  70
    32
  0
VERTEX
  8
0
  5
BF17
 10
146.751
 20
163.876
 30
0.000000
  70
    32
  0
VERTEX
  8
0
  5
BF18
 10
146.729
 20
163.887
 30
0.000000
  70
    32
  0
VERTEX
  8
0
  5
BF19
 10
146.706
 20
163.897
 30
0.000000
  70
    32
  0
SEQEND
  8
0
  5
BF1A
  0
ARC
  5
B538
  8
0
 10
147.9729323383786
 20
160.82923064366241
 30
0.0
 40
2.1687521561855538
 50
355.1516702873044
 51
50.507935058577779
  0
LINE
  5
B539
  8
0
 10
150.13392452895579
 20
150.35406336188311
 30
0.0
 11
150.13392452895579
 21
160.64593125134701
 31
0.0
  0
ARC
  5
B53A
  8
0
 10
147.88298141054551
 20
150.20863092603631
 30
0.0
 40
2.2556363881873942
 50
310.64367790746599
 51
3.6967167466589288
  0
POLYLINE
  5
B53B
  8
0
 10
147.54531473550318
 20
147.50288449694028
 30
0.0
 66
     1
 70
     8
  0
VERTEX
  8
0
  5
BF1B
 10
147.545
 20
147.503
 30
0.000000
  70
    32
  0
VERTEX
  8
0
  5
BF1C
 10
147.560
 20
147.510
 30
0.000000
  70
    32
  0
VERTEX
  8
0
  5
BF1D
 10
147.575
 20
147.518
 30
0.000000
  70
    32
  0
VERTEX
  8
0
  5
BF1E
 10
147.590
 20
147.525
 30
0.000000
  70
    32
  0
VERTEX
  8
0
  5
BF1F
 10
147.605
 20
147.533
 30
0.000000
  70
    32
  0
VERTEX
  8
0
  5
BF20
 10
147.620
 20
147.540
 30
0.000000
  70
    32
  0
VERTEX
  8
0
  5
BF21
 10
147.635
 20
147.548
 30
0.000000
  70
    32
  0
VERTEX
  8
0
  5
BF22
 10
147.650
 20
147.555
 30
0.000000
  70
    32
  0
VERTEX
  8
0
  5
BF23
 10
147.665
 20
147.563
 30
0.000000
  70
    32
  0
VERTEX
  8
0
  5
BF24
 10
147.680
 20
147.570
 30
0.000000
  70
    32
  0
VERTEX
  8
0
  5
BF25
 10
147.695
 20
147.578
 30
0.000000
  70
    32
  0
VERTEX
  8
0
  5
BF26
 10
147.710
 20
147.586
 30
0.000000
  70
    32
  0
VERTEX
  8
0
  5
BF27
 10
147.725
 20
147.593
 30
0.000000
  70
    32
  0
VERTEX
  8
0
  5
BF28
 10
147.740
 20
147.601
 30
0.000000
  70
    32
  0
VERTEX
  8
0
  5
BF29
 10
147.755
 20
147.608
 30
0.000000
  70
    32
  0
VERTEX
  8
0
  5
BF2A
 10
147.769
 20
147.616
 30
0.000000
  70
    32
  0
VERTEX
  8
0
  5
BF2B
 10
147.784
 20
147.623
 30
0.000000
  70
    32
  0
VERTEX
  8
0
  5
BF2C
 10
147.799
 20
147.631
 30
0.000000
  70
    32
  0
VERTEX
  8
0
  5
BF2D
 10
147.814
 20
147.638
 30
0.000000
  70
    32
  0
VERTEX
  8
0
  5
BF2E
 10
147.829
 20
147.646
 30
0.000000
  70
    32
  0
VERTEX
  8
0
  5
BF2F
 10
147.844
 20
147.654
 30
0.000000
  70
    32
  0
VERTEX
  8
0
  5
BF30
 10
147.858
 20
147.661
 30
0.000000
  70
    32
  0
VERTEX
  8
0
  5
BF31
 10
147.873
 20
147.669
 30
0.000000
  70
    32
  0
VERTEX
  8
0
  5
BF32
 10
147.888
 20
147.676
 30
0.000000
  70
    32
  0
VERTEX
  8
0
  5
BF33
 10
147.902
 20
147.684
 30
0.000000
  70
    32
  0
VERTEX
  8
0
  5
BF34
 10
147.917
 20
147.691
 30
0.000000
  70
    32
  0
VERTEX
  8
0
  5
BF35
 10
147.932
 20
147.699
 30
0.000000
  70
    32
  0
VERTEX
  8
0
  5
BF36
 10
147.947
 20
147.707
 30
0.000000
  70
    32
  0
VERTEX
  8
0
  5
BF37
 10
147.961
 20
147.714
 30
0.000000
  70
    32
  0
VERTEX
  8
0
  5
BF38
 10
147.976
 20
147.722
 30
0.000000
  70
    32
  0
VERTEX
  8
0
  5
BF39
 10
147.990
 20
147.730
 30
0.000000
  70
    32
  0
VERTEX
  8
0
  5
BF3A
 10
148.005
 20
147.737
 30
0.000000
  70
    32
  0
VERTEX
  8
0
  5
BF3B
 10
148.020
 20
147.745
 30
0.000000
  70
    32
  0
VERTEX
  8
0
  5
BF3C
 10
148.034
 20
147.752
 30
0.000000
  70
    32
  0
VERTEX
  8
0
  5
BF3D
 10
148.049
 20
147.760
 30
0.000000
  70
    32
  0
VERTEX
  8
0
  5
BF3E
 10
148.063
 20
147.768
 30
0.000000
  70
    32
  0
VERTEX
  8
0
  5
BF3F
 10
148.078
 20
147.775
 30
0.000000
  70
    32
  0
VERTEX
  8
0
  5
BF40
 10
148.092
 20
147.783
 30
0.000000
  70
    32
  0
VERTEX
  8
0
  5
BF41
 10
148.107
 20
147.791
 30
0.000000
  70
    32
  0
VERTEX
  8
0
  5
BF42
 10
148.121
 20
147.798
 30
0.000000
  70
    32
  0
VERTEX
  8
0
  5
BF43
 10
148.136
 20
147.806
 30
0.000000
  70
    32
  0
VERTEX
  8
0
  5
BF44
 10
148.150
 20
147.814
 30
0.000000
  70
    32
  0
VERTEX
  8
0
  5
BF45
 10
148.165
 20
147.821
 30
0.000000
  70
    32
  0
VERTEX
  8
0
  5
BF46
 10
148.179
 20
147.829
 30
0.000000
  70
    32
  0
VERTEX
  8
0
  5
BF47
 10
148.194
 20
147.837
 30
0.000000
  70
    32
  0
VERTEX
  8
0
  5
BF48
 10
148.208
 20
147.844
 30
0.000000
  70
    32
  0
VERTEX
  8
0
  5
BF49
 10
148.222
 20
147.852
 30
0.000000
  70
    32
  0
VERTEX
  8
0
  5
BF4A
 10
148.237
 20
147.860
 30
0.000000
  70
    32
  0
VERTEX
  8
0
  5
BF4B
 10
148.251
 20
147.867
 30
0.000000
  70
    32
  0
VERTEX
  8
0
  5
BF4C
 10
148.266
 20
147.875
 30
0.000000
  70
    32
  0
VERTEX
  8
0
  5
BF4D
 10
148.280
 20
147.883
 30
0.000000
  70
    32
  0
VERTEX
  8
0
  5
BF4E
 10
148.294
 20
147.891
 30
0.000000
  70
    32
  0
VERTEX
  8
0
  5
BF4F
 10
148.309
 20
147.898
 30
0.000000
  70
    32
  0
VERTEX
  8
0
  5
BF50
 10
148.323
 20
147.906
 30
0.000000
  70
    32
  0
VERTEX
  8
0
  5
BF51
 10
148.337
 20
147.914
 30
0.000000
  70
    32
  0
VERTEX
  8
0
  5
BF52
 10
148.351
 20
147.921
 30
0.000000
  70
    32
  0
VERTEX
  8
0
  5
BF53
 10
148.366
 20
147.929
 30
0.000000
  70
    32
  0
VERTEX
  8
0
  5
BF54
 10
148.380
 20
147.937
 30
0.000000
  70
    32
  0
VERTEX
  8
0
  5
BF55
 10
148.394
 20
147.945
 30
0.000000
  70
    32
  0
VERTEX
  8
0
  5
BF56
 10
148.408
 20
147.952
 30
0.000000
  70
    32
  0
VERTEX
  8
0
  5
BF57
 10
148.422
 20
147.960
 30
0.000000
  70
    32
  0
VERTEX
  8
0
  5
BF58
 10
148.437
 20
147.968
 30
0.000000
  70
    32
  0
VERTEX
  8
0
  5
BF59
 10
148.451
 20
147.976
 30
0.000000
  70
    32
  0
VERTEX
  8
0
  5
BF5A
 10
148.465
 20
147.983
 30
0.000000
  70
    32
  0
VERTEX
  8
0
  5
BF5B
 10
148.479
 20
147.991
 30
0.000000
  70
    32
  0
VERTEX
  8
0
  5
BF5C
 10
148.493
 20
147.999
 30
0.000000
  70
    32
  0
VERTEX
  8
0
  5
BF5D
 10
148.507
 20
148.007
 30
0.000000
  70
    32
  0
VERTEX
  8
0
  5
BF5E
 10
148.521
 20
148.015
 30
0.000000
  70
    32
  0
VERTEX
  8
0
  5
BF5F
 10
148.535
 20
148.022
 30
0.000000
  70
    32
  0
VERTEX
  8
0
  5
BF60
 10
148.550
 20
148.030
 30
0.000000
  70
    32
  0
VERTEX
  8
0
  5
BF61
 10
148.564
 20
148.038
 30
0.000000
  70
    32
  0
VERTEX
  8
0
  5
BF62
 10
148.578
 20
148.046
 30
0.000000
  70
    32
  0
VERTEX
  8
0
  5
BF63
 10
148.592
 20
148.053
 30
0.000000
  70
    32
  0
VERTEX
  8
0
  5
BF64
 10
148.606
 20
148.061
 30
0.000000
  70
    32
  0
VERTEX
  8
0
  5
BF65
 10
148.620
 20
148.069
 30
0.000000
  70
    32
  0
VERTEX
  8
0
  5
BF66
 10
148.634
 20
148.077
 30
0.000000
  70
    32
  0
VERTEX
  8
0
  5
BF67
 10
148.647
 20
148.085
 30
0.000000
  70
    32
  0
VERTEX
  8
0
  5
BF68
 10
148.661
 20
148.093
 30
0.000000
  70
    32
  0
VERTEX
  8
0
  5
BF69
 10
148.675
 20
148.100
 30
0.000000
  70
    32
  0
VERTEX
  8
0
  5
BF6A
 10
148.689
 20
148.108
 30
0.000000
  70
    32
  0
VERTEX
  8
0
  5
BF6B
 10
148.703
 20
148.116
 30
0.000000
  70
    32
  0
VERTEX
  8
0
  5
BF6C
 10
148.717
 20
148.124
 30
0.000000
  70
    32
  0
VERTEX
  8
0
  5
BF6D
 10
148.731
 20
148.132
 30
0.000000
  70
    32
  0
VERTEX
  8
0
  5
BF6E
 10
148.745
 20
148.140
 30
0.000000
  70
    32
  0
VERTEX
  8
0
  5
BF6F
 10
148.759
 20
148.147
 30
0.000000
  70
    32
  0
VERTEX
  8
0
  5
BF70
 10
148.772
 20
148.155
 30
0.000000
  70
    32
  0
VERTEX
  8
0
  5
BF71
 10
148.786
 20
148.163
 30
0.000000
  70
    32
  0
VERTEX
  8
0
  5
BF72
 10
148.800
 20
148.171
 30
0.000000
  70
    32
  0
VERTEX
  8
0
  5
BF73
 10
148.814
 20
148.179
 30
0.000000
  70
    32
  0
VERTEX
  8
0
  5
BF74
 10
148.827
 20
148.187
 30
0.000000
  70
    32
  0
VERTEX
  8
0
  5
BF75
 10
148.841
 20
148.195
 30
0.000000
  70
    32
  0
VERTEX
  8
0
  5
BF76
 10
148.855
 20
148.203
 30
0.000000
  70
    32
  0
VERTEX
  8
0
  5
BF77
 10
148.869
 20
148.210
 30
0.000000
  70
    32
  0
VERTEX
  8
0
  5
BF78
 10
148.882
 20
148.218
 30
0.000000
  70
    32
  0
VERTEX
  8
0
  5
BF79
 10
148.896
 20
148.226
 30
0.000000
  70
    32
  0
VERTEX
  8
0
  5
BF7A
 10
148.910
 20
148.234
 30
0.000000
  70
    32
  0
VERTEX
  8
0
  5
BF7B
 10
148.923
 20
148.242
 30
0.000000
  70
    32
  0
VERTEX
  8
0
  5
BF7C
 10
148.937
 20
148.250
 30
0.000000
  70
    32
  0
VERTEX
  8
0
  5
BF7D
 10
148.951
 20
148.258
 30
0.000000
  70
    32
  0
VERTEX
  8
0
  5
BF7E
 10
148.964
 20
148.266
 30
0.000000
  70
    32
  0
VERTEX
  8
0
  5
BF7F
 10
148.978
 20
148.274
 30
0.000000
  70
    32
  0
VERTEX
  8
0
  5
BF80
 10
148.991
 20
148.282
 30
0.000000
  70
    32
  0
VERTEX
  8
0
  5
BF81
 10
149.005
 20
148.290
 30
0.000000
  70
    32
  0
VERTEX
  8
0
  5
BF82
 10
149.018
 20
148.297
 30
0.000000
  70
    32
  0
VERTEX
  8
0
  5
BF83
 10
149.032
 20
148.305
 30
0.000000
  70
    32
  0
VERTEX
  8
0
  5
BF84
 10
149.046
 20
148.313
 30
0.000000
  70
    32
  0
VERTEX
  8
0
  5
BF85
 10
149.059
 20
148.321
 30
0.000000
  70
    32
  0
VERTEX
  8
0
  5
BF86
 10
149.073
 20
148.329
 30
0.000000
  70
    32
  0
VERTEX
  8
0
  5
BF87
 10
149.086
 20
148.337
 30
0.000000
  70
    32
  0
VERTEX
  8
0
  5
BF88
 10
149.099
 20
148.345
 30
0.000000
  70
    32
  0
VERTEX
  8
0
  5
BF89
 10
149.113
 20
148.353
 30
0.000000
  70
    32
  0
VERTEX
  8
0
  5
BF8A
 10
149.126
 20
148.361
 30
0.000000
  70
    32
  0
VERTEX
  8
0
  5
BF8B
 10
149.140
 20
148.369
 30
0.000000
  70
    32
  0
VERTEX
  8
0
  5
BF8C
 10
149.153
 20
148.377
 30
0.000000
  70
    32
  0
VERTEX
  8
0
  5
BF8D
 10
149.166
 20
148.385
 30
0.000000
  70
    32
  0
VERTEX
  8
0
  5
BF8E
 10
149.180
 20
148.393
 30
0.000000
  70
    32
  0
VERTEX
  8
0
  5
BF8F
 10
149.193
 20
148.401
 30
0.000000
  70
    32
  0
VERTEX
  8
0
  5
BF90
 10
149.207
 20
148.409
 30
0.000000
  70
    32
  0
VERTEX
  8
0
  5
BF91
 10
149.220
 20
148.417
 30
0.000000
  70
    32
  0
VERTEX
  8
0
  5
BF92
 10
149.233
 20
148.425
 30
0.000000
  70
    32
  0
VERTEX
  8
0
  5
BF93
 10
149.246
 20
148.433
 30
0.000000
  70
    32
  0
VERTEX
  8
0
  5
BF94
 10
149.260
 20
148.441
 30
0.000000
  70
    32
  0
VERTEX
  8
0
  5
BF95
 10
149.273
 20
148.449
 30
0.000000
  70
    32
  0
VERTEX
  8
0
  5
BF96
 10
149.286
 20
148.457
 30
0.000000
  70
    32
  0
VERTEX
  8
0
  5
BF97
 10
149.299
 20
148.465
 30
0.000000
  70
    32
  0
VERTEX
  8
0
  5
BF98
 10
149.313
 20
148.473
 30
0.000000
  70
    32
  0
VERTEX
  8
0
  5
BF99
 10
149.326
 20
148.481
 30
0.000000
  70
    32
  0
VERTEX
  8
0
  5
BF9A
 10
149.339
 20
148.489
 30
0.000000
  70
    32
  0
VERTEX
  8
0
  5
BF9B
 10
149.352
 20
148.497
 30
0.000000
  70
    32
  0
SEQEND
  8
0
  5
BF9C
  0
ARC
  5
B53C
  8
0
 10
148.5595500833607
 20
145.68552699552271
 30
0.0
 40
2.0812161050709679
 50
119.1651065819143
 51
181.09012547675201
  0
LINE
  5
B53D
  8
0
 10
146.47871066629821
 20
142.9999975860118
 30
0.0
 11
146.47871066629821
 21
145.64593158662311
 31
0.0
  0
ARC
  5
B53E
  8
0
 10
148.4078348809085
 20
142.91033419979459
 30
0.0
 40
1.9312068139440941
 50
177.33887584974511
 51
261.56907906094
  0
LINE
  5
B53F
  8
0
 10
164.4999962002033
 20
169.9999970057977
 30
0.0
 11
147.33618494868219
 21
169.99999700579789
 31
0.0
  0
LINE
  5
B540
  8
0
 10
177.99999748170291
 20
140.99999725818611
 30
0.0
 11
148.12468734383521
 21
140.99999725818631
 31
0.0
  0
LINE
  5
B541
  8
0
 10
164.4999962002033
 20
191.9898951798676
 30
0.0
 11
177.9999974817031
 21
191.9898951798676
 31
0.0
  0
LINE
  5
B542
  8
0
 10
164.4999962002033
 20
183.04355744272451
 30
0.0
 11
177.9999974817031
 21
183.04355744272451
 31
0.0
  0
LINE
  5
B543
  8
0
 10
164.4999962002033
 20
140.9999972581862
 30
0.0
 11
164.4999962002033
 21
191.9898951798676
 31
0.0
  0
LINE
  5
B544
  8
0
 10
50.0
 20
56.999999284744263
 30
0.0
 11
93.999999761581179
 21
56.999999284744263
 31
0.0
  0
LINE
  5
B545
  8
0
 10
50.0
 20
56.999999284744263
 30
0.0
 11
50.0
 21
89.455598235199318
 31
0.0
  0
LINE
  5
B546
  8
0
 10
50.0
 20
56.999999284744263
 30
0.0
 11
51.000000163912773
 21
55.99999725818634
 31
0.0
  0
LINE
  5
B547
  8
0
 10
93.999999761581421
 20
89.455598235199318
 30
0.0
 11
93.999999761581421
 21
56.999999284744263
 31
0.0
  0
LINE
  5
B548
  8
0
 10
92.999999597668634
 20
55.99999725818634
 30
0.0
 11
93.999999761581421
 21
56.999999284744263
 31
0.0
  0
LINE
  5
B549
  8
0
 10
51.000000163912773
 20
55.99999725818634
 30
0.0
 11
92.999999597668634
 21
55.99999725818634
 31
0.0
  0
LINE
  5
B54A
  8
0
 10
93.999999761581421
 20
70.500000566244125
 30
0.0
 11
50.0
 21
70.500000566244125
 31
0.0
  0
LINE
  5
B54B
  8
1
 10
186.99999676644771
 20
152.09999600947279
 30
0.0
 11
176.99999950826111
 21
152.0999960094729
 31
0.0
  0
LINE
  5
B611
  8
0
 10
87.499999880791165
 20
84.577380585117112
 30
0.0
 11
87.499999880791165
 21
90.399997258186303
 31
0.0
  0
LINE
  5
B612
  8
0
 10
88.099999880791174
 20
90.99999725818634
 30
0.0
 11
89.899999880791185
 21
90.99999725818634
 31
0.0
  0
LINE
  5
B613
  8
0
 10
90.499999880791165
 20
90.399997258186303
 30
0.0
 11
90.499999880791165
 21
86.504901418757399
 31
0.0
  0
LINE
  5
B614
  8
0
 10
87.499999880791165
 20
90.399997258186303
 30
0.0
 11
88.099999880791174
 21
90.99999725818634
 31
0.0
  0
LINE
  5
B615
  8
0
 10
89.899999880791185
 20
90.99999725818634
 30
0.0
 11
90.499999880791165
 21
90.399997258186303
 31
0.0
  0
LINE
  5
B616
  8
0
 10
90.499999880791165
 20
90.399997258186374
 30
0.0
 11
87.499999880791165
 21
90.399997258186303
 31
0.0
  0
LINE
  5
B617
  8
3
 10
87.770499880790453
 20
84.732044722603405
 30
0.0
 11
87.770499880790453
 21
90.670497258185534
 31
0.0
  0
LINE
  5
B618
  8
3
 10
90.229499880791934
 20
86.310792503258824
 30
0.0
 11
90.229499880791934
 21
90.670497258185534
 31
0.0
  0
LINE
  5
B619
  8
0
 10
53.499999880790938
 20
86.504901418756916
 30
0.0
 11
53.499999880790938
 21
90.399997258186303
 31
0.0
  0
LINE
  5
B61A
  8
0
 10
54.099999880790961
 20
90.99999725818634
 30
0.0
 11
55.899999880790972
 21
90.99999725818634
 31
0.0
  0
LINE
  5
B61B
  8
0
 10
56.499999880790938
 20
90.399997258186303
 30
0.0
 11
56.499999880790938
 21
84.577380585116714
 31
0.0
  0
LINE
  5
B61C
  8
0
 10
53.499999880790938
 20
90.399997258186303
 30
0.0
 11
54.099999880790961
 21
90.99999725818634
 31
0.0
  0
LINE
  5
B61D
  8
0
 10
55.899999880790972
 20
90.99999725818634
 30
0.0
 11
56.499999880790938
 21
90.399997258186303
 31
0.0
  0
LINE
  5
B61E
  8
0
 10
56.499999880790938
 20
90.399997258186374
 30
0.0
 11
53.499999880790938
 21
90.399997258186303
 31
0.0
  0
LINE
  5
B61F
  8
3
 10
53.770499880790219
 20
86.310792503258298
 30
0.0
 11
53.770499880790219
 21
90.670497258185534
 31
0.0
  0
LINE
  5
B620
  8
3
 10
56.2294998807917
 20
84.732044722603007
 30
0.0
 11
56.2294998807917
 21
90.670497258185534
 31
0.0
  0
LINE
  5
B621
  8
1
 10
54.999999880790931
 20
92.999997258186355
 30
0.0
 11
54.999999880790931
 21
83.133928938998736
 31
0.0
  0
LINE
  5
B622
  8
1
 10
88.999999880791165
 20
92.999997258186355
 30
0.0
 11
88.999999880791165
 21
83.133928938999134
 31
0.0
  0
LINE
  5
B623
  8
0
 10
87.499999880790568
 20
248.41251185293689
 30
0.0
 11
87.499999880790568
 21
242.5898951798676
 31
0.0
  0
LINE
  5
B624
  8
0
 10
88.099999880790591
 20
241.98989517986769
 30
0.0
 11
89.899999880790617
 21
241.98989517986769
 31
0.0
  0
LINE
  5
B625
  8
0
 10
90.499999880790554
 20
242.5898951798676
 30
0.0
 11
90.499999880790554
 21
246.4849910192965
 31
0.0
  0
LINE
  5
B626
  8
0
 10
87.499999880790568
 20
242.5898951798676
 30
0.0
 11
88.099999880790591
 21
241.98989517986769
 31
0.0
  0
LINE
  5
B627
  8
0
 10
89.899999880790617
 20
241.98989517986769
 30
0.0
 11
90.499999880790554
 21
242.5898951798676
 31
0.0
  0
LINE
  5
B628
  8
0
 10
90.499999880790554
 20
242.5898951798676
 30
0.0
 11
87.499999880790568
 21
242.5898951798676
 31
0.0
  0
LINE
  5
B629
  8
3
 10
87.770499880789856
 20
248.25784771545059
 30
0.0
 11
87.770499880789856
 21
242.31939517986851
 31
0.0
  0
LINE
  5
B62A
  8
3
 10
90.229499880791323
 20
246.6790999347952
 30
0.0
 11
90.229499880791323
 21
242.31939517986851
 31
0.0
  0
LINE
  5
B62B
  8
0
 10
53.499999880790341
 20
246.48499101929701
 30
0.0
 11
53.499999880790341
 21
242.5898951798676
 31
0.0
  0
LINE
  5
B62C
  8
0
 10
54.099999880790357
 20
241.98989517986769
 30
0.0
 11
55.899999880790368
 21
241.98989517986769
 31
0.0
  0
LINE
  5
B62D
  8
0
 10
56.499999880790341
 20
242.5898951798676
 30
0.0
 11
56.499999880790341
 21
248.41251185293731
 31
0.0
  0
LINE
  5
B62E
  8
0
 10
53.499999880790341
 20
242.5898951798676
 30
0.0
 11
54.099999880790357
 21
241.98989517986769
 31
0.0
  0
LINE
  5
B62F
  8
0
 10
55.899999880790368
 20
241.98989517986769
 30
0.0
 11
56.499999880790341
 21
242.5898951798676
 31
0.0
  0
LINE
  5
B630
  8
0
 10
56.499999880790341
 20
242.5898951798676
 30
0.0
 11
53.499999880790341
 21
242.5898951798676
 31
0.0
  0
LINE
  5
B631
  8
3
 10
53.770499880789629
 20
246.6790999347956
 30
0.0
 11
53.770499880789629
 21
242.31939517986851
 31
0.0
  0
LINE
  5
B632
  8
3
 10
56.22949988079111
 20
248.25784771545091
 30
0.0
 11
56.22949988079111
 21
242.31939517986851
 31
0.0
  0
LINE
  5
B633
  8
1
 10
54.999999880790341
 20
239.98989517986769
 30
0.0
 11
54.999999880790341
 21
249.85596349905521
 31
0.0
  0
LINE
  5
B634
  8
1
 10
88.999999880790568
 20
239.98989517986769
 30
0.0
 11
88.999999880790568
 21
249.85596349905481
 31
0.0
  0
CIRCLE
  5
B635
  8
0
 10
54.99999988079955
 20
144.99999734927579
 30
0.0
 40
1.500000000000028
  0
CIRCLE
  5
B636
  8
0
 10
88.999999880779768
 20
144.9999979121653
 30
0.0
 40
1.5
  0
CIRCLE
  5
B637
  8
0
 10
54.99999988079955
 20
165.9999973492759
 30
0.0
 40
1.500000000000028
  0
CIRCLE
  5
B638
  8
0
 10
88.999999880779654
 20
165.9999979121653
 30
0.0
 40
1.5
  0
LINE
  5
B639
  8
0
 10
81.304043717681765
 20
169.9999968893826
 30
0.0
 11
81.304043717681765
 21
165.49999679205939
 31
0.0
  0
LINE
  5
B63A
  8
0
 10
91.999999433755278
 20
169.9999968893826
 30
0.0
 11
52.000000327825013
 21
169.9999968893826
 31
0.0
  0
ARC
  5
B63B
  8
0
 10
92.000000106381634
 20
167.99999723418341
 30
0.0
 40
1.9999996551993029
 50
359.99998740077763
 51
90.000019269325719
  0
LINE
  5
B63C
  8
0
 10
93.999999761580824
 20
165.75406269635999
 30
0.0
 11
93.999999761580824
 21
167.9999967943877
 31
0.0
  0
ARC
  5
B63D
  8
0
 10
91.999845363919206
 20
165.75416726480941
 30
0.0
 40
2.0001544003950928
 50
291.80441088217918
 51
359.99700456583088
  0
POLYLINE
  5
B63E
  8
0
 66
     1
 10
0.0
 20
0.0
 30
0.0
 70
   128
  0
VERTEX
  5
BE3D
  8
0
 10
89.257219061254858
 20
162.502884157002
 30
0.0
  0
VERTEX
  5
BE3E
  8
0
 10
90.459547191857695
 20
162.98381540924311
 30
0.0
  0
VERTEX
  5
BE3F
  8
0
 10
91.622232645749449
 20
163.44889019615951
 30
0.0
  0
VERTEX
  5
BE40
  8
0
 10
92.742781341075315
 20
163.89710944145921
 30
0.0
  0
SEQEND
  5
BE41
  8
0
  0
ARC
  5
B63F
  8
0
 10
89.999996528255409
 20
160.64593365023941
 30
0.0
 40
1.999995887508083
 50
111.8013367194749
 51
180.0000820635853
  0
LINE
  5
B640
  8
0
 10
88.000000640749334
 20
150.35406336188311
 30
0.0
 11
88.000000640749334
 21
160.64593078568581
 31
0.0
  0
ARC
  5
B641
  8
0
 10
90.000000933778196
 20
150.3540620830295
 30
0.0
 40
2.0000002930291712
 50
179.99996336355031
 51
248.198577832768
  0
POLYLINE
  5
B642
  8
0
 66
     1
 10
0.0
 20
0.0
 30
0.0
 70
   128
  0
VERTEX
  5
BE42
  8
0
 10
91.742781177162527
 20
147.5028844922781
 30
0.0
  0
VERTEX
  5
BE43
  8
0
 10
90.934002026914953
 20
147.8263961523771
 30
0.0
  0
VERTEX
  5
BE44
  8
0
 10
90.105190128087415
 20
148.15792091190809
 30
0.0
  0
VERTEX
  5
BE45
  8
0
 10
89.257219061254858
 20
148.49710859358311
 30
0.0
  0
SEQEND
  5
BE46
  8
0
  0
ARC
  5
B643
  8
0
 10
91.000002311068414
 20
145.6459330382836
 30
0.0
 40
1.999997286600238
 50
359.99995841293401
 51
68.198636144214845
  0
LINE
  5
B644
  8
0
 10
92.999999597668065
 20
142.99999758601189
 30
0.0
 11
92.999999597668065
 21
145.64593158662319
 31
0.0
  0
ARC
  5
B645
  8
0
 10
90.999998811354402
 20
142.99999804449999
 30
0.0
 40
2.0000007863138292
 50
270.00001313471012
 51
359.9999868652834
  0
LINE
  5
B646
  8
0
 10
53.000000491737723
 20
140.99999725818631
 30
0.0
 11
90.999999269842505
 21
140.99999725818631
 31
0.0
  0
ARC
  5
B647
  8
0
 10
52.999998422502898
 20
142.99999551677681
 30
0.0
 40
1.9999982585917351
 50
179.99994072073349
 51
270.00005927926321
  0
LINE
  5
B648
  8
0
 10
51.000000163912169
 20
145.64593158662319
 30
0.0
 11
51.000000163912169
 21
142.99999758601189
 31
0.0
  0
ARC
  5
B649
  8
0
 10
53.00033984360126
 20
145.64570122685871
 30
0.0
 40
2.0003396929531858
 50
111.80800364332239
 51
179.9934017995302
  0
POLYLINE
  5
B64A
  8
0
 66
     1
 10
0.0
 20
0.0
 30
0.0
 70
   128
  0
VERTEX
  5
BE47
  8
0
 10
54.742780700325369
 20
148.49710859358311
 30
0.0
  0
VERTEX
  5
BE48
  8
0
 10
53.89480963349282
 20
148.15792091190809
 30
0.0
  0
VERTEX
  5
BE49
  8
0
 10
53.065997734665267
 20
147.8263961523771
 30
0.0
  0
VERTEX
  5
BE4A
  8
0
 10
52.2572185844177
 20
147.5028844922781
 30
0.0
  0
SEQEND
  5
BE4B
  8
0
  0
ARC
  5
B64B
  8
0
 10
53.999998100702413
 20
150.35406257529959
 30
0.0
 40
2.000001020128662
 50
291.8014362697341
 51
0.0000225339455511
  0
LINE
  5
B64C
  8
0
 10
55.999999120830893
 20
160.64593078568581
 30
0.0
 11
55.999999120830893
 21
150.35406336188311
 31
0.0
  0
ARC
  5
B64D
  8
0
 10
54.000001179964073
 20
160.64593226004661
 30
0.0
 40
1.9999979408674531
 50
359.9999577626279
 51
68.198623454313292
  0
POLYLINE
  5
B64E
  8
0
 66
     1
 10
0.0
 20
0.0
 30
0.0
 70
   128
  0
VERTEX
  5
BE4C
  8
0
 10
51.25721842050492
 20
163.89710944145921
 30
0.0
  0
VERTEX
  5
BE4D
  8
0
 10
52.377767115830778
 20
163.44889019615951
 30
0.0
  0
VERTEX
  5
BE4E
  8
0
 10
53.540452569722532
 20
162.98381540924311
 30
0.0
  0
VERTEX
  5
BE4F
  8
0
 10
54.742780700325369
 20
162.502884157002
 30
0.0
  0
SEQEND
  5
BE50
  8
0
  0
ARC
  5
B64F
  8
0
 10
51.999998943704981
 20
165.75406201736899
 30
0.0
 40
1.9999989437056771
 50
179.99998054833091
 51
248.19860400365829
  0
LINE
  5
B650
  8
0
 10
49.999999999999403
 20
167.9999967943877
 30
0.0
 11
49.999999999999403
 21
165.75406269635999
 31
0.0
  0
LINE
  5
B651
  8
0
 10
62.695956043898462
 20
165.49999679205939
 30
0.0
 11
62.695956043898462
 21
169.9999968893826
 31
0.0
  0
LINE
  5
B652
  8
0
 10
81.304043717681765
 20
165.49999679205939
 30
0.0
 11
62.695956043898462
 21
165.49999679205939
 31
0.0
  0
ARC
  5
B653
  8
0
 10
79.969506739455227
 20
149.00026322262639
 30
0.0
 40
5.0002673424993773
 50
270.0030645547937
 51
359.99694611737692
  0
LINE
  5
B654
  8
0
 10
84.969774074851884
 20
157.2999965772033
 30
0.0
 11
84.969774074851884
 21
148.9999967068434
 31
0.0
  0
ARC
  5
B655
  8
0
 10
79.968510368330243
 20
157.2987329918123
 30
0.0
 40
5.0012638661461688
 50
0.0144759630115813
 51
89.985521368945697
  0
LINE
  5
B656
  8
0
 10
64.030225574969649
 20
162.29999669827521
 30
0.0
 11
79.969774186610579
 21
162.29999669827521
 31
0.0
  0
ARC
  5
B657
  8
0
 10
64.030490056549837
 20
157.29973232846601
 30
0.0
 40
5.0002643768038251
 50
90.003030575420667
 51
179.99697209262521
  0
LINE
  5
B658
  8
0
 10
59.03022568672835
 20
148.9999967068434
 30
0.0
 11
59.03022568672835
 21
157.2999965772033
 31
0.0
  0
ARC
  5
B659
  8
0
 10
64.031490054808685
 20
149.00126025512421
 30
0.0
 40
5.0012645276953167
 50
180.0144755359521
 51
269.9855137918737
  0
LINE
  5
B65A
  8
0
 10
79.969774186610579
 20
143.99999588727951
 30
0.0
 11
64.030225574969649
 21
143.99999588727951
 31
0.0
  0
CIRCLE
  5
B65B
  8
3
 10
55.000000090345878
 20
165.99999660299341
 30
0.0
 40
1.229499790445217
  0
CIRCLE
  5
B65C
  8
3
 10
88.999999668682307
 20
165.99999717034581
 30
0.0
 40
1.2295002121090299
  0
CIRCLE
  5
B65D
  8
3
 10
88.999999089128067
 20
144.99999664309411
 30
0.0
 40
1.2295
  0
CIRCLE
  5
B65E
  8
3
 10
54.999999902932437
 20
144.9999983007778
 30
0.0
 40
1.2294999778586511
  0
ARC
  5
B65F
  8
0
 10
51.999998763520779
 20
167.9999981258614
 30
0.0
 40
1.9999987635217329
 50
89.999955185957262
 51
180.00003814393941
  0
LINE
  5
B660
  8
1
 10
54.999999880790341
 20
141.4999973492759
 30
0.0
 11
54.999999880790341
 21
148.4999973492759
 31
0.0
  0
LINE
  5
B661
  8
1
 10
54.999999880790341
 20
162.49999734927579
 30
0.0
 11
54.999999880790341
 21
169.49999734927579
 31
0.0
  0
LINE
  5
B662
  8
1
 10
88.999999880790568
 20
141.4999979121653
 30
0.0
 11
88.999999880790568
 21
148.4999979121653
 31
0.0
  0
LINE
  5
B663
  8
1
 10
88.999999880790568
 20
162.4999979121653
 30
0.0
 11
88.999999880790568
 21
169.4999979121653
 31
0.0
  0
LINE
  5
B664
  8
1
 10
51.499999880799542
 20
165.99999717034581
 30
0.0
 11
58.49999988079955
 21
165.99999717034581
 31
0.0
  0
LINE
  5
B665
  8
1
 10
85.499999880779754
 20
165.99999717034581
 30
0.0
 11
92.499999880779541
 21
165.99999717034581
 31
0.0
  0
LINE
  5
B666
  8
1
 10
51.499999880799614
 20
144.99999664309411
 30
0.0
 11
58.499999880799493
 21
144.99999664309411
 31
0.0
  0
LINE
  5
B667
  8
1
 10
85.499999880779995
 20
144.99999664309411
 30
0.0
 11
92.499999880779541
 21
144.99999664309411
 31
0.0
  0
LINE
  5
B6BC
  8
0
 10
76.999999769031405
 20
276.9898951798678
 30
0.0
 11
76.999999769031405
 21
278.08989517390728
 31
0.0
  0
LINE
  5
B6BD
  8
0
 10
66.999999992548823
 20
278.08989517390728
 30
0.0
 11
66.999999992548823
 21
276.9898951798678
 31
0.0
  0
ARC
  5
B6BE
  8
0
 10
71.999999880790341
 20
274.23989345133191
 30
0.0
 40
5.8000000000000034
 50
41.589802069307552
 51
69.402981019376611
  0
ARC
  5
B6BF
  8
0
 10
71.999999880790341
 20
274.23989345133191
 30
0.0
 40
5.7999999999999581
 50
110.5970189806233
 51
138.41019793069239
  0
LINE
  5
B6D0
  8
0
 10
76.999999769031405
 20
278.08989517390728
 30
0.0
 11
66.999999992548823
 21
278.08989517390728
 31
0.0
  0
ARC
  5
B6D1
  8
0
 10
72.001728123655624
 20
274.18659777345772
 30
0.0
 40
5.8350870431141564
 50
69.638880392308295
 51
81.851739326477883
  0
POLYLINE
  5
B6D2
  8
0
 66
     1
 10
0.0
 20
0.0
 30
0.0
 70
   128
  0
VERTEX
  5
BE51
  8
0
 10
74.031964596360098
 20
279.65709872543817
 30
0.0
  0
VERTEX
  5
BE52
  8
0
 10
74.035653797908793
 20
279.6623662859202
 30
0.0
  0
VERTEX
  5
BE53
  8
0
 10
74.038289673625599
 20
279.66613255441189
 30
0.0
  0
VERTEX
  5
BE54
  8
0
 10
74.039871525018583
 20
279.66839008033281
 30
0.0
  0
VERTEX
  5
BE55
  8
0
 10
74.040398886426459
 20
279.6691463142634
 30
0.0
  0
SEQEND
  5
BE56
  8
0
  0
LINE
  5
B6D3
  8
0
 10
69.959600875153541
 20
279.6691463142634
 30
0.0
 11
69.968035165219902
 21
279.65709872543812
 31
0.0
  0
ARC
  5
B6D4
  8
0
 10
71.99827163792483
 20
274.18659777345772
 30
0.0
 40
5.8350870431141564
 50
98.148260673522117
 51
110.36111960769171
  0
ARC
  5
B6D5
  8
0
 10
71.361036444431505
 20
279.39954540173937
 30
0.0
 40
0.5943524782276488
 50
71.376897735063835
 51
108.62310226493609
  0
POLYLINE
  5
B6D6
  8
0
 66
     1
 10
0.0
 20
0.0
 30
0.0
 70
   128
  0
VERTEX
  5
BE57
  8
0
 10
71.550837816902771
 20
279.96277742087841
 30
0.0
  0
VERTEX
  5
BE58
  8
0
 10
71.554224775172173
 20
279.93867851793772
 30
0.0
  0
VERTEX
  5
BE59
  8
0
 10
71.558185078901573
 20
279.91050042212009
 30
0.0
  0
VERTEX
  5
BE5A
  8
0
 10
71.562715846811756
 20
279.8782617598772
 30
0.0
  0
VERTEX
  5
BE5B
  8
0
 10
71.56781384837754
 20
279.84198860824108
 30
0.0
  0
VERTEX
  5
BE5C
  8
0
 10
71.573475329204797
 20
279.80170331895351
 30
0.0
  0
VERTEX
  5
BE5D
  8
0
 10
71.579696272964924
 20
279.75743941962719
 30
0.0
  0
VERTEX
  5
BE5E
  8
0
 10
71.5864721685642
 20
279.7092267125845
 30
0.0
  0
VERTEX
  5
BE5F
  8
0
 10
71.593798097455263
 20
279.65709872543812
 30
0.0
  0
SEQEND
  5
BE60
  8
0
  0
ARC
  5
B6D7
  8
0
 10
71.999999880790341
 20
272.81533280200711
 30
0.0
 40
6.8538135982681592
 50
86.602286605811386
 51
93.397713394188614
  0
POLYLINE
  5
B6D8
  8
0
 66
     1
 10
0.0
 20
0.0
 30
0.0
 70
   128
  0
VERTEX
  5
BE61
  8
0
 10
72.449161944677456
 20
279.96277742087841
 30
0.0
  0
VERTEX
  5
BE62
  8
0
 10
72.445774986408054
 20
279.93867851793772
 30
0.0
  0
VERTEX
  5
BE63
  8
0
 10
72.441814682678654
 20
279.91050042212009
 30
0.0
  0
VERTEX
  5
BE64
  8
0
 10
72.437283914768472
 20
279.8782617598772
 30
0.0
  0
VERTEX
  5
BE65
  8
0
 10
72.432185913202673
 20
279.84198860824108
 30
0.0
  0
VERTEX
  5
BE66
  8
0
 10
72.42652443237543
 20
279.80170331895351
 30
0.0
  0
VERTEX
  5
BE67
  8
0
 10
72.420303488615303
 20
279.75743941962719
 30
0.0
  0
VERTEX
  5
BE68
  8
0
 10
72.413527593016013
 20
279.7092267125845
 30
0.0
  0
VERTEX
  5
BE69
  8
0
 10
72.40620166412495
 20
279.65709872543812
 30
0.0
  0
SEQEND
  5
BE6A
  8
0
  0
ARC
  5
B6D9
  8
0
 10
72.638963317148722
 20
279.18165350174979
 30
0.0
 40
0.803852684281603
 50
76.342664989238457
 51
103.6573350107615
  0
LINE
  5
B6F0
  8
0
 10
66.999999992548823
 20
278.98989178240299
 30
0.0
 11
66.499999910592436
 21
278.85591916739941
 31
0.0
  0
LINE
  5
B6F1
  8
0
 10
66.499999910592436
 20
277.12386779487127
 30
0.0
 11
66.999999992548823
 21
276.9898951798678
 31
0.0
  0
POLYLINE
  5
B6F2
  8
0
 66
     1
 10
0.0
 20
0.0
 30
0.0
 70
   128
  0
VERTEX
  5
BE6B
  8
0
 10
67.17334380373299
 20
278.72194282710552
 30
0.0
  0
VERTEX
  5
BE6C
  8
0
 10
68.419543394049782
 20
278.80282357862473
 30
0.0
  0
SEQEND
  5
BE6D
  8
0
  0
LINE
  5
B6F3
  8
0
 10
66.499999910592436
 20
278.72194282710552
 30
0.0
 11
67.17334380373299
 21
278.72194282710552
 31
0.0
  0
LINE
  5
B6F4
  8
0
 10
66.499999910592436
 20
278.85591916739941
 30
0.0
 11
66.499999910592436
 21
277.12386779487127
 31
0.0
  0
LINE
  5
B6F5
  8
0
 10
66.999999992548823
 20
278.98989178240299
 30
0.0
 11
68.671709650834231
 21
278.98989178240299
 31
0.0
  0
LINE
  5
B6F6
  8
0
 10
75.328290110746664
 20
278.98989178240299
 30
0.0
 11
76.999999769031177
 21
278.98989178240299
 31
0.0
  0
LINE
  5
B6F7
  8
0
 10
66.999999992548823
 20
277.25784413516521
 30
0.0
 11
66.499999910592436
 21
277.25784413516521
 31
0.0
  0
LINE
  5
B6F8
  8
0
 10
67.173343803732763
 20
278.08989517390728
 30
0.0
 11
67.17334380373299
 21
278.72194282710552
 31
0.0
  0
LINE
  5
B6F9
  8
0
 10
76.999999769031405
 20
278.98989178240299
 30
0.0
 11
77.499999850987791
 21
278.85591916739941
 31
0.0
  0
LINE
  5
B6FA
  8
0
 10
77.499999850987791
 20
277.12386779487127
 30
0.0
 11
76.999999769031405
 21
276.9898951798678
 31
0.0
  0
LINE
  5
B6FB
  8
0
 10
77.499999850987791
 20
278.85591916739941
 30
0.0
 11
77.499999850988019
 21
277.12386779487127
 31
0.0
  0
POLYLINE
  5
B6FC
  8
0
 66
     1
 10
0.0
 20
0.0
 30
0.0
 70
   128
  0
VERTEX
  5
BE6E
  8
0
 10
76.826655957847237
 20
278.72194282710552
 30
0.0
  0
VERTEX
  5
BE6F
  8
0
 10
75.580456367531127
 20
278.80282357862473
 30
0.0
  0
SEQEND
  5
BE70
  8
0
  0
LINE
  5
B6FD
  8
0
 10
76.826655957847237
 20
278.08989517390728
 30
0.0
 11
76.826655957847237
 21
278.72194282710552
 31
0.0
  0
LINE
  5
B6FE
  8
0
 10
77.499999850987791
 20
278.72194282710552
 30
0.0
 11
76.826655957847237
 21
278.72194282710552
 31
0.0
  0
LINE
  5
B6FF
  8
0
 10
76.999999769031405
 20
277.25784413516521
 30
0.0
 11
77.499999850987791
 21
277.25784413516521
 31
0.0
  0
LINE
  5
B700
  8
0
 10
76.499998755752443
 20
281.96102686226368
 30
0.0
 11
76.449998840689062
 21
281.98989413678652
 31
0.0
  0
LINE
  5
B701
  8
0
 10
67.549999058246016
 20
281.98989413678652
 30
0.0
 11
67.499999143182634
 21
281.96102686226368
 31
0.0
  0
LINE
  5
B702
  8
0
 10
76.449998840689062
 20
281.98989413678652
 30
0.0
 11
76.449998840689062
 21
282.98989243805408
 31
0.0
  0
LINE
  5
B703
  8
0
 10
67.549999058246016
 20
282.98989243805408
 30
0.0
 11
67.549999058246016
 21
281.98989413678652
 31
0.0
  0
LINE
  5
B704
  8
0
 10
67.499999143182634
 20
278.98989178240299
 30
0.0
 11
67.499999143182634
 21
281.96102686226362
 31
0.0
  0
LINE
  5
B705
  8
0
 10
67.499999143182634
 20
281.67235039174562
 30
0.0
 11
76.499998755752443
 21
281.67235039174562
 31
0.0
  0
LINE
  5
B706
  8
0
 10
76.499998755752443
 20
281.96102686226362
 30
0.0
 11
76.499998755752443
 21
278.98989178240299
 31
0.0
  0
LINE
  5
B707
  8
0
 10
67.549999058246016
 20
281.98989413678652
 30
0.0
 11
76.449998840689062
 21
281.98989413678652
 31
0.0
  0
LINE
  5
B708
  8
0
 10
67.549999058246016
 20
282.98989243805408
 30
0.0
 11
76.449998840689062
 21
282.98989243805408
 31
0.0
  0
LINE
  5
B743
  8
0
 10
66.499999910592436
 20
54.133973270654742
 30
0.0
 11
66.999999992548823
 21
54.000000655651149
 31
0.0
  0
LINE
  5
B744
  8
0
 10
76.999999769031405
 20
54.000000655651149
 30
0.0
 11
77.499999850987791
 21
54.133973270654742
 31
0.0
  0
LINE
  5
B745
  8
0
 10
77.499999850987791
 20
55.866024643182811
 30
0.0
 11
76.999999769031405
 21
55.999997258186397
 31
0.0
  0
LINE
  5
B746
  8
0
 10
66.999999992548823
 20
55.999997258186397
 30
0.0
 11
66.499999910592436
 21
55.866024643182811
 31
0.0
  0
LINE
  5
B747
  8
0
 10
71.326655871234223
 20
55.732048302888927
 30
0.0
 11
71.326655871234223
 21
54.267949610948619
 31
0.0
  0
LINE
  5
B748
  8
0
 10
71.326655871234223
 20
55.732048302888927
 30
0.0
 11
72.67334389034599
 21
55.732048302888927
 31
0.0
  0
LINE
  5
B749
  8
0
 10
72.67334389034599
 20
55.732048302888927
 30
0.0
 11
72.67334389034599
 21
54.267949610948619
 31
0.0
  0
LINE
  5
B74A
  8
0
 10
72.67334389034599
 20
54.267949610948619
 30
0.0
 11
71.326655871234223
 21
54.267949610948619
 31
0.0
  0
LINE
  5
B74B
  8
0
 10
67.17334380373299
 20
54.267949610948619
 30
0.0
 11
66.499999910592436
 21
54.267949610948619
 31
0.0
  0
POLYLINE
  5
B74C
  8
0
 66
     1
 10
0.0
 20
0.0
 30
0.0
 70
   128
  0
VERTEX
  5
BE71
  8
0
 10
71.326655871234223
 20
54.267949610948619
 30
0.0
  0
VERTEX
  5
BE72
  8
0
 10
69.262424204497933
 20
54.133976995945027
 30
0.0
  0
VERTEX
  5
BE73
  8
0
 10
67.17334380373299
 20
54.267949610948619
 30
0.0
  0
SEQEND
  5
BE74
  8
0
  0
POLYLINE
  5
B74D
  8
0
 66
     1
 10
0.0
 20
0.0
 30
0.0
 70
   128
  0
VERTEX
  5
BE75
  8
0
 10
76.826655957847237
 20
54.267949610948619
 30
0.0
  0
VERTEX
  5
BE76
  8
0
 10
74.76242417469561
 20
54.133976995945027
 30
0.0
  0
VERTEX
  5
BE77
  8
0
 10
72.67334389034599
 20
54.267949610948619
 30
0.0
  0
SEQEND
  5
BE78
  8
0
  0
LINE
  5
B74E
  8
0
 10
77.499999850987791
 20
54.267949610948619
 30
0.0
 11
76.826655957847237
 21
54.267949610948619
 31
0.0
  0
LINE
  5
B74F
  8
0
 10
76.999999769031405
 20
54.000000655651149
 30
0.0
 11
66.999999992548823
 21
54.000000655651149
 31
0.0
  0
LINE
  5
B750
  8
0
 10
77.499999850988019
 20
54.133973270654721
 30
0.0
 11
77.499999850987791
 21
55.866024643182811
 31
0.0
  0
LINE
  5
B751
  8
0
 10
76.826655957847237
 20
55.732048302888927
 30
0.0
 11
77.499999850987791
 21
55.732048302888927
 31
0.0
  0
POLYLINE
  5
B752
  8
0
 66
     1
 10
0.0
 20
0.0
 30
0.0
 70
   128
  0
VERTEX
  5
BE79
  8
0
 10
72.67334389034599
 20
55.732048302888927
 30
0.0
  0
VERTEX
  5
BE7A
  8
0
 10
74.737575557082295
 20
55.866020917892513
 30
0.0
  0
VERTEX
  5
BE7B
  8
0
 10
76.826655957847237
 20
55.732048302888927
 30
0.0
  0
SEQEND
  5
BE7C
  8
0
  0
POLYLINE
  5
B753
  8
0
 66
     1
 10
0.0
 20
0.0
 30
0.0
 70
   128
  0
VERTEX
  5
BE7D
  8
0
 10
67.17334380373299
 20
55.732048302888927
 30
0.0
  0
VERTEX
  5
BE7E
  8
0
 10
69.237575586884617
 20
55.866020917892513
 30
0.0
  0
VERTEX
  5
BE7F
  8
0
 10
71.326655871234223
 20
55.732048302888927
 30
0.0
  0
SEQEND
  5
BE80
  8
0
  0
LINE
  5
B754
  8
0
 10
66.499999910592436
 20
55.732048302888927
 30
0.0
 11
67.17334380373299
 21
55.732048302888927
 31
0.0
  0
LINE
  5
B755
  8
0
 10
66.499999910592436
 20
55.86525350809103
 30
0.0
 11
66.499999910592209
 21
54.133973270654707
 31
0.0
  0
LINE
  5
B756
  8
0
 10
76.826655957847237
 20
55.732048302888927
 30
0.0
 11
76.826655957847237
 21
54.267949610948619
 31
0.0
  0
LINE
  5
B757
  8
0
 10
67.17334380373299
 20
55.732048302888927
 30
0.0
 11
67.17334380373299
 21
54.267949610948619
 31
0.0
  0
LINE
  5
B758
  8
0
 10
76.499998755752443
 20
51.028865575790398
 30
0.0
 11
76.449998840689062
 21
50.999998301267617
 31
0.0
  0
LINE
  5
B759
  8
0
 10
67.549999058246016
 20
50.999998301267617
 30
0.0
 11
67.499999143182634
 21
51.028865575790398
 31
0.0
  0
LINE
  5
B75A
  8
0
 10
76.449998840689062
 20
50.999998301267617
 30
0.0
 11
76.449998840689062
 21
50.0
 31
0.0
  0
LINE
  5
B75B
  8
0
 10
67.549999058246016
 20
50.0
 30
0.0
 11
67.549999058246016
 21
50.999998301267617
 31
0.0
  0
LINE
  5
B75C
  8
0
 10
67.499999143182634
 20
54.000000655651093
 30
0.0
 11
67.499999143182634
 21
51.028865575790462
 31
0.0
  0
LINE
  5
B75D
  8
0
 10
67.499999143182634
 20
51.31754204630851
 30
0.0
 11
76.499998755752443
 21
51.31754204630851
 31
0.0
  0
LINE
  5
B75E
  8
0
 10
76.499998755752443
 20
51.028865575790519
 30
0.0
 11
76.499998755752443
 21
54.000000655651093
 31
0.0
  0
LINE
  5
B75F
  8
0
 10
67.549999058246016
 20
50.999998301267617
 30
0.0
 11
76.449998840689062
 21
50.999998301267617
 31
0.0
  0
LINE
  5
B760
  8
0
 10
67.549999058246016
 20
50.0
 30
0.0
 11
76.449998840689062
 21
50.0
 31
0.0
  0
LINE
  5
B7FB
  8
0
 10
179.2679484635585
 20
158.09999559596571
 30
0.0
 11
178.99999950826111
 21
157.09999636337551
 31
0.0
  0
LINE
  5
B7FC
  8
0
 10
178.99999950826111
 20
147.09999565557041
 30
0.0
 11
179.2679484635585
 21
146.09999549165761
 31
0.0
  0
LINE
  5
B7FD
  8
0
 10
180.7320471554988
 20
146.09999549165761
 30
0.0
 11
180.9999961107963
 21
147.09999565557041
 31
0.0
  0
LINE
  5
B7FE
  8
0
 10
180.9999961107963
 20
157.09999636337551
 30
0.0
 11
180.7320471554988
 21
158.09999559596571
 31
0.0
  0
LINE
  5
B7FF
  8
0
 10
180.7320471554988
 20
158.09999559596571
 30
0.0
 11
179.2679484635585
 21
158.09999559596571
 31
0.0
  0
LINE
  5
B800
  8
0
 10
179.2679484635585
 20
146.09999549165761
 30
0.0
 11
180.7320471554988
 21
146.09999549165761
 31
0.0
  0
LINE
  5
B801
  8
0
 10
179.2679484635585
 20
158.06209356114661
 30
0.0
 11
179.2679484635585
 21
158.09999559596571
 31
0.0
  0
POLYLINE
  5
B802
  8
0
 66
     1
 10
0.0
 20
0.0
 30
0.0
 70
   128
  0
VERTEX
  5
BE81
  8
0
 10
179.2679484635585
 20
155.6641772814134
 30
0.0
  0
VERTEX
  5
BE82
  8
0
 10
179.13397584855491
 20
156.85596284047159
 30
0.0
  0
VERTEX
  5
BE83
  8
0
 10
179.2679484635585
 20
158.06209356114661
 30
0.0
  0
SEQEND
  5
BE84
  8
0
  0
LINE
  5
B803
  8
0
 10
179.2679484635585
 20
154.4979118235448
 30
0.0
 11
179.2679484635585
 21
155.6641772814134
 31
0.0
  0
POLYLINE
  5
B804
  8
0
 66
     1
 10
0.0
 20
0.0
 30
0.0
 70
   128
  0
VERTEX
  5
BE85
  8
0
 10
179.2679484635585
 20
149.70207926407849
 30
0.0
  0
VERTEX
  5
BE86
  8
0
 10
179.13397212326461
 20
152.09999647513419
 30
0.0
  0
VERTEX
  5
BE87
  8
0
 10
179.2679484635585
 20
154.4979118235448
 30
0.0
  0
SEQEND
  5
BE88
  8
0
  0
LINE
  5
B805
  8
0
 10
179.2679484635585
 20
148.53581380620989
 30
0.0
 11
179.2679484635585
 21
149.70207926407849
 31
0.0
  0
POLYLINE
  5
B806
  8
0
 66
     1
 10
0.0
 20
0.0
 30
0.0
 70
   128
  0
VERTEX
  5
BE89
  8
0
 10
179.2679484635585
 20
146.13789845779931
 30
0.0
  0
VERTEX
  5
BE8A
  8
0
 10
179.13397584855491
 20
147.32968215421229
 30
0.0
  0
VERTEX
  5
BE8B
  8
0
 10
179.2679484635585
 20
148.53581380620989
 30
0.0
  0
SEQEND
  5
BE8C
  8
0
  0
LINE
  5
B807
  8
0
 10
179.2679484635585
 20
146.09999549165761
 30
0.0
 11
179.2679484635585
 21
146.13789845779931
 31
0.0
  0
LINE
  5
B808
  8
0
 10
179.2679484635585
 20
154.4979118235448
 30
0.0
 11
180.7320471554988
 21
154.4979118235448
 31
0.0
  0
POLYLINE
  5
B809
  8
0
 66
     1
 10
0.0
 20
0.0
 30
0.0
 70
   128
  0
VERTEX
  5
BE8D
  8
0
 10
180.7320471554988
 20
154.4979118235448
 30
0.0
  0
VERTEX
  5
BE8E
  8
0
 10
180.86601977050239
 20
152.1143425680736
 30
0.0
  0
VERTEX
  5
BE8F
  8
0
 10
180.7320471554988
 20
149.70207926407849
 30
0.0
  0
SEQEND
  5
BE90
  8
0
  0
LINE
  5
B80A
  8
0
 10
179.2679484635585
 20
149.70207926407849
 30
0.0
 11
180.7320471554988
 21
149.70207926407849
 31
0.0
  0
LINE
  5
B80B
  8
0
 10
179.2679484635585
 20
155.6641772814134
 30
0.0
 11
180.7320471554988
 21
155.6641772814134
 31
0.0
  0
LINE
  5
B80C
  8
0
 10
180.7320471554988
 20
155.6641772814134
 30
0.0
 11
180.7320471554988
 21
154.4979118235448
 31
0.0
  0
LINE
  5
B80D
  8
0
 10
180.7320471554988
 20
158.09999559596571
 30
0.0
 11
180.7320471554988
 21
158.06209356114661
 31
0.0
  0
LINE
  5
B80E
  8
0
 10
180.7320471554988
 20
146.13789845779931
 30
0.0
 11
180.7320471554988
 21
146.09999549165761
 31
0.0
  0
POLYLINE
  5
B80F
  8
0
 66
     1
 10
0.0
 20
0.0
 30
0.0
 70
   128
  0
VERTEX
  5
BE91
  8
0
 10
180.7320471554988
 20
148.53581380620989
 30
0.0
  0
VERTEX
  5
BE92
  8
0
 10
180.86601977050239
 20
147.3440301097969
 30
0.0
  0
VERTEX
  5
BE93
  8
0
 10
180.7320471554988
 20
146.13789845779931
 30
0.0
  0
SEQEND
  5
BE94
  8
0
  0
LINE
  5
B810
  8
0
 10
180.7320471554988
 20
149.70207926407849
 30
0.0
 11
180.7320471554988
 21
148.53581380620989
 31
0.0
  0
POLYLINE
  5
B811
  8
0
 66
     1
 10
0.0
 20
0.0
 30
0.0
 70
   128
  0
VERTEX
  5
BE95
  8
0
 10
180.7320471554988
 20
158.06209356114661
 30
0.0
  0
VERTEX
  5
BE96
  8
0
 10
180.86601977050239
 20
156.870308933411
 30
0.0
  0
VERTEX
  5
BE97
  8
0
 10
180.7320471554988
 20
155.6641772814134
 30
0.0
  0
SEQEND
  5
BE98
  8
0
  0
LINE
  5
B812
  8
0
 10
180.9999961107963
 20
157.09999636337631
 30
0.0
 11
180.9999961107963
 21
147.0999956555701
 31
0.0
  0
LINE
  5
B813
  8
0
 10
179.2679484635585
 20
148.53581380620989
 30
0.0
 11
180.7320471554988
 21
148.53581380620989
 31
0.0
  0
LINE
  5
B814
  8
0
 10
179.2679484635585
 20
158.06209356114661
 30
0.0
 11
180.7320471554988
 21
158.06209356114661
 31
0.0
  0
LINE
  5
B815
  8
0
 10
179.2679484635585
 20
146.13789845779931
 30
0.0
 11
180.7320471554988
 21
146.13789845779931
 31
0.0
  0
LINE
  5
B817
  8
0
 10
183.68245472013911
 20
157.0999963633756
 30
0.0
 11
180.9999961107965
 21
157.0999963633756
 31
0.0
  0
LINE
  5
B818
  8
0
 10
180.9999961107965
 20
147.0999956555705
 30
0.0
 11
183.68245472013911
 21
147.0999956555705
 31
0.0
  0
LINE
  5
B819
  8
0
 10
183.68245472013911
 20
147.0999956555705
 30
0.0
 11
183.99999846518
 21
147.64999565259021
 31
0.0
  0
LINE
  5
B81A
  8
0
 10
183.99999846518
 20
156.54999636635591
 30
0.0
 11
183.68245472013911
 21
157.0999963633756
 31
0.0
  0
LINE
  5
B81B
  8
0
 10
183.99999846518
 20
147.64999565259021
 30
0.0
 11
184.99999676644759
 21
147.64999565259021
 31
0.0
  0
LINE
  5
B81C
  8
0
 10
184.99999676644759
 20
156.54999636635591
 30
0.0
 11
183.99999846518
 21
156.54999636635591
 31
0.0
  0
LINE
  5
B81D
  8
0
 10
183.68245472013911
 20
154.27944589928191
 30
0.0
 11
180.9999961107965
 21
154.27944589928191
 31
0.0
  0
ARC
  5
B81E
  8
0
 10
175.53569468950221
 20
152.0999964751343
 30
0.0
 40
8.4332495984173423
 50
345.02276113987517
 51
14.97723886012475
  0
LINE
  5
B81F
  8
0
 10
180.9999961107965
 20
149.9205470509867
 30
0.0
 11
183.68245472013911
 21
149.9205470509867
 31
0.0
  0
LINE
  5
B820
  8
0
 10
183.68245472013911
 20
157.0999963633756
 30
0.0
 11
183.68245472013911
 21
154.27944589928191
 31
0.0
  0
LINE
  5
B821
  8
0
 10
183.68245472013911
 20
149.9205470509867
 30
0.0
 11
183.68245472013911
 21
147.0999956555705
 31
0.0
  0
LINE
  5
B822
  8
0
 10
183.99999846518
 20
156.54999636635591
 30
0.0
 11
183.99999846518
 21
147.64999565259029
 31
0.0
  0
LINE
  5
B823
  8
0
 10
184.99999676644759
 20
156.54999636635591
 30
0.0
 11
184.99999676644779
 21
147.64999565259029
 31
0.0
  0
LINE
  5
BD78
  8
0
 10
145.54439854621819
 20
167.49999849498261
 30
0.0
 11
144.59999950826099
 21
167.49999849498261
 31
0.0
  0
LINE
  5
BD79
  8
0
 10
143.99999950826111
 20
166.89999849498261
 30
0.0
 11
143.99999950826111
 21
165.0999984949826
 31
0.0
  0
LINE
  5
BD7A
  8
0
 10
144.59999950826099
 20
164.49999849498261
 30
0.0
 11
145.96809340110531
 21
164.49999849498261
 31
0.0
  0
LINE
  5
BD7B
  8
0
 10
144.59999950826099
 20
167.49999849498261
 30
0.0
 11
143.99999950826111
 21
166.89999849498261
 31
0.0
  0
LINE
  5
BD7C
  8
0
 10
143.99999950826111
 20
165.0999984949826
 30
0.0
 11
144.59999950826099
 21
164.49999849498261
 31
0.0
  0
LINE
  5
BD7D
  8
0
 10
144.59999950826099
 20
164.49999849498261
 30
0.0
 11
144.59999950826099
 21
167.49999849498261
 31
0.0
  0
LINE
  5
BD7E
  8
3
 10
145.5443985462183
 20
167.2294984949834
 30
0.0
 11
144.32949950826179
 21
167.2294984949834
 31
0.0
  0
LINE
  5
BD7F
  8
3
 10
145.79301616244771
 20
164.77049849498181
 30
0.0
 11
144.32949950826179
 21
164.77049849498189
 31
0.0
  0
LINE
  5
BD80
  8
1
 10
141.999999508261
 20
165.99999849498261
 30
0.0
 11
147.5443985462183
 21
165.99999849498261
 31
0.0
  0
LINE
  5
BD81
  8
0
 10
146.64432251135361
 20
146.49999849498161
 30
0.0
 11
144.59999950826099
 21
146.49999849498161
 31
0.0
  0
LINE
  5
BD82
  8
0
 10
143.99999950826111
 20
145.8999984949815
 30
0.0
 11
143.99999950826111
 21
144.09999849498149
 31
0.0
  0
LINE
  5
BD83
  8
0
 10
144.59999950826099
 20
143.49999849498161
 30
0.0
 11
146.4787106662983
 21
143.49999849498161
 31
0.0
  0
LINE
  5
BD84
  8
0
 10
144.59999950826099
 20
146.49999849498161
 30
0.0
 11
143.99999950826111
 21
145.8999984949815
 31
0.0
  0
LINE
  5
BD85
  8
0
 10
143.99999950826111
 20
144.09999849498149
 30
0.0
 11
144.59999950826099
 21
143.49999849498161
 31
0.0
  0
LINE
  5
BD86
  8
0
 10
144.59999950826099
 20
143.49999849498161
 30
0.0
 11
144.59999950826099
 21
146.49999849498161
 31
0.0
  0
LINE
  5
BD87
  8
3
 10
146.55068087811549
 20
146.22949849498229
 30
0.0
 11
144.32949950826179
 21
146.22949849498229
 31
0.0
  0
LINE
  5
BD88
  8
3
 10
146.4787106662983
 20
143.77049849498081
 30
0.0
 11
144.32949950826179
 21
143.77049849498081
 31
0.0
  0
LINE
  5
BD89
  8
1
 10
141.999999508261
 20
144.9999984949815
 30
0.0
 11
148.4787106662983
 21
144.9999984949815
 31
0.0
  0
ENDSEC
  0
EOF
