  0
SECTION
  2
HEADER
  9
$ACADVER
  1
AC1009
  9
$INSBASE
 10
0.0
 20
0.0
 30
0.0
  9
$EXTMIN
 10
0.0
 20
-2.960436562073669
 30
0.0
  9
$EXTMAX
 10
387.79498058801818
 20
253.92412490269379
 30
0.0
  9
$LIMMIN
 10
0.0
 20
0.0
  9
$LIMMAX
 10
375.0
 20
270.0
  9
$ORTHOMODE
 70
     1
  9
$REGENMODE
 70
     1
  9
$FILLMODE
 70
     1
  9
$QTEXTMODE
 70
     0
  9
$MIRRTEXT
 70
     0
  9
$DRAGMODE
 70
     2
  9
$LTSCALE
 40
10.0
  9
$OSMODE
 70
    37
  9
$ATTMODE
 70
     1
  9
$TEXTSIZE
 40
0.2
  9
$TRACEWID
 40
0.05
  9
$TEXTSTYLE
  7
K90
  9
$CLAYER
  8
0
  9
$CELTYPE
  6
BYLAYER
  9
$CECOLOR
 62
   256
  9
$DIMSCALE
 40
1.0
  9
$DIMASZ
 40
3.0
  9
$DIMEXO
 40
2.0
  9
$DIMDLI
 40
0.38
  9
$DIMRND
 40
0.0
  9
$DIMDLE
 40
0.0
  9
$DIMEXE
 40
2.0
  9
$DIMTP
 40
0.0
  9
$DIMTM
 40
0.0
  9
$DIMTXT
 40
3.2000000000000002
  9
$DIMCEN
 40
0.0
  9
$DIMTSZ
 40
0.0
  9
$DIMTOL
 70
     0
  9
$DIMLIM
 70
     0
  9
$DIMTIH
 70
     0
  9
$DIMTOH
 70
     0
  9
$DIMSE1
 70
     0
  9
$DIMSE2
 70
     0
  9
$DIMTAD
 70
     1
  9
$DIMZIN
 70
     8
  9
$DIMBLK
  1

  9
$DIMASO
 70
     1
  9
$DIMSHO
 70
     0
  9
$DIMPOST
  1

  9
$DIMAPOST
  1

  9
$DIMALT
 70
     0
  9
$DIMALTD
 70
     2
  9
$DIMALTF
 40
25.399999999999999
  9
$DIMLFAC
 40
1.0
  9
$DIMTOFL
 70
     1
  9
$DIMTVP
 40
1.6000000000000001
  9
$DIMTIX
 70
     0
  9
$DIMSOXD
 70
     0
  9
$DIMSAH
 70
     0
  9
$DIMBLK1
  1

  9
$DIMBLK2
  1

  9
$DIMSTYLE
  2
STANDARD
  9
$DIMCLRD
 70
     0
  9
$DIMCLRE
 70
     0
  9
$DIMCLRT
 70
     0
  9
$DIMTFAC
 40
1.0
  9
$DIMGAP
 40
0.09
  9
$LUNITS
 70
     2
  9
$LUPREC
 70
     1
  9
$SKETCHINC
 40
0.1
  9
$FILLETRAD
 40
0.0
  9
$AUNITS
 70
     0
  9
$AUPREC
 70
     0
  9
$MENU
  1
E:\r13\win\SUPPORT\ACAD
  9
$ELEVATION
 40
0.0
  9
$PELEVATION
 40
0.0
  9
$THICKNESS
 40
0.0
  9
$LIMCHECK
 70
     0
  9
$BLIPMODE
 70
     0
  9
$CHAMFERA
 40
0.0
  9
$CHAMFERB
 40
0.0
  9
$SKPOLY
 70
     0
  9
$TDCREATE
 40
2449840.60318287
  9
$TDUPDATE
 40
2459657.6534806248
  9
$TDINDWG
 40
0.6612001157
  9
$TDUSRTIMER
 40
0.6612001157
  9
$USRTIMER
 70
     1
  9
$ANGBASE
 50
0.0
  9
$ANGDIR
 70
     0
  9
$PDMODE
 70
     0
  9
$PDSIZE
 40
0.0
  9
$PLINEWID
 40
0.0
  9
$COORDS
 70
     1
  9
$SPLFRAME
 70
     0
  9
$SPLINETYPE
 70
     6
  9
$SPLINESEGS
 70
     8
  9
$ATTDIA
 70
     0
  9
$ATTREQ
 70
     1
  9
$HANDLING
 70
     1
  9
$HANDSEED
  5
A945
  9
$SURFTAB1
 70
     6
  9
$SURFTAB2
 70
     6
  9
$SURFTYPE
 70
     6
  9
$SURFU
 70
     6
  9
$SURFV
 70
     6
  9
$UCSNAME
  2

  9
$UCSORG
 10
0.0
 20
0.0
 30
0.0
  9
$UCSXDIR
 10
1.0
 20
0.0
 30
0.0
  9
$UCSYDIR
 10
0.0
 20
1.0
 30
0.0
  9
$PUCSNAME
  2

  9
$PUCSORG
 10
0.0
 20
0.0
 30
0.0
  9
$PUCSXDIR
 10
1.0
 20
0.0
 30
0.0
  9
$PUCSYDIR
 10
0.0
 20
1.0
 30
0.0
  9
$USERI1
 70
     0
  9
$USERI2
 70
     1
  9
$USERI3
 70
     1
  9
$USERI4
 70
     0
  9
$USERI5
 70
     0
  9
$USERR1
 40
0.0
  9
$USERR2
 40
0.0
  9
$USERR3
 40
0.0
  9
$USERR4
 40
0.0
  9
$USERR5
 40
0.0
  9
$WORLDVIEW
 70
     1
  9
$SHADEDGE
 70
     3
  9
$SHADEDIF
 70
    70
  9
$TILEMODE
 70
     1
  9
$MAXACTVP
 70
    16
  9
$PLIMCHECK
 70
     0
  9
$PEXTMIN
 10
1.0000000000000000E+020
 20
1.0000000000000000E+020
 30
1.0000000000000000E+020
  9
$PEXTMAX
 10
-1.0000000000000000E+020
 20
-1.0000000000000000E+020
 30
-1.0000000000000000E+020
  9
$PLIMMIN
 10
0.0
 20
0.0
  9
$PLIMMAX
 10
12.0
 20
9.0
  9
$UNITMODE
 70
     0
  9
$VISRETAIN
 70
     0
  9
$PLINEGEN
 70
     0
  9
$PSLTSCALE
 70
     0
  0
ENDSEC
  0
SECTION
  2
TABLES
  0
TABLE
  2
VPORT
 70
     1
  0
VPORT
  2
*ACTIVE
 70
     0
 10
0.0
 20
0.0
 11
1.0
 21
1.0
 12
362.23203026481713
 22
150.0
 13
0.0
 23
0.0
 14
10.0
 24
10.0
 15
10.0
 25
10.0
 16
0.0
 26
0.0
 36
1.0
 17
0.0
 27
0.0
 37
0.0
 40
300.0
 41
2.4148802017654472
 42
50.0
 43
0.0
 44
0.0
 50
0.0
 51
0.0
 71
     0
 72
   500
 73
     1
 74
     0
 75
     0
 76
     0
 77
     0
 78
     0
  0
ENDTAB
  0
TABLE
  2
LTYPE
 70
     4
  0
LTYPE
  2
CONTINUOUS
 70
     0
  3
Solid Line
 72
    65
 73
     0
 40
0.0
  0
LTYPE
  2
CENTER
 70
     0
  3
____ _ ____ _ ____ _ ____ _ ____ _ ____ _ ____
 72
    65
 73
     4
 40
2.0
 49
1.25
 49
-0.25
 49
0.25
 49
-0.25
  0
LTYPE
  2
HIDDEN
 70
     0
  3
_ _ _ _ _ _ _ _ _ _ _ _ _ _ _ _ _ _ _ _ _ _ _
 72
    65
 73
     2
 40
0.375
 49
0.25
 49
-0.125
  0
LTYPE
  2
PHANTOM2
 70
     0
  3
___ _ _ ___ _ _ ___ _ _ ___ _ _
 72
    65
 73
     6
 40
1.25
 49
0.625
 49
-0.125
 49
0.125
 49
-0.125
 49
0.125
 49
-0.125
  0
ENDTAB
  0
TABLE
  2
LAYER
 70
     6
  0
LAYER
  2
0
 70
     0
 62
     7
  6
CONTINUOUS
  0
LAYER
  2
1
 70
     0
 62
     1
  6
CENTER
  0
LAYER
  2
2
 70
     0
 62
     2
  6
HIDDEN
  0
LAYER
  2
DEFPOINTS
 70
     0
 62
     7
  6
CONTINUOUS
  0
LAYER
  2
3
 70
     0
 62
     3
  6
CONTINUOUS
  0
LAYER
  2
4
 70
     0
 62
     4
  6
CONTINUOUS
  0
ENDTAB
  0
TABLE
  2
STYLE
 70
     3
  0
STYLE
  2
STANDARD
 70
     0
 40
0.0
 41
1.0
 50
0.0
 71
     0
 42
0.2
  3
romans.shx
  4

  0
STYLE
  2
K90
 70
     0
 40
0.0
 41
1.0
 50
0.0
 71
     0
 42
0.2
  3
romans.shx
  4

  0
STYLE
  2
STANDARD1
 70
     0
 40
0.0
 41
1.0
 50
0.0
 71
     0
 42
3.0
  3
txt
  4

  0
ENDTAB
  0
TABLE
  2
VIEW
 70
     1
  0
VIEW
  2
ALL
 70
     0
 40
179.5384664489153
 10
135.0
 20
89.769233224457665
 41
0.0
 11
0.0
 21
0.0
 31
1.0
 12
0.0
 22
0.0
 32
0.0
 42
0.0
 43
0.0
 44
0.0
 50
0.0
 71
     0
  0
ENDTAB
  0
TABLE
  2
UCS
 70
     0
  0
ENDTAB
  0
TABLE
  2
APPID
 70
    11
  0
APPID
  2
ACAD
 70
     0
  0
APPID
  2
ACAD_MLEADERVER
 70
     0
  0
APPID
  2
ACAD_NAV_VCDISPLAY
 70
     0
  0
APPID
  2
ACAD_EXEMPT_FROM_CAD_STANDARDS
 70
     0
  0
APPID
  2
ACAD_DSTYLE_DIMRADIAL_EXTENSION
 70
     0
  0
APPID
  2
ACAD_DSTYLE_DIMJAG
 70
     0
  0
APPID
  2
ACAD_DSTYLE_DIMTALN
 70
     0
  0
APPID
  2
ACAD_PSEXT
 70
     0
  0
APPID
  2
ACAD_DSTYLE_DIMBREAK
 70
     0
  0
APPID
  2
ACAECLAYERSTANDARD
 70
     0
  0
APPID
  2
ACCMTRANSPARENCY
 70
     0
  0
ENDTAB
  0
TABLE
  2
DIMSTYLE
 70
     1
  0
DIMSTYLE
  2
STANDARD
 70
     0
  3

  4

  5

  6

  7

 40
1.0
 41
0.18
 42
0.0625
 43
0.38
 44
0.18
 45
0.0
 46
0.0
 47
0.0
 48
0.0
140
0.18
141
0.09
142
0.0
143
25.399999999999999
144
1.0
145
0.0
146
1.0
147
0.09
 71
     0
 72
     0
 73
     1
 74
     1
 75
     0
 76
     0
 77
     0
 78
     0
170
     0
171
     2
172
     0
173
     0
174
     0
175
     0
176
     0
177
     0
178
     0
  0
ENDTAB
  0
ENDSEC
  0
SECTION
  2
BLOCKS
  0
BLOCK
  8
0
  2
$MODEL_SPACE
 70
     0
 10
0.0
 20
0.0
 30
0.0
  3
$MODEL_SPACE
  1

  0
ENDBLK
  5
2DF
  8
0
  0
BLOCK
 67
     1
  8
0
  2
$PAPER_SPACE
 70
     0
 10
0.0
 20
0.0
 30
0.0
  3
$PAPER_SPACE
  1

  0
ENDBLK
  5
2DB
 67
     1
  8
0
  0
ENDSEC
  0
SECTION
  2
ENTITIES
  0
TEXT
  5
67C
  8
0
 62
     3
 10
0.0
 20
0.0
 30
0.0
 40
10.0
  1
SSR-EF1110
  7
STANDARD1
  0
ARC
  5
8350
  8
0
 10
134.83310897177759
 20
269.75283155461977
 30
0.0
 40
31.5
 50
259.9637084272706
 51
314.29979259004222
  0
LINE
  5
837F
  8
1
 10
134.83310897177759
 20
148.52861735969779
 30
0.0
 11
134.83310897177759
 21
118.52861687540999
 31
0.0
  0
LINE
  5
8381
  8
1
 10
134.83310897177759
 20
223.39550802728371
 30
0.0
 11
134.83310897177759
 21
243.2528315546198
 31
0.0
  0
LINE
  5
8388
  8
1
 10
134.83310897177759
 20
58.671293348073959
 30
0.0
 11
134.83310897177759
 21
78.528616875410066
 31
0.0
  0
LINE
  5
8393
  8
1
 10
151.83325497943019
 20
138.14861699908971
 30
0.0
 11
151.83325497943019
 21
126.5086169990897
 31
0.0
  0
LINE
  5
8394
  8
1
 10
146.0132549794302
 20
132.32861699908969
 30
0.0
 11
157.6532549794301
 21
132.32861699908969
 31
0.0
  0
LINE
  5
8397
  8
1
 10
117.8329629641255
 20
138.1486169917639
 30
0.0
 11
117.8329629641248
 21
126.50861700641551
 31
0.0
  0
LINE
  5
8398
  8
1
 10
123.6532549794301
 20
132.3286169990906
 30
0.0
 11
112.0132549794302
 21
132.32861699909159
 31
0.0
  0
LINE
  5
83A1
  8
0
 10
326.79723532634881
 20
169.2305071279408
 30
0.0
 11
336.1949804587951
 21
169.2305071279408
 31
0.0
  0
LINE
  5
83A2
  8
0
 10
336.1949804587951
 20
177.76050921529551
 30
0.0
 11
326.79721111196181
 21
177.76050921529551
 31
0.0
  0
LINE
  5
83A3
  8
0
 10
336.1949804587951
 20
169.2305071279408
 30
0.0
 11
336.69498147207401
 21
169.51918359845891
 31
0.0
  0
LINE
  5
83A4
  8
0
 10
336.69498147207401
 20
177.4718327447774
 30
0.0
 11
336.1949804587951
 21
177.76050921529551
 31
0.0
  0
ARC
  5
83A5
  8
0
 10
366.69498058819931
 20
155.9955080272839
 30
0.0
 40
14.5
 50
270.0
 51
359.43861214594119
  0
ARC
  5
83A6
  8
0
 10
366.69498058819931
 20
155.9955080272839
 30
0.0
 40
20.500000000000021
 50
270.0
 51
359.25813688436051
  0
LINE
  5
83A7
  8
0
 10
336.69498147207401
 20
170.49550767987981
 30
0.0
 11
366.6949826641669
 21
170.49550767987981
 31
0.0
  0
LINE
  5
83A8
  8
0
 10
366.6949826641669
 20
176.4955086633565
 30
0.0
 11
336.69498147207401
 21
176.4955086633565
 31
0.0
  0
LINE
  5
83A9
  8
0
 10
366.6949826641669
 20
141.49550851434489
 30
0.0
 11
334.1949801309695
 21
141.49550851434489
 31
0.0
  0
LINE
  5
83AA
  8
0
 10
334.1949801309695
 20
135.4955075308682
 30
0.0
 11
366.6949826641669
 21
135.4955075308682
 31
0.0
  0
ARC
  5
83AB
  8
0
 10
320.97672294638028
 20
168.92754092431579
 30
0.0
 40
0.2038126311020091
 50
134.388492417387
 51
179.3131205795595
  0
ARC
  5
83AC
  8
0
 10
320.9844780885449
 20
178.06577665893329
 30
0.0
 40
0.2117353166376769
 50
181.29003716293511
 51
224.00717922460501
  0
ARC
  5
83AD
  8
0
 10
312.69498058819931
 20
173.4955080272878
 30
0.0
 40
4.8999999999960364
 50
90.0
 51
270.95762941518888
  0
LINE
  5
83AE
  8
0
 10
334.1949801309695
 20
142.49550867825761
 30
0.0
 11
333.86187212306157
 21
142.49550867825761
 31
0.0
  0
ARC
  5
83E2
  8
0
 10
312.67857452654772
 20
168.79553666129229
 30
0.0
 40
0.1499999999999787
 50
84.328105085964935
 51
89.799999999989637
  0
ARC
  5
83EC
  8
0
 10
310.94193801009328
 20
177.85633842060881
 30
0.0
 40
0.1499999999999772
 50
280.87414293548107
 51
291.89999999998651
  0
ARC
  5
83F6
  8
0
 10
310.18104864157129
 20
177.4666775487359
 30
0.0
 40
0.1500042930785699
 50
302.33605963066913
 51
348.74918198120838
  0
LINE
  5
83F7
  8
0
 10
310.37932777541778
 20
177.6945976540448
 30
0.0
 11
310.32817022639421
 21
177.43741106241961
 31
0.0
  0
ARC
  5
83F8
  8
0
 10
310.52645045796891
 20
177.66533320750921
 30
0.0
 40
0.1500049717575751
 50
117.92331111216539
 51
168.75002792635951
  0
ARC
  5
83F9
  8
0
 10
310.524436110625
 20
177.66431213345689
 30
0.0
 40
0.1499808681796852
 50
73.944003663570072
 51
117.0606816099061
  0
LINE
  5
83FA
  8
0
 10
310.56591732191941
 20
177.80844252556579
 30
0.0
 11
310.90046236055991
 21
177.71218847483411
 31
0.0
  0
POLYLINE
  5
83FB
  8
0
 66
     1
 10
0.0
 20
0.0
 30
0.0
 70
   128
  0
VERTEX
  5
A697
  8
0
 10
310.90046236055991
 20
177.71218847483411
 30
0.0
  0
VERTEX
  5
A698
  8
0
 10
310.94053903359082
 20
177.70634349435591
 30
0.0
  0
VERTEX
  5
A699
  8
0
 10
310.97057232397702
 20
177.70909648388641
 30
0.0
  0
SEQEND
  5
A69A
  8
0
  0
LINE
  5
83FC
  8
0
 10
313.04498811948201
 20
168.6984462663533
 30
0.0
 11
312.77123702454469
 21
168.91349237412231
 31
0.0
  0
ARC
  5
83FD
  8
0
 10
313.57969245691112
 20
168.87954377794671
 30
0.0
 40
0.1499818580841912
 50
100.84788182491759
 51
139.73738343819491
  0
LINE
  5
83FE
  8
0
 10
313.46524277466438
 20
168.97647585719841
 30
0.0
 11
313.24714006620547
 21
168.71898379176869
 31
0.0
  0
ARC
  5
83FF
  8
0
 10
313.13268658869328
 20
168.81592736505479
 30
0.0
 40
0.1499921828499572
 50
276.3255771222727
 51
319.73496996273019
  0
ARC
  5
8400
  8
0
 10
313.13764405556122
 20
168.8163791711471
 30
0.0
 40
0.1499776400793204
 50
231.8444652363699
 51
274.42384601776291
  0
ARC
  5
8401
  8
0
 10
312.67853555163379
 20
168.79544479169249
 30
0.0
 40
0.1500959519685266
 50
51.857841117848828
 51
84.332993495866845
  0
LINE
  5
8402
  8
0
 10
309.6008426858773
 20
177.18606572598239
 30
0.0
 11
309.52280623602769
 21
176.79375167936101
 31
0.0
  0
ARC
  5
8403
  8
0
 10
309.7479688603878
 20
177.156793835369
 30
0.0
 40
0.1500098490304775
 50
91.299016624172253
 51
168.74749951628451
  0
LINE
  5
8404
  8
0
 10
309.74456811088231
 20
177.3067651316525
 30
0.0
 11
310.18444387006662
 21
177.31671165674939
 31
0.0
  0
ARC
  5
8405
  8
0
 10
310.18103939151092
 20
177.46670797378869
 30
0.0
 40
0.1500349479273892
 50
271.30022370520868
 51
302.33282956220108
  0
ARC
  5
8406
  8
0
 10
309.37569662138532
 20
176.82300871924821
 30
0.0
 40
0.1499907100563956
 50
314.92849087957882
 51
348.75182900324808
  0
ARC
  5
8407
  8
0
 10
316.53725482782443
 20
176.20235379659729
 30
0.0
 40
0.1500081813857254
 50
215.16403827649131
 51
246.20242562483489
  0
LINE
  5
8408
  8
0
 10
316.47672554242507
 20
176.06509979814311
 30
0.0
 11
316.87931021439931
 21
175.8875748142602
 31
0.0
  0
ARC
  5
8409
  8
0
 10
316.81878816395312
 20
175.75032591421819
 30
0.0
 40
0.1500005971754009
 50
348.74982049568968
 51
66.204168391739714
  0
LINE
  5
840A
  8
0
 10
316.8878700001826
 20
175.3287477418782
 30
0.0
 11
316.96590645003221
 21
175.7210617884995
 31
0.0
  0
ARC
  5
840B
  8
0
 10
317.03500856920141
 20
175.29948735988719
 30
0.0
 40
0.1500197601890066
 50
168.75273412107271
 51
202.56866364124869
  0
ARC
  5
840C
  8
0
 10
308.85270171016259
 20
170.78865581692111
 30
0.0
 40
0.150016191808114
 50
35.165027024524292
 51
66.201858061864996
  0
LINE
  5
840D
  8
0
 10
308.91323558750651
 20
170.9259165450932
 30
0.0
 11
308.51065091553232
 21
171.10344152897611
 31
0.0
  0
ARC
  5
840E
  8
0
 10
308.57117359306471
 20
171.24069075513859
 30
0.0
 40
0.1500011485885562
 50
168.7499894001605
 51
246.20399948726441
  0
LINE
  5
840F
  8
0
 10
308.5020906640878
 20
171.66226860135811
 30
0.0
 11
308.42405467989943
 21
171.26995455473681
 31
0.0
  0
ARC
  5
8410
  8
0
 10
308.35495148660152
 20
171.6915296659167
 30
0.0
 40
0.1500204901019354
 50
348.75252376694732
 51
22.56826547583562
  0
ARC
  5
8411
  8
0
 10
315.9833879451769
 20
176.85350984845829
 30
0.0
 40
0.1499789141628164
 50
225.59752966254359
 51
263.55489316882898
  0
LINE
  5
8412
  8
0
 10
315.96655262398622
 20
176.7044788226487
 30
0.0
 11
316.3124681799402
 21
176.66538190096631
 31
0.0
  0
ARC
  5
8413
  8
0
 10
316.29564024867318
 20
176.51636423872111
 30
0.0
 40
0.1499648056437139
 50
40.435506649010343
 51
83.557125608302485
  0
ARC
  5
8414
  8
0
 10
316.29418115791867
 20
176.51806557449791
 30
0.0
 40
0.1499886476189442
 50
348.7481205723891
 51
39.579295319615561
  0
LINE
  5
8415
  8
0
 10
316.39012930679218
 20
176.2316128239037
 30
0.0
 11
316.44128685581592
 21
176.48879941552889
 31
0.0
  0
ARC
  5
8416
  8
0
 10
316.53723758339243
 20
176.20234822125329
 30
0.0
 40
0.1499908730976034
 50
168.74889585720911
 51
215.1660909354529
  0
ARC
  5
8417
  8
0
 10
314.05292798760843
 20
177.99506084222179
 30
0.0
 40
0.1499990791870325
 50
28.816533545374131
 51
73.20733379745667
  0
LINE
  5
8418
  8
0
 10
314.34699756789109
 20
177.77169626206179
 30
0.0
 11
314.18435232478282
 21
178.06736137717979
 31
0.0
  0
ARC
  5
8419
  8
0
 10
314.4784428173196
 20
177.8440114103154
 30
0.0
 40
0.1500244455556055
 50
208.81757381131399
 51
247.6963057427036
  0
ARC
  5
841A
  8
0
 10
313.6119025681362
 20
178.1052040330446
 30
0.0
 40
0.1500056364499761
 50
258.75142258889912
 51
297.6346837723176
  0
LINE
  5
841B
  8
0
 10
313.68148004400632
 20
177.97231059521451
 30
0.0
 11
313.98043365913531
 21
178.12882866710439
 31
0.0
  0
ARC
  5
841C
  8
0
 10
314.05000937950922
 20
177.9959489643513
 30
0.0
 40
0.1499926540512005
 50
73.243069437762912
 51
117.6365232628926
  0
LINE
  5
841D
  8
0
 10
314.09325407582418
 20
178.13957240432521
 30
0.0
 11
314.09626411038539
 21
178.13866343349241
 31
0.0
  0
LINE
  5
841E
  8
0
 10
315.78911890971563
 20
169.80495061725401
 30
0.0
 11
315.86715442824271
 21
170.1972646638753
 31
0.0
  0
ARC
  5
841F
  8
0
 10
315.64199402885947
 20
169.83422099364719
 30
0.0
 40
0.150008284774954
 50
271.29818012243499
 51
348.74797033823808
  0
LINE
  5
8420
  8
0
 10
315.64539255338809
 20
169.68425121158381
 30
0.0
 11
315.20551679420367
 21
169.67430468648689
 31
0.0
  0
ARC
  5
8421
  8
0
 10
315.20892649326169
 20
169.524291096318
 30
0.0
 40
0.1500523351469265
 50
91.302066920298685
 51
122.330986347104
  0
ARC
  5
8422
  8
0
 10
316.01429390143738
 20
170.16799099958641
 30
0.0
 40
0.1500232381766967
 50
134.93195455642731
 51
168.7478262174242
  0
ARC
  5
8423
  8
0
 10
309.11784018011832
 20
176.46646949353379
 30
0.0
 40
0.1999953643515025
 50
91.429320672673498
 51
168.75048569775541
  0
LINE
  5
8424
  8
0
 10
309.11285154285929
 20
176.66640263050809
 30
0.0
 11
309.37943331661722
 21
176.6730597242715
 31
0.0
  0
LINE
  5
8425
  8
0
 10
308.41581713172701
 20
171.82863634079709
 30
0.0
 11
308.17207511278889
 21
171.93680386990329
 31
0.0
  0
ARC
  5
8426
  8
0
 10
308.25319786067371
 20
172.11961004496749
 30
0.0
 40
0.1999974946494418
 50
168.74930323150861
 51
246.0700885700092
  0
LINE
  5
8427
  8
0
 10
308.05704373630778
 20
172.1586300060155
 30
0.0
 11
308.1545890657892
 21
172.6490234956147
 31
0.0
  0
ARC
  5
8428
  8
0
 10
308.00747111471242
 20
172.6782858603502
 30
0.0
 40
0.149999925063368
 50
348.75045525250943
 51
46.747652103015213
  0
LINE
  5
8429
  8
0
 10
308.11025298896328
 20
172.78753723949211
 30
0.0
 11
307.91015740248457
 21
172.97578360885399
 31
0.0
  0
ARC
  5
842A
  8
0
 10
308.01293720150602
 20
173.08503432374749
 30
0.0
 40
0.1499980192924177
 50
168.7500517599095
 51
226.7480555955967
  0
LINE
  5
842B
  8
0
 10
307.86582132565883
 20
173.1142973527314
 30
0.0
 11
307.94385777550838
 21
173.50661139935269
 31
0.0
  0
ARC
  5
842C
  8
0
 10
307.79672606863249
 20
173.53587417725589
 30
0.0
 40
0.1500134971887051
 50
348.75132541551659
 51
26.29178695782532
  0
LINE
  5
842D
  8
0
 10
307.93122065949342
 20
173.6023215577008
 30
0.0
 11
307.85230923208502
 21
173.76203220337649
 31
0.0
  0
ARC
  5
842E
  8
0
 10
312.69498058819931
 20
173.4955080272839
 30
0.0
 40
4.8500000000000094
 50
160.65018469157391
 51
176.84981530722291
  0
LINE
  5
842F
  8
0
 10
308.11894129726193
 20
175.1024810597302
 30
0.0
 11
308.25296513500712
 21
175.2198388800027
 31
0.0
  0
ARC
  5
8430
  8
0
 10
308.15414614797618
 20
175.33269061802051
 30
0.0
 40
0.1500023565528326
 50
311.20711554096488
 51
348.75012997550522
  0
LINE
  5
8431
  8
0
 10
308.3012663176944
 20
175.30342694371959
 30
0.0
 11
308.37930230188272
 21
175.69574099034091
 31
0.0
  0
ARC
  5
8432
  8
0
 10
308.52641477518517
 20
175.66647922167849
 30
0.0
 40
0.1499944362516498
 50
110.75090015658751
 51
168.7502703721801
  0
LINE
  5
8433
  8
0
 10
308.47327088701633
 20
175.80674346536421
 30
0.0
 11
308.73017342525623
 21
175.90408902615329
 31
0.0
  0
ARC
  5
8434
  8
0
 10
308.67703190068067
 20
176.04435126895061
 30
0.0
 40
0.1499917277343478
 50
290.75032665520382
 51
348.75084387359408
  0
LINE
  5
8435
  8
0
 10
308.82414201038978
 20
176.0150915011765
 30
0.0
 11
308.92168733987108
 21
176.50548499077581
 31
0.0
  0
ARC
  5
8436
  8
0
 10
309.37568585818713
 20
176.8230172767567
 30
0.0
 40
0.150004369909869
 50
271.43153091283779
 51
314.929093119897
  0
ARC
  5
8437
  8
0
 10
308.35497487098911
 20
171.6915318787581
 30
0.0
 40
0.1499980473296845
 50
22.570913019704971
 51
66.069992578293636
  0
ARC
  5
8438
  8
0
 10
316.71292609038733
 20
170.94666812567789
 30
0.0
 40
0.1499875972236694
 50
110.7494520149391
 51
168.7517185138434
  0
LINE
  5
8439
  8
0
 10
316.5658195852032
 20
170.97592484205981
 30
0.0
 11
316.46827379006049
 21
170.48553135246061
 31
0.0
  0
ARC
  5
843A
  8
0
 10
316.27211610785872
 20
170.524547973186
 30
0.0
 40
0.200000332448823
 50
271.43067270798582
 51
348.75044062907688
  0
LINE
  5
843B
  8
0
 10
316.2771095870724
 20
170.3246099874379
 30
0.0
 11
316.01052781331441
 21
170.31795289367449
 31
0.0
  0
ARC
  5
843C
  8
0
 10
316.0142607992546
 20
170.16802010065609
 30
0.0
 40
0.1499792572536085
 50
91.426240091142546
 51
134.9308537718214
  0
LINE
  5
843D
  8
0
 10
316.97414399820468
 20
175.16238000243919
 30
0.0
 11
317.2178860171428
 21
175.05421247333311
 31
0.0
  0
ARC
  5
843E
  8
0
 10
317.13676060442299
 20
174.8714049163778
 30
0.0
 40
0.1999998386721429
 50
348.7498404515984
 51
66.069551349925973
  0
LINE
  5
843F
  8
0
 10
317.3329173936238
 20
174.83238633722081
 30
0.0
 11
317.23537252980373
 21
174.34199284762161
 31
0.0
  0
ARC
  5
8440
  8
0
 10
317.3824895545128
 20
174.3127298408362
 30
0.0
 40
0.1499991417485929
 50
168.75014568835689
 51
226.7476122293786
  0
LINE
  5
8441
  8
0
 10
317.2797081409683
 20
174.2034791037442
 30
0.0
 11
317.47980372744701
 21
174.01523273438229
 31
0.0
  0
ARC
  5
8442
  8
0
 10
317.37702746600797
 20
173.90598364638109
 30
0.0
 40
0.1499944103772374
 50
348.74914392296688
 51
46.748613994782367
  0
LINE
  5
8443
  8
0
 10
317.52413933861158
 20
173.87671899050491
 30
0.0
 11
317.4461038200846
 21
173.48440494388359
 31
0.0
  0
ARC
  5
8444
  8
0
 10
317.59322546385852
 20
173.455140837296
 30
0.0
 40
0.1500038866200644
 50
168.75007787217081
 51
206.29303450115839
  0
LINE
  5
8445
  8
0
 10
317.4587409360995
 20
173.38869478553551
 30
0.0
 11
317.53765189784667
 21
173.22898413985979
 31
0.0
  0
ARC
  5
8446
  8
0
 10
312.69498058819931
 20
173.4955080272839
 30
0.0
 40
4.8500000000000369
 50
340.65018469157388
 51
356.84981530722331
  0
LINE
  5
8447
  8
0
 10
317.27101983266971
 20
171.88853528350609
 30
0.0
 11
317.13699599492452
 21
171.77117746323361
 31
0.0
  0
ARC
  5
8448
  8
0
 10
317.23581001163961
 20
171.65832859730179
 30
0.0
 40
0.149996921440071
 50
131.20640992835871
 51
168.75083558811301
  0
LINE
  5
8449
  8
0
 10
317.08869481223718
 20
171.68758939951681
 30
0.0
 11
317.01065929371021
 21
171.2952753528954
 31
0.0
  0
ARC
  5
844A
  8
0
 10
316.8635442194111
 20
171.32453932341829
 30
0.0
 40
0.1499974168335937
 50
290.75153123736249
 51
348.7496392914436
  0
LINE
  5
844B
  8
0
 10
316.91669070857671
 20
171.18427287787219
 30
0.0
 11
316.6597881703367
 21
171.08692731708311
 31
0.0
  0
ARC
  5
844C
  8
0
 10
317.03498584799831
 20
175.2994840631678
 30
0.0
 40
0.1499975138279477
 50
202.57083171920951
 51
246.07007387878861
  0
LINE
  5
844D
  8
0
 10
315.0106338201752
 20
169.29641868919151
 30
0.0
 11
315.06179136919877
 21
169.5536052808167
 31
0.0
  0
ARC
  5
844E
  8
0
 10
314.8635163448414
 20
169.325679259569
 30
0.0
 40
0.1499991084220935
 50
297.92224700704452
 51
348.75109203146269
  0
ARC
  5
844F
  8
0
 10
314.86552548496797
 20
169.32670420977939
 30
0.0
 40
0.1499808681796852
 50
253.9440036635701
 51
297.0606816098915
  0
LINE
  5
8450
  8
0
 10
314.82404427367351
 20
169.18257381767049
 30
0.0
 11
314.48949923503301
 21
169.2788278684022
 31
0.0
  0
ARC
  5
8451
  8
0
 10
314.44802112585307
 20
169.13463487651401
 30
0.0
 40
0.1500401694574432
 50
73.951753610205969
 51
111.8928111237524
  0
ARC
  5
8452
  8
0
 10
315.20891628940421
 20
169.5243372724384
 30
0.0
 40
0.1500078613268291
 50
122.3371256278726
 51
168.74886035315319
  0
ARC
  5
8453
  8
0
 10
311.3370421058728
 20
168.99596302025139
 30
0.0
 40
0.1500101491036929
 50
208.81748538321671
 51
252.22169524790149
  0
LINE
  5
8454
  8
0
 10
311.04296309637931
 20
169.21932008117449
 30
0.0
 11
311.2056092708101
 21
168.92365496605649
 31
0.0
  0
ARC
  5
8455
  8
0
 10
310.9115183221441
 20
169.1470062630259
 30
0.0
 40
0.1500233880732353
 50
28.817216215579059
 51
67.695951786403242
  0
ARC
  5
8456
  8
0
 10
311.7780584453692
 20
168.8858295982275
 30
0.0
 40
0.1499887941124896
 50
78.749916279870192
 51
116.70483338848
  0
LINE
  5
8457
  8
0
 10
311.71065432715318
 20
169.01981960982101
 30
0.0
 11
311.39966057377961
 21
168.8633946701886
 31
0.0
  0
ARC
  5
8458
  8
0
 10
311.33225876261417
 20
168.99740455026301
 30
0.0
 40
0.150005506918805
 50
254.12995198465291
 51
296.70063576774459
  0
LINE
  5
8459
  8
0
 10
309.55553384262231
 20
170.15502732247131
 30
0.0
 11
309.59499351444742
 21
169.81989275664111
 31
0.0
  0
ARC
  5
845A
  8
0
 10
309.40654713439449
 20
170.1374792950877
 30
0.0
 40
0.1500165740626934
 50
6.7174911137822431
 51
45.597690065197973
  0
ARC
  5
845B
  8
0
 10
310.11114498299662
 20
169.56944605406289
 30
0.0
 40
0.1500194425032191
 50
56.654322509315143
 51
94.600822220723927
  0
LINE
  5
845C
  8
0
 10
310.09911143916747
 20
169.71898209303629
 30
0.0
 11
309.75211648034951
 21
169.6910535916688
 31
0.0
  0
ARC
  5
845D
  8
0
 10
309.7400796673262
 20
169.84056782604901
 30
0.0
 40
0.1499979704864656
 50
232.0297032736633
 51
274.6027350380777
  0
ARC
  5
845E
  8
0
 10
309.74396256976092
 20
169.8374314538886
 30
0.0
 40
0.1499974886593513
 50
186.7147612359943
 51
230.12302403791389
  0
ARC
  5
845F
  8
0
 10
312.22462789926863
 20
168.8191116875096
 30
0.0
 40
0.1500106151626462
 50
219.86639360267469
 51
264.25451820193388
  0
LINE
  5
8460
  8
0
 10
312.10948856311938
 20
168.72295495122691
 30
0.0
 11
311.89318889516488
 21
168.98196320980799
 31
0.0
  0
LINE
  5
8461
  8
0
 10
312.58481977271941
 20
168.9126281067731
 30
0.0
 11
312.32140822100541
 21
168.70170962065481
 31
0.0
  0
ARC
  5
8462
  8
0
 10
312.22765348767888
 20
168.81879421528299
 30
0.0
 40
0.1499958410102331
 50
264.2933859861098
 51
308.68577564490738
  0
LINE
  5
8463
  8
0
 10
312.21273777770898
 20
168.66954173892751
 30
0.0
 11
312.20961039650342
 21
168.66985466331261
 31
0.0
  0
ARC
  5
8464
  8
0
 10
311.77805262634212
 20
168.88581927187971
 30
0.0
 40
0.1500000573290957
 50
39.863392408856072
 51
78.74850580001349
  0
ARC
  5
8465
  8
0
 10
312.67858224763739
 20
168.795516244373
 30
0.0
 40
0.1500219651171435
 50
89.802839085532128
 51
128.68157429652319
  0
LINE
  5
8466
  8
0
 10
309.42340850594542
 20
170.28653752058759
 30
0.0
 11
309.07749341565273
 21
170.3256307169797
 31
0.0
  0
ARC
  5
8467
  8
0
 10
309.09434547772139
 20
170.4746937556238
 30
0.0
 40
0.1500126044230845
 50
220.44272019125469
 51
263.54991206606559
  0
ARC
  5
8468
  8
0
 10
309.0958009469266
 20
170.47295419015589
 30
0.0
 40
0.1500090086759853
 50
168.75100015889831
 51
219.5764081298031
  0
LINE
  5
8469
  8
0
 10
308.9998318231394
 20
170.75940351933261
 30
0.0
 11
308.94867380845449
 21
170.50221692770739
 31
0.0
  0
ARC
  5
846A
  8
0
 10
309.40657386475658
 20
170.13750792532531
 30
0.0
 40
0.149977416326518
 50
45.597332870284568
 51
83.555089961104372
  0
ARC
  5
846B
  8
0
 10
308.8527149373765
 20
170.7886667924594
 30
0.0
 40
0.149999057432577
 50
348.75003555350509
 51
35.164509651601811
  0
LINE
  5
846C
  8
0
 10
310.25399317729381
 20
169.61523275822421
 30
0.0
 11
310.35695554453042
 21
169.29387804120799
 31
0.0
  0
LINE
  5
846D
  8
0
 10
310.8710679574599
 20
169.29146032780429
 30
0.0
 11
310.5358588858237
 21
169.19754203408971
 31
0.0
  0
ARC
  5
846E
  8
0
 10
310.4953876430684
 20
169.34196513499219
 30
0.0
 40
0.1499865112749678
 50
243.07798599608151
 51
285.65430282809632
  0
ARC
  5
846F
  8
0
 10
310.49980428042022
 20
169.33964623134489
 30
0.0
 40
0.1500016285703172
 50
197.7652604926547
 51
241.17240830988021
  0
ARC
  5
8470
  8
0
 10
310.91153621562921
 20
169.14697771016219
 30
0.0
 40
0.1500430162319572
 50
67.70641144432706
 51
105.647072862825
  0
ARC
  5
8471
  8
0
 10
310.11113517596442
 20
169.5694625239185
 30
0.0
 40
0.1500110758985148
 50
17.76492424458986
 51
56.647735588091443
  0
ARC
  5
8472
  8
0
 10
314.02626480056438
 20
168.98798799397531
 30
0.0
 40
0.1499928413278878
 50
242.8977332624242
 51
285.47212396359703
  0
LINE
  5
8473
  8
0
 10
313.95793104308751
 20
168.85446514934321
 30
0.0
 11
313.64803718167451
 21
169.0130582079293
 31
0.0
  0
LINE
  5
8474
  8
0
 10
314.31710397589109
 20
169.20789089053889
 30
0.0
 11
314.15239864724782
 21
168.91336943954249
 31
0.0
  0
ARC
  5
8475
  8
0
 10
314.02148447590088
 20
168.98658097244819
 30
0.0
 40
0.1499948292769364
 50
287.37569081609962
 51
330.78463641881331
  0
ARC
  5
8476
  8
0
 10
313.57971233104558
 20
168.87959062878571
 30
0.0
 40
0.1499395874873576
 50
62.891141964370952
 51
100.8587099006329
  0
ARC
  5
8477
  8
0
 10
314.44802893380228
 20
169.13467382185641
 30
0.0
 40
0.150006945674417
 50
111.90112491675291
 51
150.7848019107918
  0
ARC
  5
8478
  8
0
 10
313.15732511747302
 20
178.17268095407451
 30
0.0
 40
0.1500329191495989
 50
40.802872847177582
 51
83.365956841378278
  0
LINE
  5
8479
  8
0
 10
313.27089437979362
 20
178.2707212492825
 30
0.0
 11
313.4983531548371
 21
178.00719048827901
 31
0.0
  0
ARC
  5
847A
  8
0
 10
312.71138540167408
 20
178.19548586894541
 30
0.0
 40
0.1500070733301594
 50
269.90046556130699
 51
308.68316622537873
  0
LINE
  5
847B
  8
0
 10
312.80514182287362
 20
178.07838823646321
 30
0.0
 11
313.06855337458751
 21
178.28930672258161
 31
0.0
  0
ARC
  5
847C
  8
0
 10
313.16231220863318
 20
178.17221150825989
 30
0.0
 40
0.150006693779487
 50
85.279116446528079
 51
128.68446291776149
  0
ARC
  5
847D
  8
0
 10
313.61190311934593
 20
178.10518902782749
 30
0.0
 40
0.1499910270436366
 50
220.79561604024281
 51
258.75009797309667
  0
ARC
  5
847E
  8
0
 10
315.64599860123121
 20
177.1535842006204
 30
0.0
 40
0.1499979908797187
 50
6.715003545330017
 51
50.12320474438723
  0
LINE
  5
847F
  8
0
 10
315.83442775297073
 20
176.835989020765
 30
0.0
 11
315.79496761548421
 21
177.1711235865952
 31
0.0
  0
LINE
  5
8480
  8
0
 10
315.29084922510287
 20
177.27203425019999
 30
0.0
 11
315.63784511524341
 21
177.29996275156751
 31
0.0
  0
ARC
  5
8481
  8
0
 10
315.64988238953879
 20
177.15045143071919
 30
0.0
 40
0.1499951033677022
 50
52.029297671427223
 51
94.602999976835335
  0
ARC
  5
8482
  8
0
 10
315.27881578677972
 20
177.42156752923611
 30
0.0
 40
0.1500166829962021
 50
236.6540065599624
 51
274.60086660749369
  0
ARC
  5
8483
  8
0
 10
315.9834108662742
 20
176.85353473721651
 30
0.0
 40
0.15001273351066
 50
186.71677514724331
 51
225.5979263877463
  0
ARC
  5
8484
  8
0
 10
314.89014839885681
 20
177.6513627699897
 30
0.0
 40
0.1500123599146862
 50
17.766891863871241
 51
61.170776938638951
  0
LINE
  5
8485
  8
0
 10
315.1359674869766
 20
177.3757798597218
 30
0.0
 11
315.03300605106261
 21
177.69713830202841
 31
0.0
  0
LINE
  5
8486
  8
0
 10
314.51889363813302
 20
177.69955601543211
 30
0.0
 11
314.8541017784467
 21
177.7934743091466
 31
0.0
  0
ARC
  5
8487
  8
0
 10
314.89457004339027
 20
177.6490151059987
 30
0.0
 40
0.1500204714085891
 50
63.082897790054908
 51
105.64948723365789
  0
ARC
  5
8488
  8
0
 10
315.278837922913
 20
177.42156637021961
 30
0.0
 40
0.1500278841024416
 50
197.7693948264498
 51
236.64670122205689
  0
ARC
  5
8489
  8
0
 10
314.4784225454157
 20
177.84398981788431
 30
0.0
 40
0.1499967754205436
 50
247.70033968047389
 51
285.65314462669238
  0
ARC
  5
848A
  8
0
 10
311.36369626226661
 20
178.00302649523991
 30
0.0
 40
0.1499947344838238
 50
62.897874747281158
 51
105.47208176220769
  0
LINE
  5
848B
  8
0
 10
311.43203055250552
 20
178.1365511938931
 30
0.0
 11
311.74192348259589
 21
177.97795813530701
 31
0.0
  0
ARC
  5
848C
  8
0
 10
311.81024886341743
 20
178.1114275200818
 30
0.0
 40
0.14994143635619
 50
242.89127603060709
 51
280.8587304544165
  0
LINE
  5
848D
  8
0
 10
311.07285668837932
 20
177.78312545269739
 30
0.0
 11
311.23756294834521
 21
178.07764690369379
 31
0.0
  0
ARC
  5
848E
  8
0
 10
311.36847873271307
 20
178.00443398107669
 30
0.0
 40
0.1499969154177068
 50
107.3764598254397
 51
150.7844738396943
  0
ARC
  5
848F
  8
0
 10
310.94193495536928
 20
177.85633806614609
 30
0.0
 40
0.1500019564615942
 50
291.90094683617463
 51
330.78568595377442
  0
ARC
  5
8490
  8
0
 10
312.2523165244404
 20
178.174633822206
 30
0.0
 40
0.1499809016511666
 50
51.844950767450932
 51
94.423360486663256
  0
LINE
  5
8491
  8
0
 10
312.34497347611091
 20
178.29257007688301
 30
0.0
 11
312.61872457104818
 21
178.077523969114
 31
0.0
  0
ARC
  5
8492
  8
0
 10
312.71139319626241
 20
178.1954914507721
 30
0.0
 40
0.1500126688911853
 50
231.84881308321721
 51
269.89749220732813
  0
LINE
  5
8493
  8
0
 10
311.9247188209286
 20
178.0145367607476
 30
0.0
 11
312.1428215293875
 21
178.27203255146759
 31
0.0
  0
ARC
  5
8494
  8
0
 10
312.25727500689959
 20
178.17508897818161
 30
0.0
 40
0.1499921828499334
 50
96.325577122246543
 51
139.73496996271129
  0
ARC
  5
8495
  8
0
 10
311.8102572666956
 20
178.11150005893111
 30
0.0
 40
0.1500110948963393
 50
280.85035891081219
 51
319.73121501446423
  0
CIRCLE
  5
8496
  8
0
 10
312.69498058819931
 20
173.4955080272839
 30
0.0
 40
4.1999999999999877
  0
LINE
  5
84A0
  8
0
 10
315.37371644514701
 20
173.89550935477041
 30
0.0
 11
315.19498074191711
 21
173.89550935477041
 31
0.0
  0
LINE
  5
84A2
  8
0
 10
315.19498074191711
 20
173.09550698846601
 30
0.0
 11
315.37371644514701
 21
173.09550698846601
 31
0.0
  0
ARC
  5
84A4
  8
0
 10
315.37371629744729
 20
173.9955080272839
 30
0.0
 40
0.1000000000000085
 50
270.0
 51
10.5728895899314
  0
ARC
  5
84A6
  8
0
 10
312.69498058819931
 20
173.4955080272839
 30
0.0
 40
2.8250000000000268
 50
10.57288958994298
 51
349.42711041005703
  0
ARC
  5
84A7
  8
0
 10
315.37371629744729
 20
172.99550802728379
 30
0.0
 40
0.1000000000000386
 50
349.42711041006822
 51
89.999999999973952
  0
ARC
  5
84A8
  8
0
 10
315.19498058819931
 20
173.4955080272839
 30
0.0
 40
0.4000000000000057
 50
90.0
 51
270.0
  0
CIRCLE
  5
84AB
  8
0
 10
314.34498058819889
 20
172.5955080272839
 30
0.0
 40
0.3499999999675225
  0
CIRCLE
  5
84AC
  8
0
 10
311.4949805881995
 20
174.94550802728389
 30
0.0
 40
0.3499999999730221
  0
CIRCLE
  5
84AD
  8
0
 10
310.84498058819889
 20
173.4955080272839
 30
0.0
 40
0.3500000000129262
  0
CIRCLE
  5
84AE
  8
0
 10
311.4949805881995
 20
172.04550802728389
 30
0.0
 40
0.3499999999959442
  0
CIRCLE
  5
84AF
  8
0
 10
312.69498058819931
 20
173.4955080272839
 30
0.0
 40
0.350000000167924
  0
CIRCLE
  5
84B0
  8
0
 10
313.04498058819922
 20
175.3455080272839
 30
0.0
 40
0.3500000000649379
  0
CIRCLE
  5
84B1
  8
0
 10
313.04498058819922
 20
171.6455080272838
 30
0.0
 40
0.3500000000461654
  0
CIRCLE
  5
84B2
  8
0
 10
314.34498058819889
 20
174.3955080272838
 30
0.0
 40
0.3500000002546386
  0
LINE
  5
84EC
  8
0
 10
310.05826689067391
 20
177.3138580843808
 30
0.0
 11
310.37556150692598
 21
177.67566572874799
 31
0.0
  0
LINE
  5
84ED
  8
0
 10
315.33169423925779
 20
169.67715825885551
 30
0.0
 11
315.01440008866689
 21
169.3153506144883
 31
0.0
  0
LINE
  5
84EE
  8
0
 10
312.58239367741248
 20
178.10606341809051
 30
0.0
 11
312.78627136486671
 21
178.06550990790149
 31
0.0
  0
LINE
  5
84EF
  8
0
 10
312.80756791818038
 20
168.8849529251458
 30
0.0
 11
312.60368929940358
 21
168.92550643533491
 31
0.0
  0
LINE
  5
84F2
  8
0
 10
316.43752058732412
 20
176.46986376494189
 30
0.0
 11
316.59220581638721
 21
176.0141788050534
 31
0.0
  0
LINE
  5
84F5
  8
0
 10
308.95244007694617
 20
170.52115257829439
 30
0.0
 11
308.79775531354449
 21
170.97683753818291
 31
0.0
  0
LINE
  5
84F6
  8
0
 10
314.35950243610051
 20
177.75257434695979
 30
0.0
 11
314.56338012355468
 21
177.71202083677071
 31
0.0
  0
LINE
  5
84F7
  8
0
 10
311.03045915949252
 20
169.23844199627661
 30
0.0
 11
310.82658054071572
 21
169.27899550646561
 31
0.0
  0
ARC
  5
84F8
  8
0
 10
312.69498058819931
 20
173.4955080272839
 30
0.0
 40
4.8500000000000139
 50
40.650184696260148
 51
56.849815303742808
  0
LINE
  5
84F9
  8
0
 10
315.34713277357719
 20
177.5561211630704
 30
0.0
 11
315.05988029527572
 21
177.61325966566821
 31
0.0
  0
ARC
  5
84FA
  8
0
 10
312.69498058819931
 20
173.49550802728371
 30
0.0
 40
4.8500000000001
 50
100.6501846962568
 51
116.8498153037489
  0
LINE
  5
84FB
  8
0
 10
312.0858935056915
 20
178.20482458919301
 30
0.0
 11
311.79864102738998
 21
178.26195936650049
 31
0.0
  0
LINE
  5
84FC
  8
0
 10
310.50446120786569
 20
177.8226470574738
 30
0.0
 11
310.49448488044641
 21
177.8112700209023
 31
0.0
  0
ARC
  5
84FD
  8
0
 10
312.69498058819931
 20
173.49550802728371
 30
0.0
 40
4.8499999999998451
 50
280.65018469625682
 51
296.84981530374893
  0
LINE
  5
84FE
  8
0
 10
313.3040671585789
 20
168.7861917540433
 30
0.0
 11
313.59131963688043
 21
168.72905325144549
 31
0.0
  0
LINE
  5
84FF
  8
0
 10
314.88549945640472
 20
169.16836928576251
 30
0.0
 11
314.89547671514651
 21
169.17974632233401
 31
0.0
  0
ARC
  5
8500
  8
0
 10
312.69498058819931
 20
173.49550802728359
 30
0.0
 40
4.8499999999997234
 50
220.65018469624951
 51
236.84981530374279
  0
LINE
  5
8501
  8
0
 10
310.04282835635451
 20
169.43489518016591
 30
0.0
 11
310.33008130031732
 21
169.3777566775681
 31
0.0
  0
ARC
  5
8502
  8
0
 10
312.69498058819931
 20
173.4955080272839
 30
0.0
 40
2.8150000000000341
 50
350.32885067449502
 51
9.6711493255033218
  0
POLYLINE
  5
8504
  8
0
 66
     1
 10
0.0
 20
0.0
 30
0.0
 70
   128
  0
VERTEX
  5
A69B
  8
0
 10
319.69462105768821
 20
171.36204745620509
 30
0.0
  0
VERTEX
  5
A69C
  8
0
 10
319.65063096719882
 20
170.95125969499369
 30
0.0
  0
VERTEX
  5
A69D
  8
0
 10
319.59925176340238
 20
170.62695082277079
 30
0.0
  0
VERTEX
  5
A69E
  8
0
 10
319.50547503071931
 20
170.2718673273923
 30
0.0
  0
VERTEX
  5
A69F
  8
0
 10
319.37805147606042
 20
169.9864802882077
 30
0.0
  0
VERTEX
  5
A6A0
  8
0
 10
319.18272519248632
 20
169.7290292009713
 30
0.0
  0
VERTEX
  5
A6A1
  8
0
 10
318.92893420296809
 20
169.5308325812222
 30
0.0
  0
VERTEX
  5
A6A2
  8
0
 10
318.56898547845981
 20
169.36648022383471
 30
0.0
  0
VERTEX
  5
A6A3
  8
0
 10
318.3563459082236
 20
169.3025095388295
 30
0.0
  0
VERTEX
  5
A6A4
  8
0
 10
318.12203446167609
 20
169.2490367218854
 30
0.0
  0
VERTEX
  5
A6A5
  8
0
 10
317.25472168761388
 20
169.1349571570756
 30
0.0
  0
VERTEX
  5
A6A6
  8
0
 10
316.14094836401841
 20
169.0705394372346
 30
0.0
  0
VERTEX
  5
A6A7
  8
0
 10
314.78135803478858
 20
169.0322769805791
 30
0.0
  0
VERTEX
  5
A6A8
  8
0
 10
314.58439851363192
 20
169.02867470791159
 30
0.0
  0
SEQEND
  5
A6A9
  8
0
  0
LINE
  5
8505
  8
0
 10
319.69462105768821
 20
171.36204745620509
 30
0.0
 11
319.69498054820201
 21
171.36997487396019
 31
0.0
  0
POLYLINE
  5
8506
  8
0
 66
     1
 10
0.0
 20
0.0
 30
0.0
 70
   128
  0
VERTEX
  5
A6AA
  8
0
 10
327.33816610413692
 20
173.3779845759274
 30
0.0
  0
VERTEX
  5
A6AB
  8
0
 10
327.48018907147548
 20
173.07713013142359
 30
0.0
  0
VERTEX
  5
A6AC
  8
0
 10
327.63637931781909
 20
171.8865608796479
 30
0.0
  0
VERTEX
  5
A6AD
  8
0
 10
327.66223842042592
 20
170.9884865209462
 30
0.0
  0
VERTEX
  5
A6AE
  8
0
 10
327.64877335864207
 20
170.1359165832402
 30
0.0
  0
VERTEX
  5
A6AF
  8
0
 10
327.59949149328372
 20
169.5853149518372
 30
0.0
  0
VERTEX
  5
A6B0
  8
0
 10
327.51655535536912
 20
169.3473173305394
 30
0.0
  0
VERTEX
  5
A6B1
  8
0
 10
327.35278973120347
 20
169.25512384623309
 30
0.0
  0
VERTEX
  5
A6B2
  8
0
 10
327.2211044444432
 20
169.24054306000491
 30
0.0
  0
VERTEX
  5
A6B3
  8
0
 10
327.04048374432227
 20
169.23457141965639
 30
0.0
  0
SEQEND
  5
A6B4
  8
0
  0
LINE
  5
8507
  8
0
 10
314.57891085880902
 20
169.02635749429481
 30
0.0
 11
327.04048374432227
 21
169.23457141965639
 31
0.0
  0
LINE
  5
8508
  8
0
 10
319.69498054820201
 20
175.62104146927609
 30
0.0
 11
319.69462105768821
 21
175.62896888703131
 31
0.0
  0
POLYLINE
  5
850A
  8
0
 66
     1
 10
0.0
 20
0.0
 30
0.0
 70
   128
  0
VERTEX
  5
A6B5
  8
0
 10
314.23864541548278
 20
177.96866452871939
 30
0.0
  0
VERTEX
  5
A6B6
  8
0
 10
314.7813226445308
 20
177.95873936265721
 30
0.0
  0
VERTEX
  5
A6B7
  8
0
 10
316.14090179788968
 20
177.92048063129201
 30
0.0
  0
VERTEX
  5
A6B8
  8
0
 10
316.91076190906671
 20
177.88178604096191
 30
0.0
  0
VERTEX
  5
A6B9
  8
0
 10
317.57123538988731
 20
177.8248375281693
 30
0.0
  0
VERTEX
  5
A6BA
  8
0
 10
318.12203446167609
 20
177.74197962135091
 30
0.0
  0
VERTEX
  5
A6BB
  8
0
 10
318.56895753878263
 20
177.62454356998219
 30
0.0
  0
VERTEX
  5
A6BC
  8
0
 10
318.92893420296809
 20
177.46018376201411
 30
0.0
  0
VERTEX
  5
A6BD
  8
0
 10
319.18271029132512
 20
177.26200204342621
 30
0.0
  0
VERTEX
  5
A6BE
  8
0
 10
319.37805147606042
 20
177.00453605502861
 30
0.0
  0
VERTEX
  5
A6BF
  8
0
 10
319.50546758013871
 20
176.7191713675858
 30
0.0
  0
VERTEX
  5
A6C0
  8
0
 10
319.59925362604758
 20
176.36406552046549
 30
0.0
  0
VERTEX
  5
A6C1
  8
0
 10
319.69462105768821
 20
175.62896888703131
 30
0.0
  0
SEQEND
  5
A6C2
  8
0
  0
LINE
  5
850B
  8
0
 10
327.04048374432227
 20
177.75644492357989
 30
0.0
 11
314.23771245169542
 21
177.97035854309809
 31
0.0
  0
LINE
  5
850C
  8
0
 10
313.69507083433768
 20
177.9794258996846
 30
0.0
 11
313.52657222884801
 21
177.98224221915021
 31
0.0
  0
POLYLINE
  5
850D
  8
0
 66
     1
 10
0.0
 20
0.0
 30
0.0
 70
   128
  0
VERTEX
  5
A6C3
  8
0
 10
327.04048374432227
 20
177.75644492357989
 30
0.0
  0
VERTEX
  5
A6C4
  8
0
 10
327.2211081697335
 20
177.7504732832314
 30
0.0
  0
VERTEX
  5
A6C5
  8
0
 10
327.35279345649383
 20
177.73589249700331
 30
0.0
  0
VERTEX
  5
A6C6
  8
0
 10
327.51655721801421
 20
177.64369901269691
 30
0.0
  0
VERTEX
  5
A6C7
  8
0
 10
327.59949149328372
 20
177.40569766610881
 30
0.0
  0
VERTEX
  5
A6C8
  8
0
 10
327.64877335864207
 20
176.85508858412521
 30
0.0
  0
VERTEX
  5
A6C9
  8
0
 10
327.66223842042592
 20
176.00254099816101
 30
0.0
  0
VERTEX
  5
A6CA
  8
0
 10
327.63638118046418
 20
175.1044815406205
 30
0.0
  0
VERTEX
  5
A6CB
  8
0
 10
327.55554238098762
 20
174.2507828399541
 30
0.0
  0
VERTEX
  5
A6CC
  8
0
 10
327.48018720883027
 20
173.9138824865224
 30
0.0
  0
VERTEX
  5
A6CD
  8
0
 10
327.33816610413692
 20
173.61303176730891
 30
0.0
  0
SEQEND
  5
A6CE
  8
0
  0
LINE
  5
850E
  8
0
 10
319.69498054820201
 20
175.62104146927609
 30
0.0
 11
319.69498054820201
 21
171.36997487396019
 31
0.0
  0
ARC
  5
850F
  8
0
 10
327.4800536124992
 20
173.49550817161821
 30
0.0
 40
0.1842385968613545
 50
140.3654850789334
 51
219.6345149210666
  0
LINE
  5
8510
  8
0
 10
336.1949804587951
 20
177.76050921529551
 30
0.0
 11
336.1949804587951
 21
169.2305071279408
 31
0.0
  0
LINE
  5
8511
  8
0
 10
336.69498147207401
 20
177.4718327447774
 30
0.0
 11
336.69498147207401
 21
169.51918359845891
 31
0.0
  0
ARC
  5
8512
  8
0
 10
320.975864825408
 20
168.93321349693889
 30
0.0
 40
0.1999999999999956
 50
90.957252514023835
 51
180.1231931108604
  0
ARC
  5
8513
  8
0
 10
320.975864825408
 20
178.0578025576288
 30
0.0
 40
0.2000000000000078
 50
179.87680691174239
 51
269.04276024643332
  0
LINE
  5
8514
  8
0
 10
312.78049716490409
 20
168.59625410288589
 30
0.0
 11
312.77687432814417
 21
168.59619242045881
 31
0.0
  0
LINE
  5
8515
  8
0
 10
312.78049716490409
 20
178.39476224035039
 30
0.0
 11
312.69498058819931
 21
178.3955080272838
 31
0.0
  0
ARC
  5
8516
  8
0
 10
320.57586422770117
 20
178.05866087844731
 30
0.0
 40
0.2000023046897432
 50
359.87782880878461
 51
88.999350957915624
  0
LINE
  5
8517
  8
0
 10
320.57935701447627
 20
178.25863268226399
 30
0.0
 11
312.78049716490409
 21
178.39476224035039
 31
0.0
  0
LINE
  5
8518
  8
0
 10
320.57935701447627
 20
168.73238366097229
 30
0.0
 11
312.78049716490409
 21
168.59625410288589
 31
0.0
  0
ARC
  5
8519
  8
0
 10
320.57586124582832
 20
168.93235838879181
 30
0.0
 40
0.200005280342681
 50
271.0014885046017
 51
0.1213317286935414
  0
LINE
  5
851A
  8
0
 10
334.1949801309695
 20
134.49550736695531
 30
0.0
 11
334.1949801309695
 21
142.49550867825761
 31
0.0
  0
ARC
  5
8580
  8
0
 10
53.0
 20
62.999999532781771
 30
0.0
 40
3.0
 50
90.0
 51
270.0
  0
LINE
  5
8581
  8
0
 10
52.99999971217175
 20
59.999999776482582
 30
0.0
 11
103.00000045723
 21
59.999999776482582
 31
0.0
  0
LINE
  5
8582
  8
0
 10
103.00000045723
 20
65.999998897314072
 30
0.0
 11
52.99999971217175
 21
65.999998897314072
 31
0.0
  0
LINE
  5
8585
  8
0
 10
109.58999987966121
 20
67.315000295639024
 30
0.0
 11
101.0000001294047
 21
67.315000295639024
 31
0.0
  0
LINE
  5
8586
  8
0
 10
101.0000001294047
 20
58.78500007092952
 30
0.0
 11
109.9000073624283
 21
58.78500007092952
 31
0.0
  0
LINE
  5
8587
  8
0
 10
101.0000001294047
 20
67.315000295639024
 30
0.0
 11
100.49999911612569
 21
67.026323825120926
 31
0.0
  0
LINE
  5
8588
  8
0
 10
100.49999911612569
 20
59.07367467880249
 30
0.0
 11
101.0000001294047
 21
58.78500007092952
 31
0.0
  0
LINE
  5
8589
  8
0
 10
112.83310909098689
 20
67.000000923871994
 30
0.0
 11
103.0000004572303
 21
67.000000923871994
 31
0.0
  0
LINE
  5
858A
  8
0
 10
103.0000004572303
 20
58.999999612569802
 30
0.0
 11
112.83310909098689
 21
58.999999612569802
 31
0.0
  0
LINE
  5
85E1
  8
0
 10
109.8568144840628
 20
58.786618709564202
 30
0.0
 11
112.83310909098689
 21
58.675007149577141
 31
0.0
  0
POLYLINE
  5
85E2
  8
0
 66
     1
 10
0.0
 20
0.0
 30
0.0
 70
   128
  0
VERTEX
  5
A6CF
  8
0
 10
109.8568144840628
 20
58.786618709564202
 30
0.0
  0
VERTEX
  5
A6D0
  8
0
 10
109.7147915167243
 20
58.805569261312478
 30
0.0
  0
VERTEX
  5
A6D1
  8
0
 10
109.6116941077143
 20
58.999999612569802
 30
0.0
  0
SEQEND
  5
A6D2
  8
0
  0
POLYLINE
  5
85E3
  8
0
 66
     1
 10
0.0
 20
0.0
 30
0.0
 70
   128
  0
VERTEX
  5
A6D3
  8
0
 10
109.5316730094582
 20
67.000000923871994
 30
0.0
  0
VERTEX
  5
A6D4
  8
0
 10
109.53369956738059
 20
67.206519842147813
 30
0.0
  0
VERTEX
  5
A6D5
  8
0
 10
109.5868911249072
 20
67.314482480287552
 30
0.0
  0
SEQEND
  5
A6D6
  8
0
  0
LINE
  5
85E4
  8
0
 10
112.83310909098689
 20
67.855517566204071
 30
0.0
 11
109.5868911249072
 21
67.314482480287552
 31
0.0
  0
LINE
  5
85E5
  8
0
 10
101.0000001294047
 20
58.78500007092952
 30
0.0
 11
101.0000001294047
 21
59.999999776482582
 31
0.0
  0
LINE
  5
85E6
  8
0
 10
101.0000001294047
 20
65.999998897314072
 30
0.0
 11
101.0000001294047
 21
67.315000295639024
 31
0.0
  0
LINE
  5
85E7
  8
0
 10
100.49999911612569
 20
65.999998897314072
 30
0.0
 11
100.49999911612569
 21
67.026323825120926
 31
0.0
  0
LINE
  5
85E8
  8
0
 10
100.49999911612569
 20
59.07367467880249
 30
0.0
 11
100.49999911612569
 21
59.999999776482582
 31
0.0
  0
LINE
  5
85E9
  8
0
 10
112.83310909098689
 20
54.715694099595581
 30
0.0
 11
112.83310909098689
 21
73.528616875410066
 31
0.0
  0
LINE
  5
85EB
  8
0
 10
156.8331088525685
 20
73.528616875410066
 30
0.0
 11
112.8331090909867
 21
73.528616875410066
 31
0.0
  0
LINE
  5
85EC
  8
0
 10
156.8331088525683
 20
54.715694099595581
 30
0.0
 11
156.8331088525683
 21
73.528616875410066
 31
0.0
  0
LINE
  5
85EE
  8
0
 10
103.0000004572303
 20
67.000000923871994
 30
0.0
 11
103.0000004572303
 21
58.999999612569802
 31
0.0
  0
ARC
  5
8696
  8
0
 10
129.19999999999621
 20
238.87412536993
 30
0.0
 40
0.2000000000000242
 50
270.0000001431988
 51
89.999999997212086
  0
LINE
  5
8697
  8
0
 10
119.79101632064911
 20
245.24019973596771
 30
0.0
 11
120.65000027692621
 21
244.9241256179495
 31
0.0
  0
LINE
  5
8698
  8
0
 10
128.34999976954171
 20
244.9241256179495
 30
0.0
 11
129.20898372581931
 21
245.24019973596771
 31
0.0
  0
ARC
  5
869A
  8
0
 10
129.1999999559352
 20
239.2741252634782
 30
0.0
 40
0.1999998935859682
 50
180.00008372038579
 51
270.00001263022472
  0
ARC
  5
869B
  8
0
 10
129.1999999559375
 20
238.4741254763118
 30
0.0
 40
0.1999998935904209
 50
89.999987239564945
 51
180.0002889805682
  0
ARC
  5
869C
  8
0
 10
126.8745792137815
 20
235.24934133052369
 30
0.0
 40
2.125420859500422
 50
269.20118246369992
 51
359.99418864958147
  0
LINE
  5
869D
  8
0
 10
129.0000000623493
 20
235.2491257550401
 30
0.0
 11
129.0000000623495
 21
238.47412446757991
 31
0.0
  0
LINE
  5
869E
  8
0
 10
129.0000000623495
 20
239.2741249712391
 30
0.0
 11
129.0000000623495
 21
243.42412444075779
 31
0.0
  0
ARC
  5
869F
  8
0
 10
120.5
 20
243.42412536991199
 30
0.0
 40
0.5
 50
90.0
 51
180.0001064732312
  0
ARC
  5
86A0
  8
0
 10
128.49999995591151
 20
243.4241252634736
 30
0.0
 40
0.5000001064386144
 50
359.9999057237365
 51
89.99999494783718
  0
LINE
  5
86A1
  8
0
 10
109.9000073624283
 20
243.13912483176421
 30
0.0
 11
101.0000001294047
 21
243.13912483176421
 31
0.0
  0
LINE
  5
86A2
  8
0
 10
101.0000001294047
 20
234.6091246070547
 30
0.0
 11
109.58999987966121
 21
234.6091246070547
 31
0.0
  0
LINE
  5
86A3
  8
0
 10
101.0000001294047
 20
243.13912483176421
 30
0.0
 11
100.49999911612569
 21
242.8504502238913
 31
0.0
  0
LINE
  5
86A4
  8
0
 10
100.49999911612569
 20
234.89780107757281
 30
0.0
 11
101.0000001294047
 21
234.6091246070547
 31
0.0
  0
LINE
  5
86A5
  8
0
 10
129.25354890799821
 20
251.72057690343101
 30
0.0
 11
129.04999997741291
 21
251.92412490269379
 31
0.0
  0
LINE
  5
86A9
  8
0
 10
127.4999998164803
 20
243.9241254540367
 30
0.0
 11
127.4999998164803
 21
244.82412578782271
 31
0.0
  0
LINE
  5
86AA
  8
0
 10
121.4999997643263
 20
244.82412578782271
 30
0.0
 11
121.4999997643263
 21
243.9241254540367
 31
0.0
  0
ARC
  5
86AB
  8
0
 10
52.999999560415972
 20
238.92412556579561
 30
0.0
 40
2.9999995604155778
 50
89.999997101669322
 51
270.00000289833071
  0
LINE
  5
86AC
  8
0
 10
100.49999911612569
 20
241.92412512621121
 30
0.0
 11
52.999999712172212
 21
241.92412512621121
 31
0.0
  0
LINE
  5
86AD
  8
0
 10
52.999999712172212
 20
235.92412600537969
 30
0.0
 11
100.49999911612569
 21
235.92412600537969
 31
0.0
  0
LINE
  5
86AF
  8
0
 10
119.94999960339371
 20
251.92412490269379
 30
0.0
 11
119.7464516041309
 21
251.72057690343101
 31
0.0
  0
LINE
  5
86B2
  8
0
 10
127.6500000273318
 20
244.82412578782271
 30
0.0
 11
127.7499998574585
 21
244.9241256179495
 31
0.0
  0
LINE
  5
86B3
  8
0
 10
121.2500001890093
 20
244.9241256179495
 30
0.0
 11
121.3500000191361
 21
244.82412578782271
 31
0.0
  0
LINE
  5
870C
  8
0
 10
129.20043160392149
 20
238.67412583563541
 30
0.0
 11
116.5691133243472
 21
238.67410550138189
 31
0.0
  0
LINE
  5
870D
  8
0
 10
116.56911518699231
 20
239.07414580008219
 30
0.0
 11
129.202240327211
 21
239.0741128218713
 31
0.0
  0
LINE
  5
8726
  8
0
 10
121.8476811078817
 20
245.42813690623481
 30
0.0
 11
121.8478478146226
 21
245.4336074950381
 31
0.0
  0
POLYLINE
  5
8727
  8
0
 66
     1
 10
0.0
 20
0.0
 30
0.0
 70
   128
  0
VERTEX
  5
A6D7
  8
0
 10
125.39633956080981
 20
245.4336074950381
 30
0.0
  0
VERTEX
  5
A6D8
  8
0
 10
123.6221132454902
 20
245.3007580550595
 30
0.0
  0
VERTEX
  5
A6D9
  8
0
 10
121.8478478146226
 20
245.4336074950381
 30
0.0
  0
SEQEND
  5
A6DA
  8
0
  0
LINE
  5
8728
  8
0
 10
125.39633956080981
 20
245.4336074950381
 30
0.0
 11
125.39653513855041
 21
245.42813690623481
 31
0.0
  0
ARC
  5
8729
  8
0
 10
114.0845545119482
 20
244.51204508959799
 30
0.0
 40
11.349013562549089
 50
3.6786432276721892
 51
4.629949719835138
  0
ARC
  5
872A
  8
0
 10
122.11587319075301
 20
245.38659855781731
 30
0.0
 40
0.2713898076645973
 50
171.19582304800011
 51
212.64513455754539
  0
LINE
  5
872D
  8
0
 10
126.6903414977223
 20
245.42813690623481
 30
0.0
 11
126.69051938033409
 21
245.4336074950381
 31
0.0
  0
LINE
  5
872E
  8
0
 10
125.39633956080981
 20
245.4336074950381
 30
0.0
 11
125.39633956080981
 21
247.7241245867892
 31
0.0
  0
LINE
  5
8730
  8
0
 10
126.69051938033409
 20
247.7241245867892
 30
0.0
 11
126.69051938033409
 21
245.4336074950381
 31
0.0
  0
LINE
  5
8731
  8
0
 10
126.5963375223309
 20
245.24019973596771
 30
0.0
 11
125.4101855335266
 21
245.24019973596771
 31
0.0
  0
ARC
  5
8732
  8
0
 10
126.451450934805
 20
245.4301473070748
 30
0.0
 40
0.2388990221043747
 50
307.33570989141168
 51
359.5178345987926
  0
LINE
  5
8734
  8
0
 10
121.88735731220549
 20
245.24019973596771
 30
0.0
 11
120.94557877904479
 21
245.24019973596771
 31
0.0
  0
LINE
  5
8735
  8
0
 10
129.2089809318513
 20
245.24019973596771
 30
0.0
 11
128.96460514790121
 21
245.24019973596771
 31
0.0
  0
LINE
  5
8738
  8
0
 10
128.34999976954171
 20
244.9241256179495
 30
0.0
 11
120.65000027692599
 21
244.9241256179495
 31
0.0
  0
LINE
  5
873D
  8
0
 10
121.8478478146226
 20
247.7241245867892
 30
0.0
 11
121.8478478146226
 21
245.4336074950381
 31
0.0
  0
LINE
  5
873E
  8
0
 10
116.4191145104796
 20
238.8241248043461
 30
0.0
 11
116.4191145104796
 21
238.92412463447289
 31
0.0
  0
ARC
  5
873F
  8
0
 10
116.56941654048249
 20
238.824407491372
 30
0.0
 40
0.1503022958407489
 50
180.1077613815749
 51
269.8844128326038
  0
ARC
  5
8740
  8
0
 10
116.5694173116358
 20
238.9238430387893
 30
0.0
 40
0.1503030649440907
 50
90.115170496572759
 51
179.89265519206921
  0
POLYLINE
  5
8759
  8
0
 10
110.25051223728497
 20
238.72928695961465
 30
0.0
 66
     1
 70
     8
  0
VERTEX
  8
0
  5
A73D
 10
110.251
 20
238.729
 30
0.000000
  70
    32
  0
VERTEX
  8
0
  5
A73E
 10
110.253
 20
238.730
 30
0.000000
  70
    32
  0
VERTEX
  8
0
  5
A73F
 10
110.255
 20
238.732
 30
0.000000
  70
    32
  0
VERTEX
  8
0
  5
A740
 10
110.257
 20
238.733
 30
0.000000
  70
    32
  0
VERTEX
  8
0
  5
A741
 10
110.260
 20
238.734
 30
0.000000
  70
    32
  0
VERTEX
  8
0
  5
A742
 10
110.262
 20
238.735
 30
0.000000
  70
    32
  0
VERTEX
  8
0
  5
A743
 10
110.264
 20
238.736
 30
0.000000
  70
    32
  0
VERTEX
  8
0
  5
A744
 10
110.266
 20
238.737
 30
0.000000
  70
    32
  0
VERTEX
  8
0
  5
A745
 10
110.268
 20
238.738
 30
0.000000
  70
    32
  0
VERTEX
  8
0
  5
A746
 10
110.270
 20
238.739
 30
0.000000
  70
    32
  0
VERTEX
  8
0
  5
A747
 10
110.273
 20
238.741
 30
0.000000
  70
    32
  0
VERTEX
  8
0
  5
A748
 10
110.275
 20
238.742
 30
0.000000
  70
    32
  0
VERTEX
  8
0
  5
A749
 10
110.277
 20
238.743
 30
0.000000
  70
    32
  0
VERTEX
  8
0
  5
A74A
 10
110.279
 20
238.744
 30
0.000000
  70
    32
  0
VERTEX
  8
0
  5
A74B
 10
110.281
 20
238.745
 30
0.000000
  70
    32
  0
VERTEX
  8
0
  5
A74C
 10
110.283
 20
238.746
 30
0.000000
  70
    32
  0
VERTEX
  8
0
  5
A74D
 10
110.285
 20
238.747
 30
0.000000
  70
    32
  0
VERTEX
  8
0
  5
A74E
 10
110.287
 20
238.749
 30
0.000000
  70
    32
  0
VERTEX
  8
0
  5
A74F
 10
110.289
 20
238.750
 30
0.000000
  70
    32
  0
VERTEX
  8
0
  5
A750
 10
110.291
 20
238.751
 30
0.000000
  70
    32
  0
VERTEX
  8
0
  5
A751
 10
110.293
 20
238.752
 30
0.000000
  70
    32
  0
VERTEX
  8
0
  5
A752
 10
110.295
 20
238.753
 30
0.000000
  70
    32
  0
VERTEX
  8
0
  5
A753
 10
110.297
 20
238.754
 30
0.000000
  70
    32
  0
VERTEX
  8
0
  5
A754
 10
110.299
 20
238.755
 30
0.000000
  70
    32
  0
VERTEX
  8
0
  5
A755
 10
110.301
 20
238.756
 30
0.000000
  70
    32
  0
VERTEX
  8
0
  5
A756
 10
110.302
 20
238.758
 30
0.000000
  70
    32
  0
VERTEX
  8
0
  5
A757
 10
110.304
 20
238.759
 30
0.000000
  70
    32
  0
VERTEX
  8
0
  5
A758
 10
110.306
 20
238.760
 30
0.000000
  70
    32
  0
VERTEX
  8
0
  5
A759
 10
110.308
 20
238.761
 30
0.000000
  70
    32
  0
VERTEX
  8
0
  5
A75A
 10
110.310
 20
238.762
 30
0.000000
  70
    32
  0
VERTEX
  8
0
  5
A75B
 10
110.311
 20
238.763
 30
0.000000
  70
    32
  0
VERTEX
  8
0
  5
A75C
 10
110.313
 20
238.764
 30
0.000000
  70
    32
  0
VERTEX
  8
0
  5
A75D
 10
110.315
 20
238.765
 30
0.000000
  70
    32
  0
VERTEX
  8
0
  5
A75E
 10
110.317
 20
238.767
 30
0.000000
  70
    32
  0
VERTEX
  8
0
  5
A75F
 10
110.318
 20
238.768
 30
0.000000
  70
    32
  0
VERTEX
  8
0
  5
A760
 10
110.320
 20
238.769
 30
0.000000
  70
    32
  0
VERTEX
  8
0
  5
A761
 10
110.322
 20
238.770
 30
0.000000
  70
    32
  0
VERTEX
  8
0
  5
A762
 10
110.323
 20
238.771
 30
0.000000
  70
    32
  0
VERTEX
  8
0
  5
A763
 10
110.325
 20
238.772
 30
0.000000
  70
    32
  0
VERTEX
  8
0
  5
A764
 10
110.327
 20
238.773
 30
0.000000
  70
    32
  0
VERTEX
  8
0
  5
A765
 10
110.328
 20
238.775
 30
0.000000
  70
    32
  0
VERTEX
  8
0
  5
A766
 10
110.330
 20
238.776
 30
0.000000
  70
    32
  0
VERTEX
  8
0
  5
A767
 10
110.331
 20
238.777
 30
0.000000
  70
    32
  0
VERTEX
  8
0
  5
A768
 10
110.333
 20
238.778
 30
0.000000
  70
    32
  0
VERTEX
  8
0
  5
A769
 10
110.334
 20
238.779
 30
0.000000
  70
    32
  0
VERTEX
  8
0
  5
A76A
 10
110.336
 20
238.780
 30
0.000000
  70
    32
  0
VERTEX
  8
0
  5
A76B
 10
110.337
 20
238.781
 30
0.000000
  70
    32
  0
VERTEX
  8
0
  5
A76C
 10
110.339
 20
238.782
 30
0.000000
  70
    32
  0
VERTEX
  8
0
  5
A76D
 10
110.340
 20
238.784
 30
0.000000
  70
    32
  0
VERTEX
  8
0
  5
A76E
 10
110.342
 20
238.785
 30
0.000000
  70
    32
  0
VERTEX
  8
0
  5
A76F
 10
110.343
 20
238.786
 30
0.000000
  70
    32
  0
VERTEX
  8
0
  5
A770
 10
110.344
 20
238.787
 30
0.000000
  70
    32
  0
VERTEX
  8
0
  5
A771
 10
110.346
 20
238.788
 30
0.000000
  70
    32
  0
VERTEX
  8
0
  5
A772
 10
110.347
 20
238.789
 30
0.000000
  70
    32
  0
VERTEX
  8
0
  5
A773
 10
110.349
 20
238.790
 30
0.000000
  70
    32
  0
VERTEX
  8
0
  5
A774
 10
110.350
 20
238.792
 30
0.000000
  70
    32
  0
VERTEX
  8
0
  5
A775
 10
110.351
 20
238.793
 30
0.000000
  70
    32
  0
VERTEX
  8
0
  5
A776
 10
110.352
 20
238.794
 30
0.000000
  70
    32
  0
VERTEX
  8
0
  5
A777
 10
110.354
 20
238.795
 30
0.000000
  70
    32
  0
VERTEX
  8
0
  5
A778
 10
110.355
 20
238.796
 30
0.000000
  70
    32
  0
VERTEX
  8
0
  5
A779
 10
110.356
 20
238.797
 30
0.000000
  70
    32
  0
VERTEX
  8
0
  5
A77A
 10
110.357
 20
238.798
 30
0.000000
  70
    32
  0
VERTEX
  8
0
  5
A77B
 10
110.359
 20
238.799
 30
0.000000
  70
    32
  0
VERTEX
  8
0
  5
A77C
 10
110.360
 20
238.801
 30
0.000000
  70
    32
  0
VERTEX
  8
0
  5
A77D
 10
110.361
 20
238.802
 30
0.000000
  70
    32
  0
VERTEX
  8
0
  5
A77E
 10
110.362
 20
238.803
 30
0.000000
  70
    32
  0
VERTEX
  8
0
  5
A77F
 10
110.363
 20
238.804
 30
0.000000
  70
    32
  0
VERTEX
  8
0
  5
A780
 10
110.364
 20
238.805
 30
0.000000
  70
    32
  0
VERTEX
  8
0
  5
A781
 10
110.365
 20
238.806
 30
0.000000
  70
    32
  0
VERTEX
  8
0
  5
A782
 10
110.366
 20
238.807
 30
0.000000
  70
    32
  0
VERTEX
  8
0
  5
A783
 10
110.368
 20
238.808
 30
0.000000
  70
    32
  0
VERTEX
  8
0
  5
A784
 10
110.369
 20
238.810
 30
0.000000
  70
    32
  0
VERTEX
  8
0
  5
A785
 10
110.370
 20
238.811
 30
0.000000
  70
    32
  0
VERTEX
  8
0
  5
A786
 10
110.371
 20
238.812
 30
0.000000
  70
    32
  0
VERTEX
  8
0
  5
A787
 10
110.372
 20
238.813
 30
0.000000
  70
    32
  0
VERTEX
  8
0
  5
A788
 10
110.373
 20
238.814
 30
0.000000
  70
    32
  0
VERTEX
  8
0
  5
A789
 10
110.373
 20
238.815
 30
0.000000
  70
    32
  0
VERTEX
  8
0
  5
A78A
 10
110.374
 20
238.816
 30
0.000000
  70
    32
  0
VERTEX
  8
0
  5
A78B
 10
110.375
 20
238.818
 30
0.000000
  70
    32
  0
VERTEX
  8
0
  5
A78C
 10
110.376
 20
238.819
 30
0.000000
  70
    32
  0
VERTEX
  8
0
  5
A78D
 10
110.377
 20
238.820
 30
0.000000
  70
    32
  0
VERTEX
  8
0
  5
A78E
 10
110.378
 20
238.821
 30
0.000000
  70
    32
  0
VERTEX
  8
0
  5
A78F
 10
110.379
 20
238.822
 30
0.000000
  70
    32
  0
VERTEX
  8
0
  5
A790
 10
110.380
 20
238.823
 30
0.000000
  70
    32
  0
VERTEX
  8
0
  5
A791
 10
110.380
 20
238.824
 30
0.000000
  70
    32
  0
VERTEX
  8
0
  5
A792
 10
110.381
 20
238.825
 30
0.000000
  70
    32
  0
VERTEX
  8
0
  5
A793
 10
110.382
 20
238.827
 30
0.000000
  70
    32
  0
VERTEX
  8
0
  5
A794
 10
110.383
 20
238.828
 30
0.000000
  70
    32
  0
VERTEX
  8
0
  5
A795
 10
110.383
 20
238.829
 30
0.000000
  70
    32
  0
VERTEX
  8
0
  5
A796
 10
110.384
 20
238.830
 30
0.000000
  70
    32
  0
VERTEX
  8
0
  5
A797
 10
110.385
 20
238.831
 30
0.000000
  70
    32
  0
VERTEX
  8
0
  5
A798
 10
110.385
 20
238.832
 30
0.000000
  70
    32
  0
VERTEX
  8
0
  5
A799
 10
110.386
 20
238.833
 30
0.000000
  70
    32
  0
VERTEX
  8
0
  5
A79A
 10
110.387
 20
238.835
 30
0.000000
  70
    32
  0
VERTEX
  8
0
  5
A79B
 10
110.387
 20
238.836
 30
0.000000
  70
    32
  0
VERTEX
  8
0
  5
A79C
 10
110.388
 20
238.837
 30
0.000000
  70
    32
  0
VERTEX
  8
0
  5
A79D
 10
110.389
 20
238.838
 30
0.000000
  70
    32
  0
VERTEX
  8
0
  5
A79E
 10
110.389
 20
238.839
 30
0.000000
  70
    32
  0
VERTEX
  8
0
  5
A79F
 10
110.390
 20
238.840
 30
0.000000
  70
    32
  0
VERTEX
  8
0
  5
A7A0
 10
110.390
 20
238.841
 30
0.000000
  70
    32
  0
VERTEX
  8
0
  5
A7A1
 10
110.391
 20
238.842
 30
0.000000
  70
    32
  0
VERTEX
  8
0
  5
A7A2
 10
110.391
 20
238.844
 30
0.000000
  70
    32
  0
VERTEX
  8
0
  5
A7A3
 10
110.392
 20
238.845
 30
0.000000
  70
    32
  0
VERTEX
  8
0
  5
A7A4
 10
110.392
 20
238.846
 30
0.000000
  70
    32
  0
VERTEX
  8
0
  5
A7A5
 10
110.393
 20
238.847
 30
0.000000
  70
    32
  0
VERTEX
  8
0
  5
A7A6
 10
110.393
 20
238.848
 30
0.000000
  70
    32
  0
VERTEX
  8
0
  5
A7A7
 10
110.393
 20
238.849
 30
0.000000
  70
    32
  0
VERTEX
  8
0
  5
A7A8
 10
110.394
 20
238.850
 30
0.000000
  70
    32
  0
VERTEX
  8
0
  5
A7A9
 10
110.394
 20
238.851
 30
0.000000
  70
    32
  0
VERTEX
  8
0
  5
A7AA
 10
110.395
 20
238.853
 30
0.000000
  70
    32
  0
VERTEX
  8
0
  5
A7AB
 10
110.395
 20
238.854
 30
0.000000
  70
    32
  0
VERTEX
  8
0
  5
A7AC
 10
110.395
 20
238.855
 30
0.000000
  70
    32
  0
VERTEX
  8
0
  5
A7AD
 10
110.395
 20
238.856
 30
0.000000
  70
    32
  0
VERTEX
  8
0
  5
A7AE
 10
110.396
 20
238.857
 30
0.000000
  70
    32
  0
VERTEX
  8
0
  5
A7AF
 10
110.396
 20
238.858
 30
0.000000
  70
    32
  0
VERTEX
  8
0
  5
A7B0
 10
110.396
 20
238.859
 30
0.000000
  70
    32
  0
VERTEX
  8
0
  5
A7B1
 10
110.396
 20
238.861
 30
0.000000
  70
    32
  0
VERTEX
  8
0
  5
A7B2
 10
110.397
 20
238.862
 30
0.000000
  70
    32
  0
VERTEX
  8
0
  5
A7B3
 10
110.397
 20
238.863
 30
0.000000
  70
    32
  0
VERTEX
  8
0
  5
A7B4
 10
110.397
 20
238.864
 30
0.000000
  70
    32
  0
VERTEX
  8
0
  5
A7B5
 10
110.397
 20
238.865
 30
0.000000
  70
    32
  0
VERTEX
  8
0
  5
A7B6
 10
110.397
 20
238.866
 30
0.000000
  70
    32
  0
VERTEX
  8
0
  5
A7B7
 10
110.397
 20
238.867
 30
0.000000
  70
    32
  0
VERTEX
  8
0
  5
A7B8
 10
110.398
 20
238.868
 30
0.000000
  70
    32
  0
VERTEX
  8
0
  5
A7B9
 10
110.398
 20
238.870
 30
0.000000
  70
    32
  0
VERTEX
  8
0
  5
A7BA
 10
110.398
 20
238.871
 30
0.000000
  70
    32
  0
VERTEX
  8
0
  5
A7BB
 10
110.398
 20
238.872
 30
0.000000
  70
    32
  0
VERTEX
  8
0
  5
A7BC
 10
110.398
 20
238.873
 30
0.000000
  70
    32
  0
VERTEX
  8
0
  5
A7BD
 10
110.398
 20
238.874
 30
0.000000
  70
    32
  0
SEQEND
  8
0
  5
A7BE
  0
POLYLINE
  5
875A
  8
0
 66
     1
 10
0.0
 20
0.0
 30
0.0
 70
   128
  0
VERTEX
  5
A6DB
  8
0
 10
110.1544968438775
 20
239.0602765443011
 30
0.0
  0
VERTEX
  5
A6DC
  8
0
 10
110.3369317603738
 20
238.9672225179358
 30
0.0
  0
VERTEX
  5
A6DD
  8
0
 10
110.38254235214301
 20
238.92067874094681
 30
0.0
  0
VERTEX
  5
A6DE
  8
0
 10
110.39394360310141
 20
238.89740312716199
 30
0.0
  0
VERTEX
  5
A6DF
  8
0
 10
110.397745261851
 20
238.874125336611
 30
0.0
  0
SEQEND
  5
A6E0
  8
0
  0
LINE
  5
875C
  8
0
 10
120.0000000000009
 20
243.42412444075779
 30
0.0
 11
117.5003595305115
 21
243.42412444075779
 31
0.0
  0
LINE
  5
875E
  8
0
 10
118.5000002039105
 20
233.1241270365401
 30
0.0
 11
126.8449475643631
 21
233.1241270365401
 31
0.0
  0
LINE
  5
8761
  8
0
 10
128.49999998039311
 20
243.9241254540367
 30
0.0
 11
120.5
 21
243.92412536991199
 31
0.0
  0
POLYLINE
  5
8763
  8
0
 66
     1
 10
0.0
 20
0.0
 30
0.0
 70
   128
  0
VERTEX
  5
A6E1
  8
0
 10
110.1544968438775
 20
239.0602765443011
 30
0.0
  0
VERTEX
  5
A6E2
  8
0
 10
109.9738724184662
 20
239.1665385874195
 30
0.0
  0
VERTEX
  5
A6E3
  8
0
 10
109.8421871317059
 20
239.33169374486641
 30
0.0
  0
VERTEX
  5
A6E4
  8
0
 10
109.6784233701855
 20
239.86546078941061
 30
0.0
  0
VERTEX
  5
A6E5
  8
0
 10
109.595489094916
 20
240.57725573202799
 30
0.0
  0
VERTEX
  5
A6E6
  8
0
 10
109.54620722955769
 20
241.5015635850115
 30
0.0
  0
VERTEX
  5
A6E7
  8
0
 10
109.5327421677739
 20
242.32448952516751
 30
0.0
  0
VERTEX
  5
A6E8
  8
0
 10
109.5585994077355
 20
242.8239913495465
 30
0.0
  0
VERTEX
  5
A6E9
  8
0
 10
109.63943820721209
 20
243.07171756645869
 30
0.0
  0
VERTEX
  5
A6EA
  8
0
 10
109.7147933793694
 20
243.11855564138131
 30
0.0
  0
VERTEX
  5
A6EB
  8
0
 10
109.8568144840628
 20
243.13750619312961
 30
0.0
  0
SEQEND
  5
A6EC
  8
0
  0
LINE
  5
8764
  8
0
 10
117.5003595305115
 20
243.42412444075779
 30
0.0
 11
109.8568144840628
 21
243.13750619312961
 31
0.0
  0
LINE
  5
8765
  8
0
 10
109.5868426961333
 20
234.60964987298681
 30
0.0
 11
118.5000002039105
 21
233.1241270365401
 31
0.0
  0
POLYLINE
  5
8766
  8
0
 66
     1
 10
0.0
 20
0.0
 30
0.0
 70
   128
  0
VERTEX
  5
A6ED
  8
0
 10
109.5868426961333
 20
234.60964987298681
 30
0.0
  0
VERTEX
  5
A6EE
  8
0
 10
109.54040322727271
 20
234.68559736630161
 30
0.0
  0
VERTEX
  5
A6EF
  8
0
 10
109.5324143422276
 20
235.04021892568301
 30
0.0
  0
VERTEX
  5
A6F0
  8
0
 10
109.5675866705805
 20
235.52414531132411
 30
0.0
  0
VERTEX
  5
A6F1
  8
0
 10
109.63750478154719
 20
236.1926114024802
 30
0.0
  0
VERTEX
  5
A6F2
  8
0
 10
109.75754667347969
 20
237.1260834695978
 30
0.0
  0
VERTEX
  5
A6F3
  8
0
 10
109.8660755557448
 20
237.81420046707819
 30
0.0
  0
VERTEX
  5
A6F4
  8
0
 10
110.0268218321234
 20
238.45286051055621
 30
0.0
  0
VERTEX
  5
A6F5
  8
0
 10
110.1230814707905
 20
238.6258853437586
 30
0.0
  0
VERTEX
  5
A6F6
  8
0
 10
110.1819298816353
 20
238.68537450453471
 30
0.0
  0
VERTEX
  5
A6F7
  8
0
 10
110.2505106133849
 20
238.72928636392791
 30
0.0
  0
SEQEND
  5
A6F8
  8
0
  0
POLYLINE
  5
8767
  8
0
 66
     1
 10
0.0
 20
0.0
 30
0.0
 70
   128
  0
VERTEX
  5
A6F9
  8
0
 10
129.07603929093781
 20
245.4336074950381
 30
0.0
  0
VERTEX
  5
A6FA
  8
0
 10
127.8832791028053
 20
245.30075432976921
 30
0.0
  0
VERTEX
  5
A6FB
  8
0
 10
126.69051938033409
 20
245.4336074950381
 30
0.0
  0
SEQEND
  5
A6FC
  8
0
  0
LINE
  5
8768
  8
0
 10
129.07603929093781
 20
245.4336074950381
 30
0.0
 11
129.0761049491793
 21
245.42813690623481
 31
0.0
  0
ARC
  5
8769
  8
0
 10
128.88116783951909
 20
245.41674459834269
 30
0.0
 40
0.1952697145020475
 50
295.2966210796269
 51
3.344614993831573
  0
LINE
  5
876B
  8
0
 10
129.07603929093781
 20
247.7241245867892
 30
0.0
 11
119.6573286903531
 21
247.7241245867892
 31
0.0
  0
LINE
  5
876C
  8
0
 10
129.07603929093781
 20
245.4336074950381
 30
0.0
 11
129.07603929093781
 21
251.6241254123135
 31
0.0
  0
LINE
  5
8784
  8
0
 10
101.0000001294049
 20
234.60912460705489
 30
0.0
 11
101.0000001294047
 21
243.13912483176421
 31
0.0
  0
LINE
  5
8786
  8
0
 10
100.49999911612569
 20
234.89780107757281
 30
0.0
 11
100.49999911612569
 21
242.8504502238913
 31
0.0
  0
LINE
  5
8789
  8
0
 10
120.8203000602752
 20
245.4336074950381
 30
0.0
 11
120.8204295141131
 21
245.42813690623481
 31
0.0
  0
LINE
  5
878A
  8
0
 10
120.8203000602752
 20
245.4336074950381
 30
0.0
 11
120.8203000602752
 21
247.7241245867892
 31
0.0
  0
ARC
  5
878C
  8
0
 10
121.03472240257361
 20
245.4351981607164
 30
0.0
 40
0.2144091960708492
 50
181.8872942897209
 51
245.43201471790721
  0
LINE
  5
87AC
  8
0
 10
129.25354890799821
 20
251.72057690343101
 30
0.0
 11
129.34267135611481
 21
251.6241254123135
 31
0.0
  0
LINE
  5
87AD
  8
0
 10
129.34267135611481
 20
251.6241254123135
 30
0.0
 11
129.07603929093781
 21
251.6241254123135
 31
0.0
  0
LINE
  5
87B5
  8
0
 10
119.94999960339371
 20
251.92412490269379
 30
0.0
 11
129.04999997741291
 21
251.92412490269379
 31
0.0
  0
LINE
  5
87B6
  8
0
 10
119.65733986622401
 20
245.42813690623481
 30
0.0
 11
119.6573286903531
 21
245.4336074950381
 31
0.0
  0
POLYLINE
  5
87B7
  8
0
 66
     1
 10
0.0
 20
0.0
 30
0.0
 70
   128
  0
VERTEX
  5
A6FD
  8
0
 10
120.8203000602752
 20
245.4336074950381
 30
0.0
  0
VERTEX
  5
A6FE
  8
0
 10
120.23881484097539
 20
245.30075432976921
 30
0.0
  0
VERTEX
  5
A6FF
  8
0
 10
119.6573286903531
 20
245.4336074950381
 30
0.0
  0
SEQEND
  5
A700
  8
0
  0
ARC
  5
87B8
  8
0
 10
119.8584447572557
 20
245.42966987378131
 30
0.0
 40
0.2011107336427677
 50
180.43674158770969
 51
250.41042548486129
  0
LINE
  5
87BA
  8
0
 10
124.21974759823389
 20
244.82412578782271
 30
0.0
 11
124.00554340607231
 21
244.9241256179495
 31
0.0
  0
LINE
  5
87BB
  8
0
 10
124.9944561747343
 20
244.9241256179495
 30
0.0
 11
124.7802529138953
 21
244.82412578782271
 31
0.0
  0
LINE
  5
87BC
  8
0
 10
124.21974759823389
 20
244.82412578782271
 30
0.0
 11
124.7802529138953
 21
244.82412578782271
 31
0.0
  0
LINE
  5
87C2
  8
0
 10
119.6573286903531
 20
251.62412541231339
 30
0.0
 11
119.6573286903531
 21
245.4336074950381
 31
0.0
  0
LINE
  5
87C6
  8
0
 10
127.48688120669431
 20
244.82412578782271
 30
0.0
 11
127.4589717974395
 21
244.9241256179495
 31
0.0
  0
LINE
  5
87C7
  8
0
 10
121.5410282490284
 20
244.9241256179495
 30
0.0
 11
121.5131193054349
 21
244.82412578782271
 31
0.0
  0
LINE
  5
87DD
  8
0
 10
119.7464516041309
 20
251.72057690343101
 30
0.0
 11
119.6573286903531
 21
251.6241254123135
 31
0.0
  0
LINE
  5
87E1
  8
0
 10
129.34266018024411
 20
245.42813690623481
 30
0.0
 11
129.34267135611481
 21
251.6241254123135
 31
0.0
  0
ARC
  5
87E4
  8
0
 10
129.14155381695031
 20
245.42967092097589
 30
0.0
 40
0.2011122138470432
 50
289.5898696493436
 51
359.5629632780819
  0
LINE
  5
87E8
  8
0
 10
127.48688120669431
 20
244.82412578782271
 30
0.0
 11
127.6500000273318
 21
244.82412578782271
 31
0.0
  0
LINE
  5
87E9
  8
0
 10
121.5131193054349
 20
244.82412578782271
 30
0.0
 11
121.35000001913561
 21
244.82412578782271
 31
0.0
  0
LINE
  5
87F6
  8
0
 10
112.83310909098689
 20
247.2084308030982
 30
0.0
 11
112.83310909098689
 21
243.2491115201706
 31
0.0
  0
LINE
  5
87F7
  8
0
 10
112.83310909098689
 20
234.06860733648969
 30
0.0
 11
112.83310909098689
 21
228.39550802728371
 31
0.0
  0
LINE
  5
87F9
  8
0
 10
156.8331088525683
 20
247.2084308030982
 30
0.0
 11
156.8331088525683
 21
228.39550802728371
 31
0.0
  0
LINE
  5
87FA
  8
0
 10
112.83310909098689
 20
228.39550802728371
 30
0.0
 11
156.8331088525683
 21
228.39550802728371
 31
0.0
  0
ARC
  5
89D8
  8
0
 10
217.3118722028496
 20
178.19550802728369
 30
0.0
 40
0.2000000000000455
 50
0.0000000030093645
 51
179.9999998570226
  0
ARC
  5
89D9
  8
0
 10
217.3118722028855
 20
168.7955080272917
 30
0.0
 40
0.2000000000000455
 50
180.00000014342029
 51
359.99999999742062
  0
LINE
  5
89DA
  8
0
 10
223.58123803275731
 20
177.94820796698329
 30
0.0
 11
223.3618724508872
 21
177.3455081507563
 31
0.0
  0
LINE
  5
89DB
  8
0
 10
223.3618724508872
 20
169.64550819247961
 30
0.0
 11
223.58158821004531
 21
169.04184352606529
 31
0.0
  0
LINE
  5
89DC
  8
0
 10
213.83969889718199
 20
168.995508365333
 30
0.0
 11
216.9118713005175
 21
168.995508365333
 31
0.0
  0
ARC
  5
89DD
  8
0
 10
213.79251639094861
 20
171.2398519108722
 30
0.0
 40
2.2448394462186889
 50
199.07018630414771
 51
271.20434339290438
  0
ARC
  5
89DE
  8
0
 10
213.65565164004579
 20
175.8868370056496
 30
0.0
 40
2.108367920440374
 50
91.008385109865657
 51
160.77239872922419
  0
LINE
  5
89DF
  8
0
 10
221.86187127369541
 20
177.99550797790289
 30
0.0
 11
217.71187180417681
 21
177.99550797790289
 31
0.0
  0
LINE
  5
89E0
  8
0
 10
217.71187180417681
 20
168.995508365333
 30
0.0
 11
221.86187127369541
 21
168.995508365333
 31
0.0
  0
ARC
  5
89E1
  8
0
 10
221.8618722276604
 20
177.4955079185892
 30
0.0
 40
0.5000000593149713
 50
359.99989068364511
 51
90.000109316312134
  0
ARC
  5
89E2
  8
0
 10
221.86187272044569
 20
169.49550793186179
 30
0.0
 40
0.4999995665308929
 50
269.99983421448712
 51
0.0001657855002322
  0
LINE
  5
89E4
  8
0
 10
222.3618722869744
 20
170.49550767987961
 30
0.0
 11
223.26187262076041
 21
170.49550767987961
 31
0.0
  0
LINE
  5
89E5
  8
0
 10
223.26187262076041
 20
176.4955086633563
 30
0.0
 11
222.3618722869744
 21
176.4955086633563
 31
0.0
  0
LINE
  5
89EC
  8
0
 10
223.26187262076041
 20
170.3455088660121
 30
0.0
 11
223.3618724508872
 21
170.24550717324021
 31
0.0
  0
LINE
  5
89ED
  8
0
 10
223.3618724508872
 20
176.74550916999581
 30
0.0
 11
223.26187262076041
 21
176.64550747722379
 31
0.0
  0
LINE
  5
89EE
  8
0
 10
226.16187141972679
 20
168.6664013192057
 30
0.0
 11
230.063580290853
 21
168.6664013192057
 31
0.0
  0
LINE
  5
89EF
  8
0
 10
220.361871959149
 20
143.5286178663373
 30
0.0
 11
220.3618719591486
 21
155.73366957832309
 31
0.0
  0
LINE
  5
89F0
  8
0
 10
214.3618728383174
 20
168.995508365333
 30
0.0
 11
214.3618728383172
 21
156.8708322324658
 31
0.0
  0
LINE
  5
8A1A
  8
0
 10
217.51187220284959
 20
178.19550802728369
 30
0.0
 11
217.5118722028856
 21
168.79550802728269
 31
0.0
  0
LINE
  5
8A1B
  8
0
 10
217.11187220288551
 20
168.79550802679111
 30
0.0
 11
217.1118722028495
 21
178.19550802778281
 31
0.0
  0
LINE
  5
8A1C
  8
0
 10
223.8658837391724
 20
173.76222964376211
 30
0.0
 11
223.87135432797569
 21
173.76203220337629
 31
0.0
  0
POLYLINE
  5
8A1D
  8
0
 66
     1
 10
0.0
 20
0.0
 30
0.0
 70
   128
  0
VERTEX
  5
A701
  8
0
 10
223.87135432797569
 20
170.33602800220251
 30
0.0
  0
VERTEX
  5
A702
  8
0
 10
223.7385011627068
 20
172.04903196543449
 30
0.0
  0
VERTEX
  5
A703
  8
0
 10
223.87135432797569
 20
173.76203220337629
 30
0.0
  0
SEQEND
  5
A704
  8
0
  0
LINE
  5
8A1E
  8
0
 10
223.87135432797569
 20
170.33602800220251
 30
0.0
 11
223.8658837391724
 21
170.33587899059049
 31
0.0
  0
ARC
  5
8A1F
  8
0
 10
223.83260591435081
 20
170.5660357854583
 30
0.0
 40
0.2325501319042277
 50
228.313218312092
 51
278.22724517906232
  0
ARC
  5
8A20
  8
0
 10
223.90920458473261
 20
174.60049203386001
 30
0.0
 40
0.839381040000778
 50
254.0075805382655
 51
267.0416238581779
  0
LINE
  5
8A21
  8
0
 10
226.16187141972711
 20
168.6664013192057
 30
0.0
 11
226.16187141972679
 21
173.76203220337629
 31
0.0
  0
LINE
  5
8A24
  8
0
 10
223.87135432797569
 20
170.33602800220251
 30
0.0
 11
226.16187141972679
 21
170.33602800220251
 31
0.0
  0
LINE
  5
8A25
  8
0
 10
230.06187224525121
 20
173.76203220337629
 30
0.0
 11
223.87135432797569
 21
173.76203220337629
 31
0.0
  0
LINE
  5
8A26
  8
0
 10
223.87135432797569
 20
175.10248105973
 30
0.0
 11
230.06187224525121
 21
175.10248105973
 31
0.0
  0
LINE
  5
8A28
  8
0
 10
230.06187224525121
 20
173.76203220337629
 30
0.0
 11
230.06187224525121
 21
175.10248105973
 31
0.0
  0
LINE
  5
8A2A
  8
0
 10
223.87135432797569
 20
175.10248105973
 30
0.0
 11
223.8658837391724
 21
175.1022947952151
 31
0.0
  0
LINE
  5
8A2B
  8
0
 10
223.6779465689053
 20
173.7935965880751
 30
0.0
 11
223.6779465689053
 21
175.02216007560489
 31
0.0
  0
ARC
  5
8A2C
  8
0
 10
223.86897863380071
 20
174.83458783285761
 30
0.0
 40
0.2677248514191354
 50
90.662352967735103
 51
135.5235748381694
  0
LINE
  5
8A45
  8
0
 10
223.6779484315505
 20
178.1252970919013
 30
0.0
 11
223.58124175804761
 21
177.94822286814451
 31
0.0
  0
LINE
  5
8A46
  8
0
 10
223.6779465689053
 20
177.72264908999199
 30
0.0
 11
223.6779465689053
 21
178.125293366611
 31
0.0
  0
LINE
  5
8A47
  8
0
 10
223.6779465689053
 20
169.56645380705589
 30
0.0
 11
223.6779465689053
 21
170.39237301796669
 31
0.0
  0
LINE
  5
8A48
  8
0
 10
223.5810052021136
 20
169.04344540089369
 30
0.0
 11
223.6779465689053
 21
168.86571925133461
 31
0.0
  0
LINE
  5
8A49
  8
0
 10
223.3618724508872
 20
169.64550819247961
 30
0.0
 11
223.3618724508872
 21
177.3455081507563
 31
0.0
  0
ARC
  5
8A4A
  8
0
 10
217.71079136505
 20
168.7965916195854
 30
0.0
 40
0.1989196799906072
 50
89.688794460294417
 51
180.1230668033607
  0
ARC
  5
8A4B
  8
0
 10
217.7107942532887
 20
178.19442762138911
 30
0.0
 40
0.198922562019571
 50
179.87776961883711
 51
270.31036911757923
  0
ARC
  5
8A4C
  8
0
 10
216.9118789420429
 20
178.19487228610001
 30
0.0
 40
0.1999938824036316
 50
269.99781079732583
 51
359.99418457662159
  0
ARC
  5
8A4D
  8
0
 10
216.91295069053061
 20
168.79658870832591
 30
0.0
 40
0.1989225855115706
 50
359.87777352772628
 51
90.310898812795244
  0
LINE
  5
8A50
  8
0
 10
223.8658837391724
 20
177.82273646444079
 30
0.0
 11
223.87135432797569
 21
177.8226470574736
 31
0.0
  0
POLYLINE
  5
8A51
  8
0
 66
     1
 10
0.0
 20
0.0
 30
0.0
 70
   128
  0
VERTEX
  5
A705
  8
0
 10
223.87135432797569
 20
175.10248105973
 30
0.0
  0
VERTEX
  5
A706
  8
0
 10
223.7385011627068
 20
176.46256592124701
 30
0.0
  0
VERTEX
  5
A707
  8
0
 10
223.87135432797569
 20
177.8226470574736
 30
0.0
  0
SEQEND
  5
A708
  8
0
  0
ARC
  5
8A52
  8
0
 10
223.8485817245425
 20
177.62873008185809
 30
0.0
 40
0.1947763748329592
 50
84.903689931349405
 51
151.1702880192378
  0
LINE
  5
8A57
  8
0
 10
226.16187141972679
 20
177.8226470574736
 30
0.0
 11
223.87135432797569
 21
177.8226470574736
 31
0.0
  0
LINE
  5
8A5A
  8
0
 10
213.6185470386138
 20
177.99487840384239
 30
0.0
 11
216.9118713005175
 21
177.99487840384239
 31
0.0
  0
POLYLINE
  5
8A5D
  8
0
 66
     1
 10
0.0
 20
0.0
 30
0.0
 70
   128
  0
VERTEX
  5
A709
  8
0
 10
211.67087586361069
 20
170.5064041540025
 30
0.0
  0
VERTEX
  5
A70A
  8
0
 10
211.60401807862419
 20
170.76131831854579
 30
0.0
  0
VERTEX
  5
A70B
  8
0
 10
211.56187386947769
 20
171.18915673345319
 30
0.0
  0
SEQEND
  5
A70C
  8
0
  0
LINE
  5
8A5E
  8
0
 10
211.56187386947769
 20
175.93849208205941
 30
0.0
 11
211.56187386947769
 21
171.18915673345319
 31
0.0
  0
POLYLINE
  5
8A5F
  8
0
 66
     1
 10
0.0
 20
0.0
 30
0.0
 70
   128
  0
VERTEX
  5
A70D
  8
0
 10
211.56187386947769
 20
175.93849208205941
 30
0.0
  0
VERTEX
  5
A70E
  8
0
 10
211.60139174896381
 20
176.33967231959099
 30
0.0
  0
VERTEX
  5
A70F
  8
0
 10
211.66489304739181
 20
176.58116798847871
 30
0.0
  0
SEQEND
  5
A710
  8
0
  0
LINE
  5
8A61
  8
0
 10
222.3618722869744
 20
169.49550937861201
 30
0.0
 11
222.3618722869744
 21
177.4955069646239
 31
0.0
  0
LINE
  5
8A7D
  8
0
 10
226.16187141972679
 20
169.43489518016571
 30
0.0
 11
223.87135432797569
 21
169.43489518016571
 31
0.0
  0
LINE
  5
8A7E
  8
0
 10
223.8658837391724
 20
169.43500321358439
 30
0.0
 11
223.87135432797569
 21
169.43489518016571
 31
0.0
  0
ARC
  5
8A80
  8
0
 10
223.8733495858294
 20
169.6457482900731
 30
0.0
 40
0.210877277416338
 50
202.08748907354189
 51
267.97109048054187
  0
LINE
  5
8A92
  8
0
 10
223.26187262076041
 20
173.7757598981261
 30
0.0
 11
223.26187262076019
 21
173.21525644510999
 31
0.0
  0
LINE
  5
8A93
  8
0
 10
223.26187262076041
 20
173.7757598981261
 30
0.0
 11
223.3618724508872
 21
173.98996409028771
 31
0.0
  0
LINE
  5
8A94
  8
0
 10
223.3618724508872
 20
173.00105225294831
 30
0.0
 11
223.26187262076041
 21
173.21525644510979
 31
0.0
  0
LINE
  5
8A99
  8
0
 10
223.26187262076041
 20
170.50862815231079
 30
0.0
 11
223.3618724508872
 21
170.5365380272269
 31
0.0
  0
LINE
  5
8A9A
  8
0
 10
223.3618724508872
 20
176.45447831600899
 30
0.0
 11
223.26187262076041
 21
176.48238819092509
 31
0.0
  0
POLYLINE
  5
8A9C
  8
0
 66
     1
 10
0.0
 20
0.0
 30
0.0
 70
   128
  0
VERTEX
  5
A711
  8
0
 10
223.87135432797569
 20
168.72905325144529
 30
0.0
  0
VERTEX
  5
A712
  8
0
 10
223.7385048879971
 20
169.08197980374089
 30
0.0
  0
VERTEX
  5
A713
  8
0
 10
223.87135432797569
 20
169.43489518016571
 30
0.0
  0
SEQEND
  5
A714
  8
0
  0
LINE
  5
8A9D
  8
0
 10
223.87135432797569
 20
168.72905325144529
 30
0.0
 11
223.8658837391724
 21
168.72909050434819
 31
0.0
  0
ARC
  5
8A9E
  8
0
 10
223.87025471183071
 20
168.9326714335574
 30
0.0
 40
0.2036278471615393
 50
199.19576172884831
 51
268.77002322877172
  0
LINE
  5
8A9F
  8
0
 10
223.87135432797569
 20
168.72905325144529
 30
0.0
 11
226.16187141972679
 21
168.72905325144529
 31
0.0
  0
LINE
  5
8AB6
  8
0
 10
223.87135432797569
 20
178.26195936650029
 30
0.0
 11
223.8658837391724
 21
178.26192583888769
 31
0.0
  0
LINE
  5
8AB7
  8
0
 10
223.87135432797569
 20
178.26195936650029
 30
0.0
 11
226.16187141972679
 21
178.26195936650029
 31
0.0
  0
ARC
  5
8AB9
  8
0
 10
223.87024945653889
 20
178.05835213842741
 30
0.0
 40
0.2036205073346833
 50
91.228542013199757
 51
160.8056730291664
  0
ARC
  5
8AD7
  8
0
 10
229.99831633242121
 20
178.2020304062915
 30
0.0
 40
0.1376936746525202
 50
41.112843753576072
 51
62.501623781934732
  0
LINE
  5
8AD8
  8
0
 10
230.10205695170069
 20
178.29257007688281
 30
0.0
 11
230.32922329145569
 21
178.0775239691138
 31
0.0
  0
ARC
  5
8AD9
  8
0
 10
228.09160507276579
 20
175.76511094090421
 30
0.0
 40
3.2177926138344142
 50
45.127183945027028
 51
45.94176078038214
  0
LINE
  5
8ADC
  8
0
 10
230.36187173563141
 20
168.9448034390806
 30
0.0
 11
230.36187173563141
 21
178.0454790219664
 31
0.0
  0
LINE
  5
8AE0
  8
0
 10
230.06189273434779
 20
178.32416798919439
 30
0.0
 11
226.16187141972679
 21
178.32416798919439
 31
0.0
  0
LINE
  5
8AE1
  8
0
 10
226.16187141972679
 20
178.32416798919439
 30
0.0
 11
226.16187141972659
 21
175.10248105973
 31
0.0
  0
LINE
  5
8AE2
  8
0
 10
223.26187262076041
 20
170.50862815231079
 30
0.0
 11
223.26187262076019
 21
170.3455088660119
 31
0.0
  0
LINE
  5
8AE3
  8
0
 10
223.26187262076019
 20
176.6455074772235
 30
0.0
 11
223.26187262076041
 21
176.48238819092509
 31
0.0
  0
LINE
  5
8AEE
  8
0
 10
225.64617762106559
 20
133.52861808985469
 30
0.0
 11
225.64617762106559
 21
124.52861754596231
 31
0.0
  0
ARC
  5
8AF0
  8
0
 10
224.66681944441351
 20
124.50717403104581
 30
0.0
 40
0.9795929065217702
 50
272.63564525094171
 51
1.2543180314950979
  0
LINE
  5
8AF1
  8
0
 10
224.7118655009856
 20
123.5286173820495
 30
0.0
 11
206.83325486022139
 21
123.5286173820495
 31
0.0
  0
LINE
  5
8AF2
  8
0
 10
206.83325486022139
 20
143.5286178663373
 30
0.0
 11
206.83325486022139
 21
123.5286173820495
 31
0.0
  0
POLYLINE
  5
8AF3
  8
0
 66
     1
 10
0.0
 20
0.0
 30
0.0
 70
   128
  0
VERTEX
  5
A715
  8
0
 10
225.24624535578391
 20
135.52861841768021
 30
0.0
  0
VERTEX
  5
A716
  8
0
 10
225.58603653448719
 20
134.3123018220067
 30
0.0
  0
VERTEX
  5
A717
  8
0
 10
225.64617762106559
 20
133.52861808985469
 30
0.0
  0
SEQEND
  5
A718
  8
0
  0
POLYLINE
  5
8AF6
  8
0
 10
222.59828552996268
 20
142.90030335605317
 30
0.0
 66
     1
 70
     8
  0
VERTEX
  8
0
  5
A7BF
 10
222.598
 20
142.900
 30
0.000000
  70
    32
  0
VERTEX
  8
0
  5
A7C0
 10
222.617
 20
142.840
 30
0.000000
  70
    32
  0
VERTEX
  8
0
  5
A7C1
 10
222.636
 20
142.779
 30
0.000000
  70
    32
  0
VERTEX
  8
0
  5
A7C2
 10
222.655
 20
142.719
 30
0.000000
  70
    32
  0
VERTEX
  8
0
  5
A7C3
 10
222.674
 20
142.658
 30
0.000000
  70
    32
  0
VERTEX
  8
0
  5
A7C4
 10
222.694
 20
142.598
 30
0.000000
  70
    32
  0
VERTEX
  8
0
  5
A7C5
 10
222.713
 20
142.537
 30
0.000000
  70
    32
  0
VERTEX
  8
0
  5
A7C6
 10
222.732
 20
142.477
 30
0.000000
  70
    32
  0
VERTEX
  8
0
  5
A7C7
 10
222.751
 20
142.417
 30
0.000000
  70
    32
  0
VERTEX
  8
0
  5
A7C8
 10
222.770
 20
142.356
 30
0.000000
  70
    32
  0
VERTEX
  8
0
  5
A7C9
 10
222.790
 20
142.296
 30
0.000000
  70
    32
  0
VERTEX
  8
0
  5
A7CA
 10
222.809
 20
142.236
 30
0.000000
  70
    32
  0
VERTEX
  8
0
  5
A7CB
 10
222.828
 20
142.176
 30
0.000000
  70
    32
  0
VERTEX
  8
0
  5
A7CC
 10
222.848
 20
142.116
 30
0.000000
  70
    32
  0
VERTEX
  8
0
  5
A7CD
 10
222.867
 20
142.056
 30
0.000000
  70
    32
  0
VERTEX
  8
0
  5
A7CE
 10
222.886
 20
141.996
 30
0.000000
  70
    32
  0
VERTEX
  8
0
  5
A7CF
 10
222.906
 20
141.936
 30
0.000000
  70
    32
  0
VERTEX
  8
0
  5
A7D0
 10
222.925
 20
141.876
 30
0.000000
  70
    32
  0
VERTEX
  8
0
  5
A7D1
 10
222.945
 20
141.816
 30
0.000000
  70
    32
  0
VERTEX
  8
0
  5
A7D2
 10
222.964
 20
141.756
 30
0.000000
  70
    32
  0
VERTEX
  8
0
  5
A7D3
 10
222.984
 20
141.697
 30
0.000000
  70
    32
  0
VERTEX
  8
0
  5
A7D4
 10
223.003
 20
141.637
 30
0.000000
  70
    32
  0
VERTEX
  8
0
  5
A7D5
 10
223.023
 20
141.577
 30
0.000000
  70
    32
  0
VERTEX
  8
0
  5
A7D6
 10
223.042
 20
141.518
 30
0.000000
  70
    32
  0
VERTEX
  8
0
  5
A7D7
 10
223.062
 20
141.458
 30
0.000000
  70
    32
  0
VERTEX
  8
0
  5
A7D8
 10
223.082
 20
141.398
 30
0.000000
  70
    32
  0
VERTEX
  8
0
  5
A7D9
 10
223.101
 20
141.339
 30
0.000000
  70
    32
  0
VERTEX
  8
0
  5
A7DA
 10
223.121
 20
141.280
 30
0.000000
  70
    32
  0
VERTEX
  8
0
  5
A7DB
 10
223.141
 20
141.220
 30
0.000000
  70
    32
  0
VERTEX
  8
0
  5
A7DC
 10
223.161
 20
141.161
 30
0.000000
  70
    32
  0
VERTEX
  8
0
  5
A7DD
 10
223.180
 20
141.102
 30
0.000000
  70
    32
  0
VERTEX
  8
0
  5
A7DE
 10
223.200
 20
141.042
 30
0.000000
  70
    32
  0
VERTEX
  8
0
  5
A7DF
 10
223.220
 20
140.983
 30
0.000000
  70
    32
  0
VERTEX
  8
0
  5
A7E0
 10
223.240
 20
140.924
 30
0.000000
  70
    32
  0
VERTEX
  8
0
  5
A7E1
 10
223.260
 20
140.865
 30
0.000000
  70
    32
  0
VERTEX
  8
0
  5
A7E2
 10
223.280
 20
140.806
 30
0.000000
  70
    32
  0
VERTEX
  8
0
  5
A7E3
 10
223.300
 20
140.747
 30
0.000000
  70
    32
  0
VERTEX
  8
0
  5
A7E4
 10
223.320
 20
140.688
 30
0.000000
  70
    32
  0
VERTEX
  8
0
  5
A7E5
 10
223.340
 20
140.629
 30
0.000000
  70
    32
  0
VERTEX
  8
0
  5
A7E6
 10
223.360
 20
140.570
 30
0.000000
  70
    32
  0
VERTEX
  8
0
  5
A7E7
 10
223.380
 20
140.511
 30
0.000000
  70
    32
  0
VERTEX
  8
0
  5
A7E8
 10
223.400
 20
140.452
 30
0.000000
  70
    32
  0
VERTEX
  8
0
  5
A7E9
 10
223.420
 20
140.394
 30
0.000000
  70
    32
  0
VERTEX
  8
0
  5
A7EA
 10
223.440
 20
140.335
 30
0.000000
  70
    32
  0
VERTEX
  8
0
  5
A7EB
 10
223.460
 20
140.276
 30
0.000000
  70
    32
  0
VERTEX
  8
0
  5
A7EC
 10
223.480
 20
140.218
 30
0.000000
  70
    32
  0
VERTEX
  8
0
  5
A7ED
 10
223.501
 20
140.159
 30
0.000000
  70
    32
  0
VERTEX
  8
0
  5
A7EE
 10
223.521
 20
140.101
 30
0.000000
  70
    32
  0
VERTEX
  8
0
  5
A7EF
 10
223.541
 20
140.042
 30
0.000000
  70
    32
  0
VERTEX
  8
0
  5
A7F0
 10
223.561
 20
139.984
 30
0.000000
  70
    32
  0
VERTEX
  8
0
  5
A7F1
 10
223.582
 20
139.926
 30
0.000000
  70
    32
  0
VERTEX
  8
0
  5
A7F2
 10
223.602
 20
139.867
 30
0.000000
  70
    32
  0
VERTEX
  8
0
  5
A7F3
 10
223.622
 20
139.809
 30
0.000000
  70
    32
  0
VERTEX
  8
0
  5
A7F4
 10
223.643
 20
139.751
 30
0.000000
  70
    32
  0
VERTEX
  8
0
  5
A7F5
 10
223.663
 20
139.693
 30
0.000000
  70
    32
  0
VERTEX
  8
0
  5
A7F6
 10
223.684
 20
139.635
 30
0.000000
  70
    32
  0
VERTEX
  8
0
  5
A7F7
 10
223.704
 20
139.577
 30
0.000000
  70
    32
  0
VERTEX
  8
0
  5
A7F8
 10
223.725
 20
139.519
 30
0.000000
  70
    32
  0
VERTEX
  8
0
  5
A7F9
 10
223.745
 20
139.461
 30
0.000000
  70
    32
  0
VERTEX
  8
0
  5
A7FA
 10
223.766
 20
139.403
 30
0.000000
  70
    32
  0
VERTEX
  8
0
  5
A7FB
 10
223.786
 20
139.345
 30
0.000000
  70
    32
  0
VERTEX
  8
0
  5
A7FC
 10
223.807
 20
139.287
 30
0.000000
  70
    32
  0
VERTEX
  8
0
  5
A7FD
 10
223.828
 20
139.229
 30
0.000000
  70
    32
  0
VERTEX
  8
0
  5
A7FE
 10
223.848
 20
139.172
 30
0.000000
  70
    32
  0
VERTEX
  8
0
  5
A7FF
 10
223.869
 20
139.114
 30
0.000000
  70
    32
  0
VERTEX
  8
0
  5
A800
 10
223.890
 20
139.056
 30
0.000000
  70
    32
  0
VERTEX
  8
0
  5
A801
 10
223.910
 20
138.999
 30
0.000000
  70
    32
  0
VERTEX
  8
0
  5
A802
 10
223.931
 20
138.941
 30
0.000000
  70
    32
  0
VERTEX
  8
0
  5
A803
 10
223.952
 20
138.884
 30
0.000000
  70
    32
  0
VERTEX
  8
0
  5
A804
 10
223.973
 20
138.826
 30
0.000000
  70
    32
  0
VERTEX
  8
0
  5
A805
 10
223.994
 20
138.769
 30
0.000000
  70
    32
  0
VERTEX
  8
0
  5
A806
 10
224.015
 20
138.712
 30
0.000000
  70
    32
  0
VERTEX
  8
0
  5
A807
 10
224.035
 20
138.655
 30
0.000000
  70
    32
  0
VERTEX
  8
0
  5
A808
 10
224.056
 20
138.597
 30
0.000000
  70
    32
  0
VERTEX
  8
0
  5
A809
 10
224.077
 20
138.540
 30
0.000000
  70
    32
  0
VERTEX
  8
0
  5
A80A
 10
224.098
 20
138.483
 30
0.000000
  70
    32
  0
VERTEX
  8
0
  5
A80B
 10
224.119
 20
138.426
 30
0.000000
  70
    32
  0
VERTEX
  8
0
  5
A80C
 10
224.140
 20
138.369
 30
0.000000
  70
    32
  0
VERTEX
  8
0
  5
A80D
 10
224.161
 20
138.312
 30
0.000000
  70
    32
  0
VERTEX
  8
0
  5
A80E
 10
224.182
 20
138.255
 30
0.000000
  70
    32
  0
VERTEX
  8
0
  5
A80F
 10
224.204
 20
138.198
 30
0.000000
  70
    32
  0
VERTEX
  8
0
  5
A810
 10
224.225
 20
138.141
 30
0.000000
  70
    32
  0
VERTEX
  8
0
  5
A811
 10
224.246
 20
138.085
 30
0.000000
  70
    32
  0
VERTEX
  8
0
  5
A812
 10
224.267
 20
138.028
 30
0.000000
  70
    32
  0
VERTEX
  8
0
  5
A813
 10
224.288
 20
137.971
 30
0.000000
  70
    32
  0
VERTEX
  8
0
  5
A814
 10
224.309
 20
137.915
 30
0.000000
  70
    32
  0
VERTEX
  8
0
  5
A815
 10
224.331
 20
137.858
 30
0.000000
  70
    32
  0
VERTEX
  8
0
  5
A816
 10
224.352
 20
137.802
 30
0.000000
  70
    32
  0
VERTEX
  8
0
  5
A817
 10
224.373
 20
137.745
 30
0.000000
  70
    32
  0
VERTEX
  8
0
  5
A818
 10
224.395
 20
137.689
 30
0.000000
  70
    32
  0
VERTEX
  8
0
  5
A819
 10
224.416
 20
137.632
 30
0.000000
  70
    32
  0
VERTEX
  8
0
  5
A81A
 10
224.437
 20
137.576
 30
0.000000
  70
    32
  0
VERTEX
  8
0
  5
A81B
 10
224.459
 20
137.520
 30
0.000000
  70
    32
  0
VERTEX
  8
0
  5
A81C
 10
224.480
 20
137.464
 30
0.000000
  70
    32
  0
VERTEX
  8
0
  5
A81D
 10
224.502
 20
137.407
 30
0.000000
  70
    32
  0
VERTEX
  8
0
  5
A81E
 10
224.523
 20
137.351
 30
0.000000
  70
    32
  0
VERTEX
  8
0
  5
A81F
 10
224.545
 20
137.295
 30
0.000000
  70
    32
  0
VERTEX
  8
0
  5
A820
 10
224.566
 20
137.239
 30
0.000000
  70
    32
  0
VERTEX
  8
0
  5
A821
 10
224.588
 20
137.183
 30
0.000000
  70
    32
  0
VERTEX
  8
0
  5
A822
 10
224.609
 20
137.127
 30
0.000000
  70
    32
  0
VERTEX
  8
0
  5
A823
 10
224.631
 20
137.071
 30
0.000000
  70
    32
  0
VERTEX
  8
0
  5
A824
 10
224.653
 20
137.016
 30
0.000000
  70
    32
  0
VERTEX
  8
0
  5
A825
 10
224.674
 20
136.960
 30
0.000000
  70
    32
  0
VERTEX
  8
0
  5
A826
 10
224.696
 20
136.904
 30
0.000000
  70
    32
  0
VERTEX
  8
0
  5
A827
 10
224.718
 20
136.849
 30
0.000000
  70
    32
  0
VERTEX
  8
0
  5
A828
 10
224.739
 20
136.793
 30
0.000000
  70
    32
  0
VERTEX
  8
0
  5
A829
 10
224.761
 20
136.737
 30
0.000000
  70
    32
  0
VERTEX
  8
0
  5
A82A
 10
224.783
 20
136.682
 30
0.000000
  70
    32
  0
VERTEX
  8
0
  5
A82B
 10
224.805
 20
136.627
 30
0.000000
  70
    32
  0
VERTEX
  8
0
  5
A82C
 10
224.827
 20
136.571
 30
0.000000
  70
    32
  0
VERTEX
  8
0
  5
A82D
 10
224.848
 20
136.516
 30
0.000000
  70
    32
  0
VERTEX
  8
0
  5
A82E
 10
224.870
 20
136.460
 30
0.000000
  70
    32
  0
VERTEX
  8
0
  5
A82F
 10
224.892
 20
136.405
 30
0.000000
  70
    32
  0
VERTEX
  8
0
  5
A830
 10
224.914
 20
136.350
 30
0.000000
  70
    32
  0
VERTEX
  8
0
  5
A831
 10
224.936
 20
136.295
 30
0.000000
  70
    32
  0
VERTEX
  8
0
  5
A832
 10
224.958
 20
136.240
 30
0.000000
  70
    32
  0
VERTEX
  8
0
  5
A833
 10
224.980
 20
136.185
 30
0.000000
  70
    32
  0
VERTEX
  8
0
  5
A834
 10
225.002
 20
136.130
 30
0.000000
  70
    32
  0
VERTEX
  8
0
  5
A835
 10
225.024
 20
136.075
 30
0.000000
  70
    32
  0
VERTEX
  8
0
  5
A836
 10
225.046
 20
136.020
 30
0.000000
  70
    32
  0
VERTEX
  8
0
  5
A837
 10
225.068
 20
135.965
 30
0.000000
  70
    32
  0
VERTEX
  8
0
  5
A838
 10
225.091
 20
135.910
 30
0.000000
  70
    32
  0
VERTEX
  8
0
  5
A839
 10
225.113
 20
135.856
 30
0.000000
  70
    32
  0
VERTEX
  8
0
  5
A83A
 10
225.135
 20
135.801
 30
0.000000
  70
    32
  0
VERTEX
  8
0
  5
A83B
 10
225.157
 20
135.747
 30
0.000000
  70
    32
  0
VERTEX
  8
0
  5
A83C
 10
225.179
 20
135.692
 30
0.000000
  70
    32
  0
VERTEX
  8
0
  5
A83D
 10
225.202
 20
135.637
 30
0.000000
  70
    32
  0
VERTEX
  8
0
  5
A83E
 10
225.224
 20
135.583
 30
0.000000
  70
    32
  0
VERTEX
  8
0
  5
A83F
 10
225.246
 20
135.529
 30
0.000000
  70
    32
  0
SEQEND
  8
0
  5
A840
  0
ARC
  5
8AF7
  8
0
 10
221.82700334371509
 20
142.74284545950971
 30
0.0
 40
0.7871899028472501
 50
11.53840865079176
 51
86.561064835122295
  0
LINE
  5
8AFB
  8
0
 10
206.83325486022139
 20
143.5286178663373
 30
0.0
 11
221.87422270217189
 21
143.5286178663373
 31
0.0
  0
LINE
  5
8B35
  8
0
 10
110.397891269504
 20
177.76050921529529
 30
0.0
 11
101.0001461370577
 21
177.76050921529529
 31
0.0
  0
LINE
  5
8B36
  8
0
 10
101.0001461370577
 20
169.2305071279406
 30
0.0
 11
110.397915483891
 21
169.2305071279406
 31
0.0
  0
LINE
  5
8B37
  8
0
 10
101.0001461370577
 20
177.76050921529529
 30
0.0
 11
100.50014512377879
 21
177.4718327447772
 31
0.0
  0
LINE
  5
8B38
  8
0
 10
100.50014512377879
 20
169.51918359845871
 30
0.0
 11
101.0001461370577
 21
169.2305071279406
 31
0.0
  0
LINE
  5
8B39
  8
0
 10
70.500143931685898
 20
135.495507530868
 30
0.0
 11
103.0001464648833
 21
135.495507530868
 31
0.0
  0
LINE
  5
8B3A
  8
0
 10
103.0001464648833
 20
141.49550851434469
 30
0.0
 11
70.500143931685898
 21
141.49550851434469
 31
0.0
  0
LINE
  5
8B3B
  8
0
 10
100.50014512377879
 20
176.4955086633563
 30
0.0
 11
70.500143931685898
 21
176.4955086633563
 31
0.0
  0
LINE
  5
8B3C
  8
0
 10
70.500143931685898
 20
170.49550767987961
 30
0.0
 11
100.50014512377879
 21
170.49550767987961
 31
0.0
  0
ARC
  5
8B3D
  8
0
 10
70.500146007653029
 20
155.99550802728359
 30
0.0
 40
14.5
 50
90.0
 51
176.57403308017189
  0
ARC
  5
8B3E
  8
0
 10
70.500146007653029
 20
155.99550802728359
 30
0.0
 40
20.500000000000028
 50
90.0
 51
177.5320666883996
  0
ARC
  5
8B3F
  8
0
 10
70.500146007653029
 20
155.99550802728359
 30
0.0
 40
20.500000000000028
 50
180.39485902565011
 51
270.0
  0
ARC
  5
8B42
  8
0
 10
124.500146007653
 20
173.4955080272876
 30
0.0
 40
4.8999999999960266
 50
269.02208626333072
 51
90.977113723365093
  0
LINE
  5
8B43
  8
0
 10
116.29128003257409
 20
142.49550867825741
 30
0.0
 11
103.0001464648833
 21
142.49550867825741
 31
0.0
  0
LINE
  5
8B44
  8
0
 10
103.0001464648833
 20
134.49550736695531
 30
0.0
 11
112.92763346570629
 21
134.49550736695531
 31
0.0
  0
CIRCLE
  5
8B6E
  8
0
 10
117.83325497943019
 20
132.32861699908969
 30
0.0
 40
3.8199999999999998
  0
LINE
  5
8B6F
  8
0
 10
117.8332540555586
 20
133.78353919833901
 30
0.0
 11
116.5732547058453
 21
133.05607754737139
 31
0.0
  0
LINE
  5
8B70
  8
0
 10
116.5732547058453
 20
133.05607754737139
 30
0.0
 11
116.5732547058453
 21
131.60115610808131
 31
0.0
  0
LINE
  5
8B71
  8
0
 10
116.5732547058453
 20
131.60115610808131
 30
0.0
 11
117.8332540555586
 21
130.87369445711369
 31
0.0
  0
LINE
  5
8B72
  8
0
 10
119.0932552679171
 20
131.60115610808131
 30
0.0
 11
117.8332540555586
 21
130.87369445711369
 31
0.0
  0
LINE
  5
8B73
  8
0
 10
119.0932552679171
 20
131.60115610808131
 30
0.0
 11
119.0932552679171
 21
133.05607754737139
 31
0.0
  0
LINE
  5
8B74
  8
0
 10
117.8332540555586
 20
133.78353919833901
 30
0.0
 11
119.0932552679171
 21
133.05607754737139
 31
0.0
  0
CIRCLE
  5
8B7B
  8
0
 10
151.83325497943019
 20
132.32861699908969
 30
0.0
 40
3.8200000000000029
  0
LINE
  5
8B88
  8
0
 10
118.5001462115635
 20
171.3471760973334
 30
0.0
 11
118.5001462115635
 21
175.8931627497077
 31
0.0
  0
POLYLINE
  5
8B89
  8
0
 10
109.58703696241365
 20
173.42902677069205
 30
0.0
 66
     1
 70
     8
  0
VERTEX
  8
0
  5
A841
 10
109.587
 20
173.429
 30
0.000000
  70
    32
  0
VERTEX
  8
0
  5
A842
 10
109.587
 20
173.430
 30
0.000000
  70
    32
  0
VERTEX
  8
0
  5
A843
 10
109.587
 20
173.431
 30
0.000000
  70
    32
  0
VERTEX
  8
0
  5
A844
 10
109.587
 20
173.432
 30
0.000000
  70
    32
  0
VERTEX
  8
0
  5
A845
 10
109.587
 20
173.433
 30
0.000000
  70
    32
  0
VERTEX
  8
0
  5
A846
 10
109.588
 20
173.434
 30
0.000000
  70
    32
  0
VERTEX
  8
0
  5
A847
 10
109.588
 20
173.435
 30
0.000000
  70
    32
  0
VERTEX
  8
0
  5
A848
 10
109.588
 20
173.436
 30
0.000000
  70
    32
  0
VERTEX
  8
0
  5
A849
 10
109.588
 20
173.437
 30
0.000000
  70
    32
  0
VERTEX
  8
0
  5
A84A
 10
109.588
 20
173.438
 30
0.000000
  70
    32
  0
VERTEX
  8
0
  5
A84B
 10
109.588
 20
173.439
 30
0.000000
  70
    32
  0
VERTEX
  8
0
  5
A84C
 10
109.588
 20
173.440
 30
0.000000
  70
    32
  0
VERTEX
  8
0
  5
A84D
 10
109.588
 20
173.442
 30
0.000000
  70
    32
  0
VERTEX
  8
0
  5
A84E
 10
109.588
 20
173.443
 30
0.000000
  70
    32
  0
VERTEX
  8
0
  5
A84F
 10
109.588
 20
173.444
 30
0.000000
  70
    32
  0
VERTEX
  8
0
  5
A850
 10
109.588
 20
173.445
 30
0.000000
  70
    32
  0
VERTEX
  8
0
  5
A851
 10
109.588
 20
173.446
 30
0.000000
  70
    32
  0
VERTEX
  8
0
  5
A852
 10
109.588
 20
173.447
 30
0.000000
  70
    32
  0
VERTEX
  8
0
  5
A853
 10
109.589
 20
173.448
 30
0.000000
  70
    32
  0
VERTEX
  8
0
  5
A854
 10
109.589
 20
173.449
 30
0.000000
  70
    32
  0
VERTEX
  8
0
  5
A855
 10
109.589
 20
173.450
 30
0.000000
  70
    32
  0
VERTEX
  8
0
  5
A856
 10
109.589
 20
173.451
 30
0.000000
  70
    32
  0
VERTEX
  8
0
  5
A857
 10
109.589
 20
173.452
 30
0.000000
  70
    32
  0
VERTEX
  8
0
  5
A858
 10
109.589
 20
173.453
 30
0.000000
  70
    32
  0
VERTEX
  8
0
  5
A859
 10
109.589
 20
173.454
 30
0.000000
  70
    32
  0
VERTEX
  8
0
  5
A85A
 10
109.589
 20
173.455
 30
0.000000
  70
    32
  0
VERTEX
  8
0
  5
A85B
 10
109.589
 20
173.456
 30
0.000000
  70
    32
  0
VERTEX
  8
0
  5
A85C
 10
109.589
 20
173.457
 30
0.000000
  70
    32
  0
VERTEX
  8
0
  5
A85D
 10
109.589
 20
173.458
 30
0.000000
  70
    32
  0
VERTEX
  8
0
  5
A85E
 10
109.589
 20
173.459
 30
0.000000
  70
    32
  0
VERTEX
  8
0
  5
A85F
 10
109.589
 20
173.460
 30
0.000000
  70
    32
  0
VERTEX
  8
0
  5
A860
 10
109.589
 20
173.461
 30
0.000000
  70
    32
  0
VERTEX
  8
0
  5
A861
 10
109.589
 20
173.462
 30
0.000000
  70
    32
  0
VERTEX
  8
0
  5
A862
 10
109.589
 20
173.463
 30
0.000000
  70
    32
  0
VERTEX
  8
0
  5
A863
 10
109.589
 20
173.464
 30
0.000000
  70
    32
  0
VERTEX
  8
0
  5
A864
 10
109.590
 20
173.466
 30
0.000000
  70
    32
  0
VERTEX
  8
0
  5
A865
 10
109.590
 20
173.467
 30
0.000000
  70
    32
  0
VERTEX
  8
0
  5
A866
 10
109.590
 20
173.468
 30
0.000000
  70
    32
  0
VERTEX
  8
0
  5
A867
 10
109.590
 20
173.469
 30
0.000000
  70
    32
  0
VERTEX
  8
0
  5
A868
 10
109.590
 20
173.470
 30
0.000000
  70
    32
  0
VERTEX
  8
0
  5
A869
 10
109.590
 20
173.471
 30
0.000000
  70
    32
  0
VERTEX
  8
0
  5
A86A
 10
109.590
 20
173.472
 30
0.000000
  70
    32
  0
VERTEX
  8
0
  5
A86B
 10
109.590
 20
173.473
 30
0.000000
  70
    32
  0
VERTEX
  8
0
  5
A86C
 10
109.590
 20
173.474
 30
0.000000
  70
    32
  0
VERTEX
  8
0
  5
A86D
 10
109.590
 20
173.475
 30
0.000000
  70
    32
  0
VERTEX
  8
0
  5
A86E
 10
109.590
 20
173.476
 30
0.000000
  70
    32
  0
VERTEX
  8
0
  5
A86F
 10
109.590
 20
173.477
 30
0.000000
  70
    32
  0
VERTEX
  8
0
  5
A870
 10
109.590
 20
173.478
 30
0.000000
  70
    32
  0
VERTEX
  8
0
  5
A871
 10
109.590
 20
173.479
 30
0.000000
  70
    32
  0
VERTEX
  8
0
  5
A872
 10
109.590
 20
173.480
 30
0.000000
  70
    32
  0
VERTEX
  8
0
  5
A873
 10
109.590
 20
173.481
 30
0.000000
  70
    32
  0
VERTEX
  8
0
  5
A874
 10
109.590
 20
173.482
 30
0.000000
  70
    32
  0
VERTEX
  8
0
  5
A875
 10
109.590
 20
173.483
 30
0.000000
  70
    32
  0
VERTEX
  8
0
  5
A876
 10
109.590
 20
173.484
 30
0.000000
  70
    32
  0
VERTEX
  8
0
  5
A877
 10
109.590
 20
173.485
 30
0.000000
  70
    32
  0
VERTEX
  8
0
  5
A878
 10
109.590
 20
173.486
 30
0.000000
  70
    32
  0
VERTEX
  8
0
  5
A879
 10
109.590
 20
173.487
 30
0.000000
  70
    32
  0
VERTEX
  8
0
  5
A87A
 10
109.590
 20
173.488
 30
0.000000
  70
    32
  0
VERTEX
  8
0
  5
A87B
 10
109.590
 20
173.490
 30
0.000000
  70
    32
  0
VERTEX
  8
0
  5
A87C
 10
109.590
 20
173.491
 30
0.000000
  70
    32
  0
VERTEX
  8
0
  5
A87D
 10
109.590
 20
173.492
 30
0.000000
  70
    32
  0
VERTEX
  8
0
  5
A87E
 10
109.590
 20
173.493
 30
0.000000
  70
    32
  0
VERTEX
  8
0
  5
A87F
 10
109.590
 20
173.494
 30
0.000000
  70
    32
  0
VERTEX
  8
0
  5
A880
 10
109.590
 20
173.495
 30
0.000000
  70
    32
  0
VERTEX
  8
0
  5
A881
 10
109.590
 20
173.496
 30
0.000000
  70
    32
  0
VERTEX
  8
0
  5
A882
 10
109.590
 20
173.497
 30
0.000000
  70
    32
  0
VERTEX
  8
0
  5
A883
 10
109.590
 20
173.498
 30
0.000000
  70
    32
  0
VERTEX
  8
0
  5
A884
 10
109.590
 20
173.499
 30
0.000000
  70
    32
  0
VERTEX
  8
0
  5
A885
 10
109.590
 20
173.500
 30
0.000000
  70
    32
  0
VERTEX
  8
0
  5
A886
 10
109.590
 20
173.501
 30
0.000000
  70
    32
  0
VERTEX
  8
0
  5
A887
 10
109.590
 20
173.502
 30
0.000000
  70
    32
  0
VERTEX
  8
0
  5
A888
 10
109.590
 20
173.503
 30
0.000000
  70
    32
  0
VERTEX
  8
0
  5
A889
 10
109.590
 20
173.504
 30
0.000000
  70
    32
  0
VERTEX
  8
0
  5
A88A
 10
109.590
 20
173.505
 30
0.000000
  70
    32
  0
VERTEX
  8
0
  5
A88B
 10
109.590
 20
173.506
 30
0.000000
  70
    32
  0
VERTEX
  8
0
  5
A88C
 10
109.590
 20
173.507
 30
0.000000
  70
    32
  0
VERTEX
  8
0
  5
A88D
 10
109.590
 20
173.508
 30
0.000000
  70
    32
  0
VERTEX
  8
0
  5
A88E
 10
109.590
 20
173.509
 30
0.000000
  70
    32
  0
VERTEX
  8
0
  5
A88F
 10
109.590
 20
173.510
 30
0.000000
  70
    32
  0
VERTEX
  8
0
  5
A890
 10
109.590
 20
173.511
 30
0.000000
  70
    32
  0
VERTEX
  8
0
  5
A891
 10
109.590
 20
173.512
 30
0.000000
  70
    32
  0
VERTEX
  8
0
  5
A892
 10
109.590
 20
173.513
 30
0.000000
  70
    32
  0
VERTEX
  8
0
  5
A893
 10
109.590
 20
173.515
 30
0.000000
  70
    32
  0
VERTEX
  8
0
  5
A894
 10
109.590
 20
173.516
 30
0.000000
  70
    32
  0
VERTEX
  8
0
  5
A895
 10
109.590
 20
173.517
 30
0.000000
  70
    32
  0
VERTEX
  8
0
  5
A896
 10
109.590
 20
173.518
 30
0.000000
  70
    32
  0
VERTEX
  8
0
  5
A897
 10
109.590
 20
173.519
 30
0.000000
  70
    32
  0
VERTEX
  8
0
  5
A898
 10
109.590
 20
173.520
 30
0.000000
  70
    32
  0
VERTEX
  8
0
  5
A899
 10
109.590
 20
173.521
 30
0.000000
  70
    32
  0
VERTEX
  8
0
  5
A89A
 10
109.590
 20
173.522
 30
0.000000
  70
    32
  0
VERTEX
  8
0
  5
A89B
 10
109.590
 20
173.523
 30
0.000000
  70
    32
  0
VERTEX
  8
0
  5
A89C
 10
109.590
 20
173.524
 30
0.000000
  70
    32
  0
VERTEX
  8
0
  5
A89D
 10
109.590
 20
173.525
 30
0.000000
  70
    32
  0
VERTEX
  8
0
  5
A89E
 10
109.589
 20
173.526
 30
0.000000
  70
    32
  0
VERTEX
  8
0
  5
A89F
 10
109.589
 20
173.527
 30
0.000000
  70
    32
  0
VERTEX
  8
0
  5
A8A0
 10
109.589
 20
173.528
 30
0.000000
  70
    32
  0
VERTEX
  8
0
  5
A8A1
 10
109.589
 20
173.529
 30
0.000000
  70
    32
  0
VERTEX
  8
0
  5
A8A2
 10
109.589
 20
173.530
 30
0.000000
  70
    32
  0
VERTEX
  8
0
  5
A8A3
 10
109.589
 20
173.531
 30
0.000000
  70
    32
  0
VERTEX
  8
0
  5
A8A4
 10
109.589
 20
173.532
 30
0.000000
  70
    32
  0
VERTEX
  8
0
  5
A8A5
 10
109.589
 20
173.533
 30
0.000000
  70
    32
  0
VERTEX
  8
0
  5
A8A6
 10
109.589
 20
173.534
 30
0.000000
  70
    32
  0
VERTEX
  8
0
  5
A8A7
 10
109.589
 20
173.535
 30
0.000000
  70
    32
  0
VERTEX
  8
0
  5
A8A8
 10
109.589
 20
173.536
 30
0.000000
  70
    32
  0
VERTEX
  8
0
  5
A8A9
 10
109.589
 20
173.537
 30
0.000000
  70
    32
  0
VERTEX
  8
0
  5
A8AA
 10
109.589
 20
173.539
 30
0.000000
  70
    32
  0
VERTEX
  8
0
  5
A8AB
 10
109.589
 20
173.540
 30
0.000000
  70
    32
  0
VERTEX
  8
0
  5
A8AC
 10
109.589
 20
173.541
 30
0.000000
  70
    32
  0
VERTEX
  8
0
  5
A8AD
 10
109.589
 20
173.542
 30
0.000000
  70
    32
  0
VERTEX
  8
0
  5
A8AE
 10
109.589
 20
173.543
 30
0.000000
  70
    32
  0
VERTEX
  8
0
  5
A8AF
 10
109.589
 20
173.544
 30
0.000000
  70
    32
  0
VERTEX
  8
0
  5
A8B0
 10
109.588
 20
173.545
 30
0.000000
  70
    32
  0
VERTEX
  8
0
  5
A8B1
 10
109.588
 20
173.546
 30
0.000000
  70
    32
  0
VERTEX
  8
0
  5
A8B2
 10
109.588
 20
173.547
 30
0.000000
  70
    32
  0
VERTEX
  8
0
  5
A8B3
 10
109.588
 20
173.548
 30
0.000000
  70
    32
  0
VERTEX
  8
0
  5
A8B4
 10
109.588
 20
173.549
 30
0.000000
  70
    32
  0
VERTEX
  8
0
  5
A8B5
 10
109.588
 20
173.550
 30
0.000000
  70
    32
  0
VERTEX
  8
0
  5
A8B6
 10
109.588
 20
173.551
 30
0.000000
  70
    32
  0
VERTEX
  8
0
  5
A8B7
 10
109.588
 20
173.552
 30
0.000000
  70
    32
  0
VERTEX
  8
0
  5
A8B8
 10
109.588
 20
173.553
 30
0.000000
  70
    32
  0
VERTEX
  8
0
  5
A8B9
 10
109.588
 20
173.554
 30
0.000000
  70
    32
  0
VERTEX
  8
0
  5
A8BA
 10
109.588
 20
173.555
 30
0.000000
  70
    32
  0
VERTEX
  8
0
  5
A8BB
 10
109.588
 20
173.556
 30
0.000000
  70
    32
  0
VERTEX
  8
0
  5
A8BC
 10
109.587
 20
173.557
 30
0.000000
  70
    32
  0
VERTEX
  8
0
  5
A8BD
 10
109.587
 20
173.558
 30
0.000000
  70
    32
  0
VERTEX
  8
0
  5
A8BE
 10
109.587
 20
173.559
 30
0.000000
  70
    32
  0
VERTEX
  8
0
  5
A8BF
 10
109.587
 20
173.560
 30
0.000000
  70
    32
  0
VERTEX
  8
0
  5
A8C0
 10
109.587
 20
173.561
 30
0.000000
  70
    32
  0
VERTEX
  8
0
  5
A8C1
 10
109.587
 20
173.563
 30
0.000000
  70
    32
  0
SEQEND
  8
0
  5
A8C2
  0
ARC
  5
8B8A
  8
0
 10
122.6457873821093
 20
176.41251982918979
 30
0.0
 40
4.1777341759403868
 50
159.14338341990759
 51
187.107451753937
  0
POLYLINE
  5
8B8B
  8
0
 66
     1
 10
0.0
 20
0.0
 30
0.0
 70
   128
  0
VERTEX
  5
A719
  8
0
 10
109.5869887037863
 20
173.56250192970029
 30
0.0
  0
VERTEX
  5
A71A
  8
0
 10
109.54054923492571
 20
174.29953943938011
 30
0.0
  0
VERTEX
  5
A71B
  8
0
 10
109.5325603498807
 20
175.36402996629471
 30
0.0
  0
VERTEX
  5
A71C
  8
0
 10
109.5677326782336
 20
176.13517623394719
 30
0.0
  0
VERTEX
  5
A71D
  8
0
 10
109.63765078920029
 20
176.8120875582099
 30
0.0
  0
VERTEX
  5
A71E
  8
0
 10
109.7576926811328
 20
177.38582696765661
 30
0.0
  0
VERTEX
  5
A71F
  8
0
 10
109.8662215633978
 20
177.6267042383551
 30
0.0
  0
VERTEX
  5
A720
  8
0
 10
110.0269678397765
 20
177.7396513149142
 30
0.0
  0
VERTEX
  5
A721
  8
0
 10
110.1232274784436
 20
177.753278426826
 30
0.0
  0
VERTEX
  5
A722
  8
0
 10
110.1820758892884
 20
177.75632943958041
 30
0.0
  0
VERTEX
  5
A723
  8
0
 10
110.2506566210379
 20
177.758046798408
 30
0.0
  0
SEQEND
  5
A724
  8
0
  0
LINE
  5
8B8C
  8
0
 10
118.7418020679345
 20
177.8999207541346
 30
0.0
 11
110.2506566210379
 21
177.758046798408
 31
0.0
  0
ARC
  5
8B8D
  8
0
 10
123.38901166657359
 20
170.8225287024992
 30
0.0
 40
4.9167478327215033
 50
173.89482588567719
 51
200.6284348806571
  0
LINE
  5
8B8E
  8
0
 10
110.25278189915321
 20
169.2329322919249
 30
0.0
 11
118.7875020666709
 21
169.0903281792998
 31
0.0
  0
POLYLINE
  5
8B8F
  8
0
 66
     1
 10
0.0
 20
0.0
 30
0.0
 70
   128
  0
VERTEX
  5
A725
  8
0
 10
110.25278189915321
 20
169.2329322919249
 30
0.0
  0
VERTEX
  5
A726
  8
0
 10
110.16532512146129
 20
169.2353500053286
 30
0.0
  0
VERTEX
  5
A727
  8
0
 10
110.0925105972876
 20
169.24020778387779
 30
0.0
  0
VERTEX
  5
A728
  8
0
 10
109.9951389594664
 20
169.25878953188649
 30
0.0
  0
VERTEX
  5
A729
  8
0
 10
109.8529595299353
 20
169.36997082084409
 30
0.0
  0
VERTEX
  5
A72A
  8
0
 10
109.73863409596581
 20
169.63347177952519
 30
0.0
  0
VERTEX
  5
A72B
  8
0
 10
109.6395395113816
 20
170.1136467978358
 30
0.0
  0
VERTEX
  5
A72C
  8
0
 10
109.5669038011422
 20
170.79118397086859
 30
0.0
  0
VERTEX
  5
A72D
  8
0
 10
109.5304536982169
 20
171.58002164214849
 30
0.0
  0
VERTEX
  5
A72E
  8
0
 10
109.5338455750336
 20
172.53970485180611
 30
0.0
  0
VERTEX
  5
A72F
  8
0
 10
109.5870371325602
 20
173.42902850359681
 30
0.0
  0
SEQEND
  5
A730
  8
0
  0
LINE
  5
8B90
  8
0
 10
118.7418020679345
 20
177.8999207541346
 30
0.0
 11
124.4249680428495
 21
177.99487840384239
 31
0.0
  0
LINE
  5
8B91
  8
0
 10
124.4249680428495
 20
168.99613421410319
 30
0.0
 11
118.7875020666709
 21
169.0903281792998
 31
0.0
  0
LINE
  5
8B92
  8
0
 10
124.5001462637176
 20
168.995508365333
 30
0.0
 11
124.4249680428495
 21
168.99613421410319
 31
0.0
  0
LINE
  5
8B93
  8
0
 10
124.4249680428495
 20
177.99487840384239
 30
0.0
 11
124.5001462637176
 21
177.99550797790289
 31
0.0
  0
ARC
  5
8B94
  8
0
 10
124.50014605833999
 20
173.49550817161801
 30
0.0
 40
4.4999998062849089
 50
270.00000261494228
 51
89.999997385057654
  0
LINE
  5
8B95
  8
0
 10
101.0001461370577
 20
169.2305071279406
 30
0.0
 11
101.0001461370577
 21
177.76050921529529
 31
0.0
  0
LINE
  5
8B96
  8
0
 10
100.50014512377879
 20
169.51918359845871
 30
0.0
 11
100.50014512377879
 21
177.4718327447772
 31
0.0
  0
ARC
  5
8B97
  8
0
 10
116.21926235354979
 20
168.9332148542365
 30
0.0
 40
0.1999986331507757
 50
359.87597462044602
 51
89.042920775633675
  0
ARC
  5
8B98
  8
0
 10
116.2192623530868
 20
178.05780120140889
 30
0.0
 40
0.1999986342364943
 50
270.95709211234129
 51
0.1241077682363112
  0
LINE
  5
8B99
  8
0
 10
124.41462943094869
 20
178.39476224035019
 30
0.0
 11
124.41658618509631
 21
178.39479550160621
 31
0.0
  0
LINE
  5
8B9A
  8
0
 10
124.41462943094869
 20
168.59625410288569
 30
0.0
 11
124.41651777700891
 21
168.59622172018121
 31
0.0
  0
LINE
  5
8B9B
  8
0
 10
116.6157695813765
 20
178.25863268226379
 30
0.0
 11
124.41462943094869
 21
178.39476224035019
 31
0.0
  0
LINE
  5
8B9C
  8
0
 10
116.6157695813765
 20
168.73238366097209
 30
0.0
 11
124.41462943094869
 21
168.59625410288569
 31
0.0
  0
ARC
  5
8B9D
  8
0
 10
116.6192627345919
 20
168.93235582411791
 30
0.0
 40
0.2000026703637703
 50
179.8779319712196
 51
268.99924779548343
  0
ARC
  5
8B9E
  8
0
 10
116.61926506513259
 20
178.05865823380691
 30
0.0
 40
0.2000049960434961
 50
91.001408302453441
 51
180.1214119308346
  0
ARC
  5
8BA0
  8
0
 10
113.8332551062704
 20
124.5286168830407
 30
0.0
 40
1.0000000076304449
 50
179.99999104569449
 51
270.0000089543185
  0
LINE
  5
8BA1
  8
0
 10
112.8332550986399
 20
124.5286170393228
 30
0.0
 11
112.8332550986399
 21
133.52861758321521
 31
0.0
  0
ARC
  5
8BA2
  8
0
 10
117.8332570085911
 20
133.5286173730226
 30
0.0
 40
5.0000019099511821
 50
156.42182434699311
 51
179.99999759137091
  0
LINE
  5
8BA3
  8
0
 10
113.250679464518
 20
135.52861791104081
 30
0.0
 11
116.48030498760841
 21
142.9286165162921
 31
0.0
  0
ARC
  5
8BA4
  8
0
 10
117.3968191267106
 20
142.52861944931971
 30
0.0
 40
0.9999979103781955
 50
89.999976704808986
 51
156.42195262676651
  0
LINE
  5
8BA5
  8
0
 10
117.3968195332875
 20
143.52861735969779
 30
0.0
 11
152.26939841026771
 21
143.52861735969779
 31
0.0
  0
ARC
  5
8BAA
  8
0
 10
151.8395879726971
 20
133.52927142416311
 30
0.0
 40
4.9936669303292147
 50
359.99249803252468
 51
23.601712400005049
  0
LINE
  5
8BAB
  8
0
 10
156.8332548602213
 20
133.52861758321521
 30
0.0
 11
156.8332548602213
 21
124.5286170393228
 31
0.0
  0
ARC
  5
8BAC
  8
0
 10
155.83325476829569
 20
124.5286170865445
 30
0.0
 40
1.000000211134451
 50
269.99999587543789
 51
359.99999498921193
  0
LINE
  5
8BAD
  8
0
 10
155.83325469630859
 20
123.52861687541009
 30
0.0
 11
113.8332552625527
 21
123.52861687541009
 31
0.0
  0
CIRCLE
  5
8BB0
  8
0
 10
125.83325497943019
 20
130.52861699908959
 30
0.0
 40
1.75
  0
CIRCLE
  5
8BB1
  8
0
 10
131.83325497943019
 20
130.52861699908959
 30
0.0
 40
1.749999999999996
  0
CIRCLE
  5
8BB2
  8
0
 10
137.83325497943019
 20
130.52861699908971
 30
0.0
 40
1.7500000000000031
  0
CIRCLE
  5
8BB3
  8
0
 10
143.83325497943019
 20
130.52861699908959
 30
0.0
 40
1.75
  0
CIRCLE
  5
8BB4
  8
0
 10
125.83325497943019
 20
136.52861699908959
 30
0.0
 40
1.75
  0
CIRCLE
  5
8BB5
  8
0
 10
131.83325497943019
 20
136.52861699908959
 30
0.0
 40
1.75
  0
CIRCLE
  5
8BB6
  8
0
 10
137.83325497943019
 20
136.52861699908959
 30
0.0
 40
1.7500000000000031
  0
CIRCLE
  5
8BB7
  8
0
 10
143.83325497943019
 20
136.52861699908959
 30
0.0
 40
1.75
  0
LINE
  5
8BB8
  8
0
 10
103.0001464648833
 20
142.49550867825741
 30
0.0
 11
103.0001464648833
 21
134.49550736695531
 31
0.0
  0
LINE
  5
8C25
  8
0
 10
230.063580290853
 20
168.6664013192057
 30
0.0
 11
230.36187173563141
 21
168.94480343908069
 31
0.0
  0
LINE
  5
8C54
  8
0
 10
334.1949801309695
 20
134.49550736695531
 30
0.0
 11
333.62603287120669
 21
134.49550736695531
 31
0.0
  0
CIRCLE
  5
8D6B
  8
0
 10
312.69498058819931
 20
173.4955080272839
 30
0.0
 40
4.5499999999999989
  0
CIRCLE
  5
8D79
  8
3
 10
312.69498058819931
 20
173.4955080272839
 30
0.0
 40
4.0
  0
CIRCLE
  5
8D7A
  8
0
 10
312.69498058819931
 20
173.4955080272839
 30
0.0
 40
3.3235000000000001
  0
LINE
  5
8D8D
  8
1
 10
338.69498147207401
 20
173.49550817161821
 30
0.0
 11
305.79498058820332
 21
173.49550817161821
 31
0.0
  0
LINE
  5
8D8E
  8
1
 10
312.69498058819931
 20
166.5955080272918
 30
0.0
 11
312.69498058819931
 21
180.39550802728391
 31
0.0
  0
LINE
  5
8D98
  8
1
 10
232.36187173563141
 20
173.49550817161801
 30
0.0
 11
209.56187386947769
 21
173.49550817161801
 31
0.0
  0
LINE
  5
8DA2
  8
0
 10
151.8335460708636
 20
133.78353919833901
 30
0.0
 11
150.57354672115019
 21
133.05607754737139
 31
0.0
  0
LINE
  5
8DA3
  8
0
 10
150.57354672115019
 20
133.05607754737139
 30
0.0
 11
150.57354672115019
 21
131.60115610808131
 31
0.0
  0
LINE
  5
8DA4
  8
0
 10
150.57354672115019
 20
131.60115610808131
 30
0.0
 11
151.8335460708636
 21
130.87369445711369
 31
0.0
  0
LINE
  5
8DA5
  8
0
 10
153.09354728322199
 20
131.60115610808131
 30
0.0
 11
151.8335460708636
 21
130.87369445711369
 31
0.0
  0
LINE
  5
8DA6
  8
0
 10
153.09354728322199
 20
131.60115610808131
 30
0.0
 11
153.09354728322199
 21
133.05607754737139
 31
0.0
  0
LINE
  5
8DA7
  8
0
 10
151.8335460708636
 20
133.78353919833901
 30
0.0
 11
153.09354728322199
 21
133.05607754737139
 31
0.0
  0
LINE
  5
8EC8
  8
1
 10
131.400146007649
 20
173.49550817161801
 30
0.0
 11
98.500145123778793
 21
173.49550817161801
 31
0.0
  0
POLYLINE
  5
8F0A
  8
4
 66
     1
 10
0.0
 20
0.0
 30
0.0
  0
VERTEX
  5
8F0B
  8
4
 10
56.600146007652931
 20
157.72996836823751
 30
0.0
 42
-0.1680006345387558
  0
VERTEX
  5
8F0C
  8
4
 10
55.306180013683161
 20
156.3107214291627
 30
0.0
 42
-0.1536795722212451
  0
VERTEX
  5
8F0D
  8
4
 10
53.961512993349061
 20
156.04698865339651
 30
0.0
 42
-0.1847247553159499
  0
VERTEX
  5
8F0E
  8
4
 10
52.928258029331118
 20
156.5804948890698
 30
0.0
 42
0.1729818233278114
  0
VERTEX
  5
8F0F
  8
4
 10
51.842538447150218
 20
157.1727638731962
 30
0.0
 42
0.1305645647028073
  0
VERTEX
  5
8F10
  8
4
 10
50.336732015939333
 20
157.01734971743579
 30
0.0
 42
0.0788129880541052
  0
VERTEX
  5
8F11
  8
4
 10
49.400146007652893
 20
156.48133645765421
 30
0.0
  0
SEQEND
  5
8F12
  8
4
  0
POLYLINE
  5
8F13
  8
4
 66
     1
 10
0.0
 20
0.0
 30
0.0
  0
VERTEX
  5
8F14
  8
4
 10
56.600146007652931
 20
156.34299315533721
 30
0.0
 42
-0.1061392580884754
  0
VERTEX
  5
8F15
  8
4
 10
55.521387054119479
 20
155.41551777312341
 30
0.0
 42
-0.1536795722212452
  0
VERTEX
  5
8F16
  8
4
 10
53.91153168370397
 20
155.0997729686467
 30
0.0
 42
-0.184724755315947
  0
VERTEX
  5
8F17
  8
4
 10
52.592580060837228
 20
155.78079453627089
 30
0.0
 42
0.1729818233278094
  0
VERTEX
  5
8F18
  8
4
 10
51.77226077002183
 20
156.22828547316141
 30
0.0
 42
0.1305645647028095
  0
VERTEX
  5
8F19
  8
4
 10
50.4963103577727
 20
156.09659473788389
 30
0.0
 42
0.1110297405178938
  0
VERTEX
  5
8F1A
  8
4
 10
49.400146007652893
 20
155.37267495744641
 30
0.0
  0
SEQEND
  5
8F1B
  8
4
  0
POLYLINE
  5
8F50
  8
4
 66
     1
 10
0.0
 20
0.0
 30
0.0
  0
VERTEX
  5
8F51
  8
4
 10
387.79498058801818
 20
157.7298959112714
 30
0.0
 42
-0.1680006345387558
  0
VERTEX
  5
8F52
  8
4
 10
386.50101459404851
 20
156.31064897219659
 30
0.0
 42
-0.1536795722212451
  0
VERTEX
  5
8F53
  8
4
 10
385.15634757371407
 20
156.04691619643049
 30
0.0
 42
-0.1847247553159499
  0
VERTEX
  5
8F54
  8
4
 10
384.12309260969619
 20
156.58042243210369
 30
0.0
 42
0.1729818233278114
  0
VERTEX
  5
8F55
  8
4
 10
383.03737302751529
 20
157.17269141623009
 30
0.0
 42
0.1305645647028073
  0
VERTEX
  5
8F56
  8
4
 10
381.53156659630457
 20
157.01727726046971
 30
0.0
 42
0.0788129880541052
  0
VERTEX
  5
8F57
  8
4
 10
380.59498058801842
 20
156.4812640006881
 30
0.0
  0
SEQEND
  5
8F58
  8
4
  0
POLYLINE
  5
8F59
  8
4
 66
     1
 10
0.0
 20
0.0
 30
0.0
  0
VERTEX
  5
8F5A
  8
4
 10
387.79498058801818
 20
156.3429206983711
 30
0.0
 42
-0.1061392580884754
  0
VERTEX
  5
8F5B
  8
4
 10
386.71622163448478
 20
155.4154453161573
 30
0.0
 42
-0.1536795722212452
  0
VERTEX
  5
8F5C
  8
4
 10
385.10636626406932
 20
155.0997005116806
 30
0.0
 42
-0.184724755315947
  0
VERTEX
  5
8F5D
  8
4
 10
383.78741464120247
 20
155.78072207930481
 30
0.0
 42
0.1729818233278094
  0
VERTEX
  5
8F5E
  8
4
 10
382.96709535038713
 20
156.2282130161953
 30
0.0
 42
0.1305645647028095
  0
VERTEX
  5
8F5F
  8
4
 10
381.691144938138
 20
156.09652228091781
 30
0.0
 42
0.1110297405178938
  0
VERTEX
  5
8F60
  8
4
 10
380.59498058801842
 20
155.37260250048041
 30
0.0
  0
SEQEND
  5
8F61
  8
4
  0
POLYLINE
  5
8F63
  8
4
 66
     1
 10
0.0
 20
0.0
 30
0.0
  0
VERTEX
  5
8F64
  8
4
 10
220.96187195914879
 20
157.73212782259731
 30
0.0
 42
-0.1680006345387558
  0
VERTEX
  5
8F65
  8
4
 10
219.66790596517899
 20
156.3128808835225
 30
0.0
 42
-0.1536795722212451
  0
VERTEX
  5
8F66
  8
4
 10
218.32323894484489
 20
156.04914810775631
 30
0.0
 42
-0.1847247553159499
  0
VERTEX
  5
8F67
  8
4
 10
217.289983980827
 20
156.5826543434296
 30
0.0
 42
0.1729818233278114
  0
VERTEX
  5
8F68
  8
4
 10
216.2042643986461
 20
157.174923327556
 30
0.0
 42
0.1305645647028073
  0
VERTEX
  5
8F69
  8
4
 10
214.69845796743519
 20
157.01950917179559
 30
0.0
 42
0.0788129880541052
  0
VERTEX
  5
8F6A
  8
4
 10
213.76187195914869
 20
156.48349591201401
 30
0.0
  0
SEQEND
  5
8F6B
  8
4
  0
POLYLINE
  5
8F6C
  8
4
 66
     1
 10
0.0
 20
0.0
 30
0.0
  0
VERTEX
  5
8F6D
  8
4
 10
220.96187195914879
 20
156.34515260969701
 30
0.0
 42
-0.1061392580884754
  0
VERTEX
  5
8F6E
  8
4
 10
219.88311300561529
 20
155.41767722748321
 30
0.0
 42
-0.1536795722212452
  0
VERTEX
  5
8F6F
  8
4
 10
218.2732576351998
 20
155.1019324230065
 30
0.0
 42
-0.184724755315947
  0
VERTEX
  5
8F70
  8
4
 10
216.95430601233309
 20
155.78295399063069
 30
0.0
 42
0.1729818233278094
  0
VERTEX
  5
8F71
  8
4
 10
216.1339867215176
 20
156.23044492752121
 30
0.0
 42
0.1305645647028095
  0
VERTEX
  5
8F72
  8
4
 10
214.8580363092685
 20
156.09875419224369
 30
0.0
 42
0.1110297405178938
  0
VERTEX
  5
8F73
  8
4
 10
213.76187195914869
 20
155.37483441180621
 30
0.0
  0
SEQEND
  5
8F74
  8
4
  0
ARC
  5
8F83
  8
0
 10
70.500146007653029
 20
155.99550802728359
 30
0.0
 40
14.5
 50
181.03583028343979
 51
270.0
  0
LINE
  5
8F84
  8
0
 10
214.3618728383172
 20
155.8560949900268
 30
0.0
 11
214.3618728383174
 21
143.5286178663373
 31
0.0
  0
LINE
  5
8F85
  8
0
 10
220.36187195914891
 20
156.83737553407229
 30
0.0
 11
220.36187195914891
 21
168.995508365333
 31
0.0
  0
ARC
  5
8F86
  8
0
 10
366.69498058819931
 20
155.9955080272839
 30
0.0
 40
14.5
 50
3.400273193235587
 51
90.0
  0
ARC
  5
8F87
  8
0
 10
366.69498058819931
 20
155.9955080272839
 30
0.0
 40
20.500000000000021
 50
2.3005599798559642
 51
90.0
  0
LINE
  5
9076
  8
1
 10
124.50014605833999
 20
231.1241270365401
 30
0.0
 11
124.50014605833999
 21
253.92412490269379
 31
0.0
  0
ARC
  5
93AC
  8
0
 10
134.83310897177759
 20
32.171293348073959
 30
0.0
 40
31.5
 50
45.700207409957819
 51
134.29979259004219
  0
ARC
  5
93BC
  8
0
 10
134.83310897177759
 20
269.75283155461977
 30
0.0
 40
31.5
 50
225.70020740995781
 51
236.7025684286173
  0
LINE
  5
93DC
  8
1
 10
302.36201762407518
 20
148.5286173596979
 30
0.0
 11
302.36201762407518
 21
118.52861687541019
 31
0.0
  0
LINE
  5
93DD
  8
1
 10
285.3618716164226
 20
136.3286169990898
 30
0.0
 11
285.3618716164226
 21
128.3286169990898
 31
0.0
  0
LINE
  5
93DE
  8
1
 10
289.3618716164226
 20
132.3286169990898
 30
0.0
 11
281.3618716164226
 21
132.3286169990898
 31
0.0
  0
LINE
  5
93EE
  8
0
 10
320.90384656327871
 20
142.49550867825749
 30
0.0
 11
334.1949801309695
 21
142.49550867825749
 31
0.0
  0
LINE
  5
93EF
  8
0
 10
334.1949801309695
 20
134.49550736695539
 30
0.0
 11
324.26749313014648
 21
134.49550736695539
 31
0.0
  0
ARC
  5
940F
  8
0
 10
323.36187148958243
 20
124.5286168830408
 30
0.0
 40
1.0000000076304449
 50
269.9999910456815
 51
0.0000089543054645
  0
LINE
  5
9410
  8
0
 10
324.36187149721292
 20
124.5286170393229
 30
0.0
 11
324.36187149721292
 21
133.52861758321529
 31
0.0
  0
ARC
  5
9411
  8
0
 10
319.36186958726171
 20
133.52861737302271
 30
0.0
 40
5.0000019099511821
 50
0.0000024086290732
 51
23.57817565300607
  0
LINE
  5
9412
  8
0
 10
323.94444713133481
 20
135.5286179110409
 30
0.0
 11
320.71482160824439
 21
142.92861651629221
 31
0.0
  0
LINE
  5
9418
  8
0
 10
284.00921363990608
 20
142.92861651629221
 30
0.0
 11
280.7792959214662
 21
135.52861699909869
 31
0.0
  0
ARC
  5
9419
  8
0
 10
285.36186890992963
 20
133.5286178620002
 30
0.0
 40
4.999997174298195
 50
156.42181817876229
 51
180.0000031946407
  0
LINE
  5
941A
  8
0
 10
280.36187173563138
 20
133.52861758321529
 30
0.0
 11
280.36187173563138
 21
124.5286170393229
 31
0.0
  0
ARC
  5
941B
  8
0
 10
281.36187182755702
 20
124.5286170865446
 30
0.0
 40
1.000000211134451
 50
180.0000050107881
 51
270.000004124562
  0
LINE
  5
941C
  8
0
 10
281.36187189954421
 20
123.52861687541019
 30
0.0
 11
323.36187133330009
 21
123.52861687541019
 31
0.0
  0
LINE
  5
9425
  8
0
 10
334.1949801309695
 20
142.49550867825749
 30
0.0
 11
334.1949801309695
 21
134.49550736695539
 31
0.0
  0
CIRCLE
  5
9445
  8
3
 10
285.3618716164226
 20
132.3286169990898
 30
0.0
 40
1.6209999999999991
  0
CIRCLE
  5
9446
  8
0
 10
285.3618716164226
 20
132.3286169990898
 30
0.0
 40
2.0
  0
LINE
  5
9448
  8
1
 10
319.36216363172781
 20
136.3286169990898
 30
0.0
 11
319.36216363172781
 21
128.3286169990898
 31
0.0
  0
LINE
  5
9449
  8
1
 10
315.36216363172781
 20
132.3286169990898
 30
0.0
 11
323.3621636317277
 21
132.3286169990898
 31
0.0
  0
CIRCLE
  5
944A
  8
3
 10
319.36216363172781
 20
132.3286169990898
 30
0.0
 40
1.6209999999999991
  0
CIRCLE
  5
944B
  8
0
 10
319.36216363172781
 20
132.3286169990898
 30
0.0
 40
2.0
  0
LINE
  5
9486
  8
0
 10
156.4155384790372
 20
135.52861791104081
 30
0.0
 11
153.1859129559468
 21
142.9286165162921
 31
0.0
  0
ARC
  5
9487
  8
0
 10
152.26939881684461
 20
142.52861944931971
 30
0.0
 40
0.9999979103781955
 50
23.578047373233549
 51
90.000023295191028
  0
ARC
  5
9489
  8
0
 10
319.79830746914217
 20
142.52861944931979
 30
0.0
 40
0.9999979103781955
 50
23.578047373233911
 51
90.000023295191028
  0
LINE
  5
948A
  8
0
 10
319.79830706256541
 20
143.5286173596979
 30
0.0
 11
284.92572818558523
 21
143.5286173596979
 31
0.0
  0
ARC
  5
948B
  8
0
 10
284.9257277790083
 20
142.52861944931979
 30
0.0
 40
0.9999979103781955
 50
89.999976704808986
 51
156.421952626766
  0
LINE
  5
9493
  8
0
 10
117.3968195332875
 20
228.39550802728371
 30
0.0
 11
117.3968195332875
 21
233.30799005898831
 31
0.0
  0
LINE
  5
9494
  8
0
 10
152.26939841026771
 20
228.39550802728371
 30
0.0
 11
152.26939841026771
 21
243.51877333601399
 31
0.0
  0
LINE
  5
9A2E
  8
0
 10
119.6573286903531
 20
248.18114235580441
 30
0.0
 11
119.44296299985059
 21
248.3955074638335
 31
0.0
  0
LINE
  5
9A2F
  8
0
 10
116.2229629283995
 20
248.3955074638335
 30
0.0
 11
115.8329628691301
 21
248.0055086851327
 31
0.0
  0
LINE
  5
9A30
  8
0
 10
115.8329628691301
 20
248.0055086851327
 30
0.0
 11
115.8329628691301
 21
244.6282529894369
 31
0.0
  0
LINE
  5
9A32
  8
0
 10
153.83325344461059
 20
248.0055086851327
 30
0.0
 11
153.44325652855491
 21
248.3955074638335
 31
0.0
  0
LINE
  5
9A33
  8
0
 10
150.22325343030539
 20
248.3955074638335
 30
0.0
 11
149.8332565142498
 21
248.0055086851327
 31
0.0
  0
LINE
  5
9A34
  8
0
 10
149.8332565142498
 20
248.0055086851327
 30
0.0
 11
149.8332565142498
 21
242.05363348492719
 31
0.0
  0
LINE
  5
9A35
  8
0
 10
153.83325344461059
 20
244.62825175691029
 30
0.0
 11
153.83325344461059
 21
248.0055086851327
 31
0.0
  0
LINE
  5
9A53
  8
0
 10
119.6573286903531
 20
248.0055086851327
 30
0.0
 11
115.8329628691301
 21
248.0055086851327
 31
0.0
  0
LINE
  5
9A54
  8
0
 10
119.44296299985059
 20
248.3955074638335
 30
0.0
 11
116.2229629283995
 21
248.3955074638335
 31
0.0
  0
LINE
  5
9A55
  8
0
 10
153.83325344461059
 20
248.0055086851327
 30
0.0
 11
149.8332565142498
 21
248.0055086851327
 31
0.0
  0
LINE
  5
9A56
  8
0
 10
153.44325652855491
 20
248.3955074638335
 30
0.0
 11
150.22325343030539
 21
248.3955074638335
 31
0.0
  0
LINE
  5
9B50
  8
0
 10
226.4432555180704
 20
130.32861723937091
 30
0.0
 11
226.8332542967712
 21
130.71861718222499
 31
0.0
  0
LINE
  5
9B51
  8
0
 10
226.8332542967712
 20
133.93861716636451
 30
0.0
 11
226.4432555180704
 21
134.32861713832239
 31
0.0
  0
LINE
  5
9B52
  8
0
 10
226.4432555180704
 20
134.32861713832239
 30
0.0
 11
225.5814785253917
 21
134.32861713832239
 31
0.0
  0
LINE
  5
9B53
  8
0
 10
225.6461775046503
 20
130.32861723937091
 30
0.0
 11
226.4432555180704
 21
130.32861723937091
 31
0.0
  0
LINE
  5
9B74
  8
0
 10
226.4432555180704
 20
130.32861723937091
 30
0.0
 11
226.4432555180704
 21
134.32861713832239
 31
0.0
  0
LINE
  5
9B76
  8
0
 10
226.8332542967712
 20
130.71861718222499
 30
0.0
 11
226.8332542967712
 21
133.93861716636451
 31
0.0
  0
ARC
  5
9EDA
  8
0
 10
311.7809857278877
 20
138.59220887782749
 30
0.0
 40
5.5221654031785414
 50
337.66208772618268
 51
356.8830122979071
  0
LINE
  5
9EDB
  8
0
 10
317.2949815983614
 20
138.29194186255339
 30
0.0
 11
317.2949815983614
 21
138.69907511398199
 31
0.0
  0
ARC
  5
9EDC
  8
0
 10
310.78733173933409
 20
138.19357274384831
 30
0.0
 40
6.527253582779541
 50
4.4417123513126544
 51
34.05785850973804
  0
LINE
  5
9EDE
  8
0
 10
288.52876418965963
 20
142.66172647476199
 30
0.0
 11
316.19498160432181
 21
142.66172647476199
 31
0.0
  0
POLYLINE
  5
9EE6
  8
0
 10
316.19498151207108
 20
134.67800420149263
 30
0.0
 66
     1
 70
     8
  0
VERTEX
  8
0
  5
A8C3
 10
316.195
 20
134.678
 30
0.000000
  70
    32
  0
VERTEX
  8
0
  5
A8C4
 10
316.202
 20
134.691
 30
0.000000
  70
    32
  0
VERTEX
  8
0
  5
A8C5
 10
316.209
 20
134.704
 30
0.000000
  70
    32
  0
VERTEX
  8
0
  5
A8C6
 10
316.216
 20
134.717
 30
0.000000
  70
    32
  0
VERTEX
  8
0
  5
A8C7
 10
316.223
 20
134.730
 30
0.000000
  70
    32
  0
VERTEX
  8
0
  5
A8C8
 10
316.230
 20
134.743
 30
0.000000
  70
    32
  0
VERTEX
  8
0
  5
A8C9
 10
316.237
 20
134.757
 30
0.000000
  70
    32
  0
VERTEX
  8
0
  5
A8CA
 10
316.244
 20
134.770
 30
0.000000
  70
    32
  0
VERTEX
  8
0
  5
A8CB
 10
316.251
 20
134.783
 30
0.000000
  70
    32
  0
VERTEX
  8
0
  5
A8CC
 10
316.258
 20
134.796
 30
0.000000
  70
    32
  0
VERTEX
  8
0
  5
A8CD
 10
316.264
 20
134.809
 30
0.000000
  70
    32
  0
VERTEX
  8
0
  5
A8CE
 10
316.271
 20
134.823
 30
0.000000
  70
    32
  0
VERTEX
  8
0
  5
A8CF
 10
316.278
 20
134.836
 30
0.000000
  70
    32
  0
VERTEX
  8
0
  5
A8D0
 10
316.285
 20
134.849
 30
0.000000
  70
    32
  0
VERTEX
  8
0
  5
A8D1
 10
316.291
 20
134.862
 30
0.000000
  70
    32
  0
VERTEX
  8
0
  5
A8D2
 10
316.298
 20
134.876
 30
0.000000
  70
    32
  0
VERTEX
  8
0
  5
A8D3
 10
316.305
 20
134.889
 30
0.000000
  70
    32
  0
VERTEX
  8
0
  5
A8D4
 10
316.311
 20
134.902
 30
0.000000
  70
    32
  0
VERTEX
  8
0
  5
A8D5
 10
316.318
 20
134.916
 30
0.000000
  70
    32
  0
VERTEX
  8
0
  5
A8D6
 10
316.325
 20
134.929
 30
0.000000
  70
    32
  0
VERTEX
  8
0
  5
A8D7
 10
316.331
 20
134.943
 30
0.000000
  70
    32
  0
VERTEX
  8
0
  5
A8D8
 10
316.338
 20
134.956
 30
0.000000
  70
    32
  0
VERTEX
  8
0
  5
A8D9
 10
316.344
 20
134.970
 30
0.000000
  70
    32
  0
VERTEX
  8
0
  5
A8DA
 10
316.351
 20
134.983
 30
0.000000
  70
    32
  0
VERTEX
  8
0
  5
A8DB
 10
316.357
 20
134.997
 30
0.000000
  70
    32
  0
VERTEX
  8
0
  5
A8DC
 10
316.364
 20
135.010
 30
0.000000
  70
    32
  0
VERTEX
  8
0
  5
A8DD
 10
316.370
 20
135.024
 30
0.000000
  70
    32
  0
VERTEX
  8
0
  5
A8DE
 10
316.377
 20
135.037
 30
0.000000
  70
    32
  0
VERTEX
  8
0
  5
A8DF
 10
316.383
 20
135.051
 30
0.000000
  70
    32
  0
VERTEX
  8
0
  5
A8E0
 10
316.389
 20
135.064
 30
0.000000
  70
    32
  0
VERTEX
  8
0
  5
A8E1
 10
316.396
 20
135.078
 30
0.000000
  70
    32
  0
VERTEX
  8
0
  5
A8E2
 10
316.402
 20
135.092
 30
0.000000
  70
    32
  0
VERTEX
  8
0
  5
A8E3
 10
316.408
 20
135.105
 30
0.000000
  70
    32
  0
VERTEX
  8
0
  5
A8E4
 10
316.415
 20
135.119
 30
0.000000
  70
    32
  0
VERTEX
  8
0
  5
A8E5
 10
316.421
 20
135.133
 30
0.000000
  70
    32
  0
VERTEX
  8
0
  5
A8E6
 10
316.427
 20
135.146
 30
0.000000
  70
    32
  0
VERTEX
  8
0
  5
A8E7
 10
316.433
 20
135.160
 30
0.000000
  70
    32
  0
VERTEX
  8
0
  5
A8E8
 10
316.439
 20
135.174
 30
0.000000
  70
    32
  0
VERTEX
  8
0
  5
A8E9
 10
316.445
 20
135.188
 30
0.000000
  70
    32
  0
VERTEX
  8
0
  5
A8EA
 10
316.451
 20
135.201
 30
0.000000
  70
    32
  0
VERTEX
  8
0
  5
A8EB
 10
316.458
 20
135.215
 30
0.000000
  70
    32
  0
VERTEX
  8
0
  5
A8EC
 10
316.464
 20
135.229
 30
0.000000
  70
    32
  0
VERTEX
  8
0
  5
A8ED
 10
316.470
 20
135.243
 30
0.000000
  70
    32
  0
VERTEX
  8
0
  5
A8EE
 10
316.476
 20
135.257
 30
0.000000
  70
    32
  0
VERTEX
  8
0
  5
A8EF
 10
316.482
 20
135.271
 30
0.000000
  70
    32
  0
VERTEX
  8
0
  5
A8F0
 10
316.488
 20
135.285
 30
0.000000
  70
    32
  0
VERTEX
  8
0
  5
A8F1
 10
316.493
 20
135.298
 30
0.000000
  70
    32
  0
VERTEX
  8
0
  5
A8F2
 10
316.499
 20
135.312
 30
0.000000
  70
    32
  0
VERTEX
  8
0
  5
A8F3
 10
316.505
 20
135.326
 30
0.000000
  70
    32
  0
VERTEX
  8
0
  5
A8F4
 10
316.511
 20
135.340
 30
0.000000
  70
    32
  0
VERTEX
  8
0
  5
A8F5
 10
316.517
 20
135.354
 30
0.000000
  70
    32
  0
VERTEX
  8
0
  5
A8F6
 10
316.523
 20
135.368
 30
0.000000
  70
    32
  0
VERTEX
  8
0
  5
A8F7
 10
316.528
 20
135.382
 30
0.000000
  70
    32
  0
VERTEX
  8
0
  5
A8F8
 10
316.534
 20
135.396
 30
0.000000
  70
    32
  0
VERTEX
  8
0
  5
A8F9
 10
316.540
 20
135.410
 30
0.000000
  70
    32
  0
VERTEX
  8
0
  5
A8FA
 10
316.546
 20
135.425
 30
0.000000
  70
    32
  0
VERTEX
  8
0
  5
A8FB
 10
316.551
 20
135.439
 30
0.000000
  70
    32
  0
VERTEX
  8
0
  5
A8FC
 10
316.557
 20
135.453
 30
0.000000
  70
    32
  0
VERTEX
  8
0
  5
A8FD
 10
316.563
 20
135.467
 30
0.000000
  70
    32
  0
VERTEX
  8
0
  5
A8FE
 10
316.568
 20
135.481
 30
0.000000
  70
    32
  0
VERTEX
  8
0
  5
A8FF
 10
316.574
 20
135.495
 30
0.000000
  70
    32
  0
VERTEX
  8
0
  5
A900
 10
316.579
 20
135.509
 30
0.000000
  70
    32
  0
VERTEX
  8
0
  5
A901
 10
316.585
 20
135.524
 30
0.000000
  70
    32
  0
VERTEX
  8
0
  5
A902
 10
316.590
 20
135.538
 30
0.000000
  70
    32
  0
VERTEX
  8
0
  5
A903
 10
316.596
 20
135.552
 30
0.000000
  70
    32
  0
VERTEX
  8
0
  5
A904
 10
316.601
 20
135.566
 30
0.000000
  70
    32
  0
VERTEX
  8
0
  5
A905
 10
316.606
 20
135.581
 30
0.000000
  70
    32
  0
VERTEX
  8
0
  5
A906
 10
316.612
 20
135.595
 30
0.000000
  70
    32
  0
VERTEX
  8
0
  5
A907
 10
316.617
 20
135.609
 30
0.000000
  70
    32
  0
VERTEX
  8
0
  5
A908
 10
316.623
 20
135.623
 30
0.000000
  70
    32
  0
VERTEX
  8
0
  5
A909
 10
316.628
 20
135.638
 30
0.000000
  70
    32
  0
VERTEX
  8
0
  5
A90A
 10
316.633
 20
135.652
 30
0.000000
  70
    32
  0
VERTEX
  8
0
  5
A90B
 10
316.638
 20
135.666
 30
0.000000
  70
    32
  0
VERTEX
  8
0
  5
A90C
 10
316.644
 20
135.681
 30
0.000000
  70
    32
  0
VERTEX
  8
0
  5
A90D
 10
316.649
 20
135.695
 30
0.000000
  70
    32
  0
VERTEX
  8
0
  5
A90E
 10
316.654
 20
135.710
 30
0.000000
  70
    32
  0
VERTEX
  8
0
  5
A90F
 10
316.659
 20
135.724
 30
0.000000
  70
    32
  0
VERTEX
  8
0
  5
A910
 10
316.664
 20
135.738
 30
0.000000
  70
    32
  0
VERTEX
  8
0
  5
A911
 10
316.669
 20
135.753
 30
0.000000
  70
    32
  0
VERTEX
  8
0
  5
A912
 10
316.674
 20
135.767
 30
0.000000
  70
    32
  0
VERTEX
  8
0
  5
A913
 10
316.679
 20
135.782
 30
0.000000
  70
    32
  0
VERTEX
  8
0
  5
A914
 10
316.684
 20
135.796
 30
0.000000
  70
    32
  0
VERTEX
  8
0
  5
A915
 10
316.689
 20
135.811
 30
0.000000
  70
    32
  0
VERTEX
  8
0
  5
A916
 10
316.694
 20
135.825
 30
0.000000
  70
    32
  0
VERTEX
  8
0
  5
A917
 10
316.699
 20
135.840
 30
0.000000
  70
    32
  0
VERTEX
  8
0
  5
A918
 10
316.704
 20
135.854
 30
0.000000
  70
    32
  0
VERTEX
  8
0
  5
A919
 10
316.709
 20
135.869
 30
0.000000
  70
    32
  0
VERTEX
  8
0
  5
A91A
 10
316.714
 20
135.884
 30
0.000000
  70
    32
  0
VERTEX
  8
0
  5
A91B
 10
316.719
 20
135.898
 30
0.000000
  70
    32
  0
VERTEX
  8
0
  5
A91C
 10
316.723
 20
135.913
 30
0.000000
  70
    32
  0
VERTEX
  8
0
  5
A91D
 10
316.728
 20
135.928
 30
0.000000
  70
    32
  0
VERTEX
  8
0
  5
A91E
 10
316.733
 20
135.942
 30
0.000000
  70
    32
  0
VERTEX
  8
0
  5
A91F
 10
316.738
 20
135.957
 30
0.000000
  70
    32
  0
VERTEX
  8
0
  5
A920
 10
316.742
 20
135.971
 30
0.000000
  70
    32
  0
VERTEX
  8
0
  5
A921
 10
316.747
 20
135.986
 30
0.000000
  70
    32
  0
VERTEX
  8
0
  5
A922
 10
316.752
 20
136.001
 30
0.000000
  70
    32
  0
VERTEX
  8
0
  5
A923
 10
316.756
 20
136.016
 30
0.000000
  70
    32
  0
VERTEX
  8
0
  5
A924
 10
316.761
 20
136.030
 30
0.000000
  70
    32
  0
VERTEX
  8
0
  5
A925
 10
316.765
 20
136.045
 30
0.000000
  70
    32
  0
VERTEX
  8
0
  5
A926
 10
316.770
 20
136.060
 30
0.000000
  70
    32
  0
VERTEX
  8
0
  5
A927
 10
316.774
 20
136.075
 30
0.000000
  70
    32
  0
VERTEX
  8
0
  5
A928
 10
316.779
 20
136.089
 30
0.000000
  70
    32
  0
VERTEX
  8
0
  5
A929
 10
316.783
 20
136.104
 30
0.000000
  70
    32
  0
VERTEX
  8
0
  5
A92A
 10
316.788
 20
136.119
 30
0.000000
  70
    32
  0
VERTEX
  8
0
  5
A92B
 10
316.792
 20
136.134
 30
0.000000
  70
    32
  0
VERTEX
  8
0
  5
A92C
 10
316.796
 20
136.149
 30
0.000000
  70
    32
  0
VERTEX
  8
0
  5
A92D
 10
316.801
 20
136.164
 30
0.000000
  70
    32
  0
VERTEX
  8
0
  5
A92E
 10
316.805
 20
136.178
 30
0.000000
  70
    32
  0
VERTEX
  8
0
  5
A92F
 10
316.809
 20
136.193
 30
0.000000
  70
    32
  0
VERTEX
  8
0
  5
A930
 10
316.813
 20
136.208
 30
0.000000
  70
    32
  0
VERTEX
  8
0
  5
A931
 10
316.818
 20
136.223
 30
0.000000
  70
    32
  0
VERTEX
  8
0
  5
A932
 10
316.822
 20
136.238
 30
0.000000
  70
    32
  0
VERTEX
  8
0
  5
A933
 10
316.826
 20
136.253
 30
0.000000
  70
    32
  0
VERTEX
  8
0
  5
A934
 10
316.830
 20
136.268
 30
0.000000
  70
    32
  0
VERTEX
  8
0
  5
A935
 10
316.834
 20
136.283
 30
0.000000
  70
    32
  0
VERTEX
  8
0
  5
A936
 10
316.838
 20
136.298
 30
0.000000
  70
    32
  0
VERTEX
  8
0
  5
A937
 10
316.842
 20
136.313
 30
0.000000
  70
    32
  0
VERTEX
  8
0
  5
A938
 10
316.846
 20
136.328
 30
0.000000
  70
    32
  0
VERTEX
  8
0
  5
A939
 10
316.850
 20
136.343
 30
0.000000
  70
    32
  0
VERTEX
  8
0
  5
A93A
 10
316.854
 20
136.358
 30
0.000000
  70
    32
  0
VERTEX
  8
0
  5
A93B
 10
316.858
 20
136.373
 30
0.000000
  70
    32
  0
VERTEX
  8
0
  5
A93C
 10
316.862
 20
136.388
 30
0.000000
  70
    32
  0
VERTEX
  8
0
  5
A93D
 10
316.866
 20
136.403
 30
0.000000
  70
    32
  0
VERTEX
  8
0
  5
A93E
 10
316.870
 20
136.418
 30
0.000000
  70
    32
  0
VERTEX
  8
0
  5
A93F
 10
316.874
 20
136.433
 30
0.000000
  70
    32
  0
VERTEX
  8
0
  5
A940
 10
316.878
 20
136.448
 30
0.000000
  70
    32
  0
VERTEX
  8
0
  5
A941
 10
316.881
 20
136.463
 30
0.000000
  70
    32
  0
VERTEX
  8
0
  5
A942
 10
316.885
 20
136.478
 30
0.000000
  70
    32
  0
VERTEX
  8
0
  5
A943
 10
316.889
 20
136.493
 30
0.000000
  70
    32
  0
SEQEND
  8
0
  5
A944
  0
LINE
  5
9EE7
  8
0
 10
316.19498160432181
 20
134.67800421640291
 30
0.0
 11
316.19498160432181
 21
142.6617264747621
 31
0.0
  0
LINE
  5
9EE8
  8
0
 10
288.52876418965963
 20
142.66172647476199
 30
0.0
 11
288.52876418965963
 21
125.6955083459617
 31
0.0
  0
LINE
  5
9EEB
  8
0
 10
316.19498160432181
 20
125.6955083459617
 30
0.0
 11
316.19498160432181
 21
134.67800421640291
 31
0.0
  0
LINE
  5
9EEC
  8
0
 10
316.19498160432181
 20
125.6955083459617
 30
0.0
 11
288.52876418965963
 21
125.6955083459617
 31
0.0
  0
LINE
  5
9EED
  8
0
 10
316.19498160432181
 20
141.36172682046899
 30
0.0
 11
288.52876418965963
 21
141.36172682046899
 31
0.0
  0
LINE
  5
A422
  8
1
 10
151.83325497943019
 20
250.3955074638335
 30
0.0
 11
151.83325497943019
 21
226.39550802728371
 31
0.0
  0
LINE
  5
A426
  8
3
 10
153.4542549794302
 20
244.34608203088729
 30
0.0
 11
153.4542549794302
 21
248.38450896042909
 31
0.0
  0
LINE
  5
A427
  8
3
 10
150.21225497943021
 20
242.2622537492098
 30
0.0
 11
150.21225497943021
 21
248.38450896042909
 31
0.0
  0
LINE
  5
A42B
  8
0
 10
119.832962964125
 20
243.42412444075779
 30
0.0
 11
119.832962964125
 21
245.22476493274041
 31
0.0
  0
LINE
  5
A42C
  8
1
 10
117.832962964125
 20
250.3955074638335
 30
0.0
 11
117.832962964125
 21
226.39550802728371
 31
0.0
  0
LINE
  5
A42D
  8
3
 10
119.453962964125
 20
243.42412444075791
 30
0.0
 11
119.453962964125
 21
248.38450896042909
 31
0.0
  0
LINE
  5
A42E
  8
3
 10
116.21196296412499
 20
244.34608203088729
 30
0.0
 11
116.21196296412499
 21
248.38450896042909
 31
0.0
  0
LINE
  5
A451
  8
1
 10
228.8332542967712
 20
132.32861717429481
 30
0.0
 11
204.83325486022139
 21
132.32861717429481
 31
0.0
  0
LINE
  5
A452
  8
3
 10
225.64617762106559
 20
130.70761717429471
 30
0.0
 11
226.82225579336679
 21
130.7076171742948
 31
0.0
  0
LINE
  5
A453
  8
3
 10
225.61386950830541
 20
133.9496171742947
 30
0.0
 11
226.82225579336679
 21
133.9496171742947
 31
0.0
  0
ARC
  5
A463
  8
0
 10
129.19999999999621
 20
63.049999532763763
 30
0.0
 40
0.2000000000000242
 50
270.00000000278789
 51
44.133745428067087
  0
ARC
  5
A466
  8
0
 10
129.1999999559352
 20
62.64999963921553
 30
0.0
 40
0.1999998935859682
 50
89.99998736977534
 51
179.9999162796129
  0
LINE
  5
A46A
  8
0
 10
129.0000000623495
 20
62.649999931454651
 30
0.0
 11
129.0000000623495
 21
58.50000046193599
 31
0.0
  0
ARC
  5
A46B
  8
0
 10
120.5
 20
58.499999532781771
 30
0.0
 40
0.5
 50
179.99989352676869
 51
270.0
  0
ARC
  5
A46C
  8
0
 10
128.49999995591151
 20
58.499999639220221
 30
0.0
 40
0.5000001064386144
 50
270.00000505216281
 51
0.0000942762639111
  0
LINE
  5
A472
  8
0
 10
121.5002923001998
 20
57.999999448657029
 30
0.0
 11
121.5002923001998
 21
57.099999114871018
 31
0.0
  0
LINE
  5
A473
  8
0
 10
127.5002923523539
 20
57.099999114871018
 30
0.0
 11
127.5002923523539
 21
57.999999448657029
 31
0.0
  0
LINE
  5
A47B
  8
0
 10
127.6870289547614
 20
62.85000812543062
 30
0.0
 11
129.202240327211
 21
62.850012080822459
 31
0.0
  0
LINE
  5
A48F
  8
0
 10
120.0000000000009
 20
58.50000046193599
 30
0.0
 11
119.83296305911971
 21
58.500000461935983
 31
0.0
  0
LINE
  5
A491
  8
0
 10
128.49999998039311
 20
57.999999448657029
 30
0.0
 11
120.5
 21
57.999999532781771
 31
0.0
  0
LINE
  5
A4B5
  8
1
 10
124.50014605833999
 20
64.037888356476159
 30
0.0
 11
124.50014605833999
 21
48.0
 31
0.0
  0
LINE
  5
A4B9
  8
0
 10
116.2229629283995
 20
53.528617438860252
 30
0.0
 11
115.8329628691301
 21
53.91861621756108
 31
0.0
  0
LINE
  5
A4BA
  8
0
 10
115.8329628691301
 20
53.91861621756108
 30
0.0
 11
115.8329628691301
 21
57.295871913256889
 31
0.0
  0
LINE
  5
A4BB
  8
0
 10
153.83325344461059
 20
53.918616217561059
 30
0.0
 11
153.44325652855491
 21
53.52861743886023
 31
0.0
  0
LINE
  5
A4BC
  8
0
 10
150.22325343030539
 20
53.52861743886023
 30
0.0
 11
149.8332565142498
 21
53.918616217561059
 31
0.0
  0
LINE
  5
A4BD
  8
0
 10
149.8332565142498
 20
53.918616217561059
 30
0.0
 11
149.8332565142498
 21
59.870491417766623
 31
0.0
  0
LINE
  5
A4BE
  8
0
 10
153.83325344461059
 20
57.295873145783517
 30
0.0
 11
153.83325344461059
 21
53.918616217561059
 31
0.0
  0
LINE
  5
A4BF
  8
0
 10
119.83296305911971
 20
53.918616217561059
 30
0.0
 11
115.8329628691301
 21
53.91861621756108
 31
0.0
  0
LINE
  5
A4C0
  8
0
 10
119.44296299985059
 20
53.528617438860252
 30
0.0
 11
116.2229629283995
 21
53.528617438860252
 31
0.0
  0
LINE
  5
A4C1
  8
0
 10
153.83325344461059
 20
53.918616217561059
 30
0.0
 11
149.8332565142498
 21
53.918616217561059
 31
0.0
  0
LINE
  5
A4C2
  8
0
 10
153.44325652855491
 20
53.52861743886023
 30
0.0
 11
150.22325343030539
 21
53.52861743886023
 31
0.0
  0
LINE
  5
A4C3
  8
1
 10
151.83325497943019
 20
51.528617438860238
 30
0.0
 11
151.83325497943019
 21
75.52861687541008
 31
0.0
  0
LINE
  5
A4C4
  8
3
 10
153.4542549794302
 20
57.578042871806502
 30
0.0
 11
153.4542549794302
 21
53.539615942264682
 31
0.0
  0
LINE
  5
A4C5
  8
3
 10
150.21225497943021
 20
59.661871153484007
 30
0.0
 11
150.21225497943021
 21
53.539615942264682
 31
0.0
  0
LINE
  5
A4C6
  8
0
 10
119.83296305911971
 20
59.870492300371687
 30
0.0
 11
119.83296305911971
 21
53.918616217561059
 31
0.0
  0
LINE
  5
A4C7
  8
1
 10
117.832962964125
 20
51.528617438860252
 30
0.0
 11
117.832962964125
 21
75.52861687541008
 31
0.0
  0
LINE
  5
A4C8
  8
3
 10
119.4539629641251
 20
59.661871153484029
 30
0.0
 11
119.453962964125
 21
53.539615942264682
 31
0.0
  0
LINE
  5
A4C9
  8
3
 10
116.21196296412499
 20
57.578042871806531
 30
0.0
 11
116.21196296412499
 21
53.539615942264682
 31
0.0
  0
LINE
  5
A4D2
  8
0
 10
119.44296299985049
 20
53.528617438860373
 30
0.0
 11
119.8329630591199
 21
53.918616217561251
 31
0.0
  0
LINE
  5
A5BF
  8
0
 10
119.83296305911971
 20
56.699413752548423
 30
0.0
 11
120.6498542087827
 21
56.99999928474579
 31
0.0
  0
LINE
  5
A5C0
  8
0
 10
128.3498537013981
 20
56.99999928474579
 30
0.0
 11
129.2088376576757
 21
56.68392516672764
 31
0.0
  0
LINE
  5
A5CC
  8
0
 10
129.25340283985469
 20
50.203547999264337
 30
0.0
 11
129.0498539092693
 21
50.000000000001528
 31
0.0
  0
LINE
  5
A5D2
  8
0
 10
119.9498535352502
 20
50.000000000001528
 30
0.0
 11
119.7463055359874
 21
50.203547999264337
 31
0.0
  0
LINE
  5
A5D3
  8
0
 10
127.64985395918821
 20
57.09999911487256
 30
0.0
 11
127.749853789315
 21
56.99999928474579
 31
0.0
  0
LINE
  5
A5D4
  8
0
 10
121.24985412086581
 20
56.99999928474579
 30
0.0
 11
121.3498539509926
 21
57.09999911487256
 31
0.0
  0
LINE
  5
A5D7
  8
0
 10
121.8475350397382
 20
56.495987996460542
 30
0.0
 11
121.847701746479
 21
56.490517407657251
 31
0.0
  0
POLYLINE
  5
A5D8
  8
0
 66
     1
 10
0.0
 20
0.0
 30
0.0
 70
   128
  0
VERTEX
  5
A731
  8
0
 10
125.3961934926662
 20
56.490517407657251
 30
0.0
  0
VERTEX
  5
A732
  8
0
 10
123.6219671773467
 20
56.62336684763585
 30
0.0
  0
VERTEX
  5
A733
  8
0
 10
121.847701746479
 20
56.490517407657251
 30
0.0
  0
SEQEND
  5
A734
  8
0
  0
LINE
  5
A5D9
  8
0
 10
125.3961934926662
 20
56.490517407657251
 30
0.0
 11
125.3963890704069
 21
56.495987996460542
 31
0.0
  0
ARC
  5
A5DA
  8
0
 10
114.0844084438047
 20
57.412079813097357
 30
0.0
 40
11.349013562549089
 50
355.37005028016438
 51
356.32135677232822
  0
ARC
  5
A5DB
  8
0
 10
122.1157271226095
 20
56.53752634487801
 30
0.0
 40
0.2713898076645973
 50
147.3548654424547
 51
188.80417695199981
  0
LINE
  5
A5DC
  8
0
 10
126.69019542957879
 20
56.495987996460542
 30
0.0
 11
126.6903733121905
 21
56.490517407657251
 31
0.0
  0
LINE
  5
A5DD
  8
0
 10
125.3961934926662
 20
56.490517407657251
 30
0.0
 11
125.3961934926662
 21
54.200000315906152
 31
0.0
  0
LINE
  5
A5DE
  8
0
 10
126.6903733121905
 20
54.200000315906152
 30
0.0
 11
126.6903733121905
 21
56.490517407657251
 31
0.0
  0
LINE
  5
A5DF
  8
0
 10
126.59619145418741
 20
56.68392516672764
 30
0.0
 11
125.41003946538299
 21
56.68392516672764
 31
0.0
  0
ARC
  5
A5E0
  8
0
 10
126.4513048666615
 20
56.493977595620493
 30
0.0
 40
0.2388990221043747
 50
0.4821654012069593
 51
52.664290108587728
  0
LINE
  5
A5E1
  8
0
 10
121.8872112440619
 20
56.68392516672764
 30
0.0
 11
120.9454327109013
 21
56.68392516672764
 31
0.0
  0
LINE
  5
A5E2
  8
0
 10
129.20883486370781
 20
56.68392516672764
 30
0.0
 11
128.96445907975769
 21
56.68392516672764
 31
0.0
  0
LINE
  5
A5E3
  8
0
 10
128.3498537013981
 20
56.99999928474579
 30
0.0
 11
120.6498542087824
 21
56.999999284745861
 31
0.0
  0
LINE
  5
A5E4
  8
0
 10
121.847701746479
 20
54.200000315906152
 30
0.0
 11
121.847701746479
 21
56.490517407657251
 31
0.0
  0
POLYLINE
  5
A5F1
  8
0
 66
     1
 10
0.0
 20
0.0
 30
0.0
 70
   128
  0
VERTEX
  5
A735
  8
0
 10
129.07589322279429
 20
56.490517407657251
 30
0.0
  0
VERTEX
  5
A736
  8
0
 10
127.8831330346618
 20
56.623370572926149
 30
0.0
  0
VERTEX
  5
A737
  8
0
 10
126.6903733121905
 20
56.490517407657251
 30
0.0
  0
SEQEND
  5
A738
  8
0
  0
LINE
  5
A5F2
  8
0
 10
129.07589322279429
 20
56.490517407657251
 30
0.0
 11
129.0759588810358
 21
56.495987996460542
 31
0.0
  0
ARC
  5
A5F3
  8
0
 10
128.88102177137549
 20
56.50738030435258
 30
0.0
 40
0.1952697145020475
 50
356.65538500616759
 51
64.703378920372984
  0
LINE
  5
A5F4
  8
0
 10
129.07589322279429
 20
54.200000315906152
 30
0.0
 11
119.83296305911971
 21
54.200000315906102
 31
0.0
  0
LINE
  5
A5F5
  8
0
 10
129.07589322279429
 20
56.490517407657251
 30
0.0
 11
129.07589322279429
 21
50.299999490381822
 31
0.0
  0
LINE
  5
A5F8
  8
0
 10
120.82015399213169
 20
56.490517407657251
 30
0.0
 11
120.82028344596959
 21
56.495987996460542
 31
0.0
  0
LINE
  5
A5F9
  8
0
 10
120.82015399213169
 20
56.490517407657251
 30
0.0
 11
120.82015399213169
 21
54.200000315906152
 31
0.0
  0
ARC
  5
A5FA
  8
0
 10
121.0345763344301
 20
56.488926741978901
 30
0.0
 40
0.2144091960708492
 50
114.5679852820931
 51
178.1127057102787
  0
LINE
  5
A5FB
  8
0
 10
129.25340283985469
 20
50.203547999264337
 30
0.0
 11
129.3425252879712
 21
50.299999490381822
 31
0.0
  0
LINE
  5
A5FC
  8
0
 10
129.3425252879712
 20
50.299999490381822
 30
0.0
 11
129.07589322279429
 21
50.299999490381822
 31
0.0
  0
LINE
  5
A5FD
  8
0
 10
119.9498535352502
 20
50.000000000001528
 30
0.0
 11
129.0498539092693
 21
50.000000000001528
 31
0.0
  0
POLYLINE
  5
A5FF
  8
0
 66
     1
 10
0.0
 20
0.0
 30
0.0
 70
   128
  0
VERTEX
  5
A739
  8
0
 10
120.82015399213169
 20
56.490517407657251
 30
0.0
  0
VERTEX
  5
A73A
  8
0
 10
120.2386687728319
 20
56.623370572926149
 30
0.0
  0
VERTEX
  5
A73B
  8
0
 10
119.83296305911971
 20
56.530678273760188
 30
0.0
  0
SEQEND
  5
A73C
  8
0
  0
LINE
  5
A601
  8
0
 10
124.2196015300903
 20
57.09999911487256
 30
0.0
 11
124.0053973379288
 21
56.99999928474579
 31
0.0
  0
LINE
  5
A602
  8
0
 10
124.9943101065907
 20
56.99999928474579
 30
0.0
 11
124.7801068457518
 21
57.09999911487256
 31
0.0
  0
LINE
  5
A603
  8
0
 10
124.2196015300903
 20
57.09999911487256
 30
0.0
 11
124.7801068457518
 21
57.09999911487256
 31
0.0
  0
LINE
  5
A604
  8
0
 10
119.6571826222095
 20
50.299999490381929
 30
0.0
 11
119.6571826222096
 21
53.742836357827478
 31
0.0
  0
LINE
  5
A605
  8
0
 10
127.4867351385507
 20
57.09999911487256
 30
0.0
 11
127.458825729296
 21
56.99999928474579
 31
0.0
  0
LINE
  5
A606
  8
0
 10
121.54088218088479
 20
56.99999928474579
 30
0.0
 11
121.51297323729131
 21
57.09999911487256
 31
0.0
  0
LINE
  5
A607
  8
0
 10
119.7463055359874
 20
50.203547999264337
 30
0.0
 11
119.6571826222095
 21
50.299999490381822
 31
0.0
  0
LINE
  5
A608
  8
0
 10
129.34251411210059
 20
56.495987996460542
 30
0.0
 11
129.3425252879712
 21
50.299999490381822
 31
0.0
  0
ARC
  5
A609
  8
0
 10
129.14140774880681
 20
56.49445398171946
 30
0.0
 40
0.2011122138470432
 50
0.4370367219180559
 51
70.41013035065653
  0
LINE
  5
A60A
  8
0
 10
127.4867351385507
 20
57.09999911487256
 30
0.0
 11
127.64985395918821
 21
57.09999911487256
 31
0.0
  0
LINE
  5
A60B
  8
0
 10
121.51297323729131
 20
57.09999911487256
 30
0.0
 11
121.3498539509921
 21
57.09999911487256
 31
0.0
  0
ENDSEC
  0
EOF
