  0
SECTION
  2
HEADER
  9
$ACADVER
  1
AC1009
  9
$INSBASE
 10
0.0
 20
0.0
 30
0.0
  9
$EXTMIN
 10
0.0
 20
-2.960436562073669
 30
0.0
  9
$EXTMAX
 10
328.25640241854393
 20
217.0611074889357
 30
0.0
  9
$LIMMIN
 10
0.0
 20
0.0
  9
$LIMMAX
 10
375.0
 20
270.0
  9
$ORTHOMODE
 70
     1
  9
$REGENMODE
 70
     1
  9
$FILLMODE
 70
     1
  9
$QTEXTMODE
 70
     0
  9
$MIRRTEXT
 70
     0
  9
$DRAGMODE
 70
     2
  9
$LTSCALE
 40
10.0
  9
$OSMODE
 70
    55
  9
$ATTMODE
 70
     1
  9
$TEXTSIZE
 40
4.000000000000048
  9
$TRACEWID
 40
0.05
  9
$TEXTSTYLE
  7
STANDARD
  9
$CLAYER
  8
0
  9
$CELTYPE
  6
BYLAYER
  9
$CECOLOR
 62
   256
  9
$DIMSCALE
 40
1.0
  9
$DIMASZ
 40
3.0
  9
$DIMEXO
 40
2.0
  9
$DIMDLI
 40
0.3799999999999999
  9
$DIMRND
 40
0.0
  9
$DIMDLE
 40
0.0
  9
$DIMEXE
 40
2.0
  9
$DIMTP
 40
0.0
  9
$DIMTM
 40
0.0
  9
$DIMTXT
 40
3.2000000000000002
  9
$DIMCEN
 40
0.0
  9
$DIMTSZ
 40
0.0
  9
$DIMTOL
 70
     0
  9
$DIMLIM
 70
     0
  9
$DIMTIH
 70
     0
  9
$DIMTOH
 70
     0
  9
$DIMSE1
 70
     0
  9
$DIMSE2
 70
     0
  9
$DIMTAD
 70
     1
  9
$DIMZIN
 70
     0
  9
$DIMBLK
  1

  9
$DIMASO
 70
     1
  9
$DIMSHO
 70
     0
  9
$DIMPOST
  1

  9
$DIMAPOST
  1

  9
$DIMALT
 70
     0
  9
$DIMALTD
 70
     2
  9
$DIMALTF
 40
25.399999999999999
  9
$DIMLFAC
 40
1.0
  9
$DIMTOFL
 70
     1
  9
$DIMTVP
 40
0.0
  9
$DIMTIX
 70
     1
  9
$DIMSOXD
 70
     0
  9
$DIMSAH
 70
     0
  9
$DIMBLK1
  1

  9
$DIMBLK2
  1

  9
$DIMSTYLE
  2
STANDARD
  9
$DIMCLRD
 70
     0
  9
$DIMCLRE
 70
     0
  9
$DIMCLRT
 70
     0
  9
$DIMTFAC
 40
1.0
  9
$DIMGAP
 40
0.09
  9
$LUNITS
 70
     2
  9
$LUPREC
 70
     4
  9
$SKETCHINC
 40
0.1
  9
$FILLETRAD
 40
15.0
  9
$AUNITS
 70
     0
  9
$AUPREC
 70
     0
  9
$MENU
  1
E:\r13\win\SUPPORT\ACAD
  9
$ELEVATION
 40
0.0
  9
$PELEVATION
 40
0.0
  9
$THICKNESS
 40
0.0
  9
$LIMCHECK
 70
     0
  9
$BLIPMODE
 70
     0
  9
$CHAMFERA
 40
0.0
  9
$CHAMFERB
 40
0.0
  9
$SKPOLY
 70
     0
  9
$TDCREATE
 40
2449840.6332291672
  9
$TDUPDATE
 40
2456598.5570254978
  9
$TDINDWG
 40
0.0860365278
  9
$TDUSRTIMER
 40
0.0860365278
  9
$USRTIMER
 70
     1
  9
$ANGBASE
 50
0.0
  9
$ANGDIR
 70
     0
  9
$PDMODE
 70
     0
  9
$PDSIZE
 40
0.0
  9
$PLINEWID
 40
0.0
  9
$COORDS
 70
     1
  9
$SPLFRAME
 70
     0
  9
$SPLINETYPE
 70
     6
  9
$SPLINESEGS
 70
     8
  9
$ATTDIA
 70
     0
  9
$ATTREQ
 70
     1
  9
$HANDLING
 70
     1
  9
$HANDSEED
  5
503
  9
$SURFTAB1
 70
     6
  9
$SURFTAB2
 70
     6
  9
$SURFTYPE
 70
     6
  9
$SURFU
 70
     6
  9
$SURFV
 70
     6
  9
$UCSNAME
  2

  9
$UCSORG
 10
0.0
 20
0.0
 30
0.0
  9
$UCSXDIR
 10
1.0
 20
0.0
 30
0.0
  9
$UCSYDIR
 10
0.0
 20
1.0
 30
0.0
  9
$PUCSNAME
  2

  9
$PUCSORG
 10
0.0
 20
0.0
 30
0.0
  9
$PUCSXDIR
 10
1.0
 20
0.0
 30
0.0
  9
$PUCSYDIR
 10
0.0
 20
1.0
 30
0.0
  9
$USERI1
 70
     0
  9
$USERI2
 70
     1
  9
$USERI3
 70
     1
  9
$USERI4
 70
     0
  9
$USERI5
 70
     0
  9
$USERR1
 40
0.0
  9
$USERR2
 40
0.0
  9
$USERR3
 40
0.0
  9
$USERR4
 40
0.0
  9
$USERR5
 40
0.0
  9
$WORLDVIEW
 70
     1
  9
$SHADEDGE
 70
     3
  9
$SHADEDIF
 70
    70
  9
$TILEMODE
 70
     1
  9
$MAXACTVP
 70
    16
  9
$PLIMCHECK
 70
     0
  9
$PEXTMIN
 10
1.0000000000000000E+020
 20
1.0000000000000000E+020
 30
1.0000000000000000E+020
  9
$PEXTMAX
 10
-1.0000000000000000E+020
 20
-1.0000000000000000E+020
 30
-1.0000000000000000E+020
  9
$PLIMMIN
 10
0.0
 20
0.0
  9
$PLIMMAX
 10
12.0
 20
9.0
  9
$UNITMODE
 70
     0
  9
$VISRETAIN
 70
     0
  9
$PLINEGEN
 70
     0
  9
$PSLTSCALE
 70
     0
  0
ENDSEC
  0
SECTION
  2
TABLES
  0
TABLE
  2
VPORT
 70
     1
  0
VPORT
  2
*ACTIVE
 70
     0
 10
0.0
 20
0.0
 11
1.0
 21
1.0
 12
187.4942783906524
 22
197.0509055860143
 13
0.0
 23
0.0
 14
10.0
 24
10.0
 15
10.0
 25
10.0
 16
0.0
 26
0.0
 36
1.0
 17
0.0
 27
0.0
 37
0.0
 40
403.57315882993248
 41
1.7807262569832401
 42
50.0
 43
0.0
 44
0.0
 50
0.0
 51
0.0
 71
     0
 72
   500
 73
     1
 74
     0
 75
     0
 76
     0
 77
     0
 78
     0
  0
ENDTAB
  0
TABLE
  2
LTYPE
 70
     4
  0
LTYPE
  2
CONTINUOUS
 70
     0
  3
Solid Line
 72
    65
 73
     0
 40
0.0
  0
LTYPE
  2
CENTER
 70
     0
  3
____ _ ____ _ ____ _ ____ _ ____ _ ____ _ ____
 72
    65
 73
     4
 40
2.0
 49
1.25
 49
-0.25
 49
0.25
 49
-0.25
  0
LTYPE
  2
HIDDEN
 70
     0
  3
_ _ _ _ _ _ _ _ _ _ _ _ _ _ _ _ _ _ _ _ _ _ _
 72
    65
 73
     2
 40
0.375
 49
0.25
 49
-0.125
  0
LTYPE
  2
PHANTOM2
 70
     0
  3
___ _ _ ___ _ _ ___ _ _ ___ _ _
 72
    65
 73
     6
 40
1.25
 49
0.625
 49
-0.125
 49
0.125
 49
-0.125
 49
0.125
 49
-0.125
  0
ENDTAB
  0
TABLE
  2
LAYER
 70
     3
  0
LAYER
  2
0
 70
     0
 62
     7
  6
CONTINUOUS
  0
LAYER
  2
1
 70
     0
 62
     1
  6
CENTER
  0
LAYER
  2
2
 70
     0
 62
     2
  6
HIDDEN
  0
ENDTAB
  0
TABLE
  2
STYLE
 70
     2
  0
STYLE
  2
STANDARD
 70
     0
 40
0.0
 41
1.0
 50
0.0
 71
     0
 42
4.000000000000048
  3
TXT
  4
BIGFONT
  0
STYLE
  2
STANDARD1
 70
     0
 40
0.0
 41
1.0
 50
0.0
 71
     0
 42
3.0
  3
txt
  4

  0
ENDTAB
  0
TABLE
  2
VIEW
 70
     1
  0
VIEW
  2
ALL
 70
     0
 40
270.0
 10
220.99159663865549
 20
135.0
 41
0.0
 11
0.0
 21
0.0
 31
1.0
 12
0.0
 22
0.0
 32
0.0
 42
0.0
 43
0.0
 44
0.0
 50
0.0
 71
     0
  0
ENDTAB
  0
TABLE
  2
UCS
 70
     0
  0
ENDTAB
  0
TABLE
  2
APPID
 70
     3
  0
APPID
  2
ACAD
 70
     0
  0
APPID
  2
ACAD_MLEADERVER
 70
     0
  0
APPID
  2
ACAD_NAV_VCDISPLAY
 70
     0
  0
ENDTAB
  0
TABLE
  2
DIMSTYLE
 70
     1
  0
DIMSTYLE
  2
STANDARD
 70
     0
  3

  4

  5

  6

  7

 40
1.0
 41
0.18
 42
0.0625
 43
0.38
 44
0.18
 45
0.0
 46
0.0
 47
0.0
 48
0.0
140
0.18
141
0.09
142
0.0
143
25.399999999999999
144
1.0
145
0.0
146
1.0
147
0.09
 71
     0
 72
     0
 73
     1
 74
     1
 75
     0
 76
     0
 77
     0
 78
     0
170
     0
171
     2
172
     0
173
     0
174
     0
175
     0
176
     0
177
     0
178
     0
  0
ENDTAB
  0
ENDSEC
  0
SECTION
  2
BLOCKS
  0
BLOCK
  8
0
  2
$MODEL_SPACE
 70
     0
 10
0.0
 20
0.0
 30
0.0
  3
$MODEL_SPACE
  1

  0
ENDBLK
  5
384
  8
0
  0
BLOCK
 67
     1
  8
0
  2
$PAPER_SPACE
 70
     0
 10
0.0
 20
0.0
 30
0.0
  3
$PAPER_SPACE
  1

  0
ENDBLK
  5
382
 67
     1
  8
0
  0
BLOCK
  8
0
  2
STDGX5
 70
     0
 10
0.0
 20
0.0
 30
0.0
  3
STDGX5
  1

  0
ENDBLK
  5
1DC
  8
0
  0
ENDSEC
  0
SECTION
  2
ENTITIES
  0
LINE
  5
111
  8
1
 10
328.25640241854393
 20
197.06110748893559
 30
0.0
 11
148.25640241854379
 21
197.06110748893559
 31
0.0
  0
LINE
  5
112
  8
1
 10
168.25640241854379
 20
217.0611074889357
 30
0.0
 11
168.25640241854379
 21
177.06110748893559
 31
0.0
  0
LINE
  5
114
  8
1
 10
168.25640241854379
 20
102.27990065844941
 30
0.0
 11
168.25640241854379
 21
59.779900658449378
 31
0.0
  0
LINE
  5
116
  8
1
 10
183.2564024185439
 20
117.27990065844929
 30
0.0
 11
293.25640241854398
 21
117.27990065844909
 31
0.0
  0
LINE
  5
12D
  8
0
 10
308.25640241854393
 20
204.5611074889357
 30
0.0
 11
168.25640241854379
 21
204.5611074889357
 31
0.0
  0
LINE
  5
12E
  8
0
 10
308.25640241854393
 20
189.5611074889357
 30
0.0
 11
168.25640241854379
 21
189.56110748893559
 31
0.0
  0
LINE
  5
133
  8
0
 10
183.2564024185439
 20
124.77990065844929
 30
0.0
 11
293.25640241854398
 21
124.77990065844909
 31
0.0
  0
LINE
  5
137
  8
0
 10
160.75640241854379
 20
102.27990065844941
 30
0.0
 11
160.75640241854379
 21
75.053544257922084
 31
0.0
  0
LINE
  5
138
  8
0
 10
175.75640241854379
 20
102.27990065844941
 30
0.0
 11
175.75640241854379
 21
75.053544257923818
 31
0.0
  0
LINE
  5
19F
  8
0
 10
153.25640241854379
 20
64.779900658449435
 30
0.0
 11
183.25640241854379
 21
64.779900658449336
 31
0.0
  0
INSERT
  5
278
  8
0
  2
STDGX5
 10
0.0
 20
0.0
 30
0.0
  0
INSERT
  5
279
  8
0
  2
STDGX5
 10
0.0
 20
0.0
 30
0.0
  0
INSERT
  5
27A
  8
0
  2
STDGX5
 10
275.0
 20
0.0
 30
0.0
  0
INSERT
  5
27B
  8
0
  2
STDGX5
 10
275.0
 20
0.0
 30
0.0
  0
ARC
  5
2AC
  8
0
 10
168.25640241854379
 20
197.06110748893559
 30
0.0
 40
7.5
 50
90.0
 51
270.0
  0
ARC
  5
2AD
  8
0
 10
168.25640241854379
 20
197.06110748893559
 30
0.0
 40
15.0
 50
30.0
 51
330.0
  0
ARC
  5
2AF
  8
2
 10
168.25640241854379
 20
197.06110748893559
 30
0.0
 40
15.0
 50
330.0
 51
30.0
  0
ARC
  5
2B0
  8
2
 10
168.25640241854379
 20
197.06110748893559
 30
0.0
 40
7.5
 50
270.0
 51
90.0
  0
LINE
  5
2B2
  8
1
 10
308.25640241854393
 20
217.0611074889357
 30
0.0
 11
308.25640241854393
 21
177.06110748893559
 31
0.0
  0
ARC
  5
2B3
  8
0
 10
308.25640241854393
 20
197.06110748893559
 30
0.0
 40
7.5
 50
270.0
 51
90.0
  0
ARC
  5
2B4
  8
2
 10
308.25640241854393
 20
197.06110748893559
 30
0.0
 40
7.5
 50
90.0
 51
270.0
  0
ARC
  5
2B5
  8
0
 10
308.25640241854393
 20
197.06110748893559
 30
0.0
 40
15.0
 50
210.0
 51
150.0
  0
ARC
  5
2B6
  8
2
 10
308.25640241854393
 20
197.06110748893559
 30
0.0
 40
15.0
 50
150.0
 51
210.0
  0
LINE
  5
2CE
  8
2
 10
168.2564024185439
 20
81.223276331423563
 30
0.0
 11
170.7564024185441
 21
79.779900658449378
 31
0.0
  0
LINE
  5
2CF
  8
2
 10
170.7564024185441
 20
65.779900658450273
 30
0.0
 11
170.7564024185441
 21
79.779900658449378
 31
0.0
  0
LINE
  5
2D0
  8
2
 10
171.25640241854401
 20
65.279900658449861
 30
0.0
 11
171.25640241854401
 21
76.779900658449364
 31
0.0
  0
LINE
  5
2D1
  8
2
 10
170.7564024185441
 20
65.779900658450273
 30
0.0
 11
171.7564024185441
 21
64.779900658449378
 31
0.0
  0
LINE
  5
2D2
  8
2
 10
170.7564024185441
 20
77.645926062233798
 30
0.0
 11
171.25640241854401
 21
76.779900658449364
 31
0.0
  0
LINE
  5
2D3
  8
2
 10
165.7564024185437
 20
65.779900658450273
 30
0.0
 11
170.7564024185441
 21
65.779900658450273
 31
0.0
  0
LINE
  5
2D4
  8
2
 10
165.7564024185437
 20
77.645926062233798
 30
0.0
 11
165.2564024185437
 21
76.779900658449364
 31
0.0
  0
LINE
  5
2D5
  8
2
 10
160.75640241854379
 20
76.779900658449407
 30
0.0
 11
175.75640241854379
 21
76.779900658449364
 31
0.0
  0
LINE
  5
2D6
  8
2
 10
168.25640241854379
 20
81.223276331423563
 30
0.0
 11
165.7564024185437
 21
79.779900658449378
 31
0.0
  0
LINE
  5
2D7
  8
2
 10
165.7564024185437
 20
79.779900658449378
 30
0.0
 11
170.7564024185441
 21
79.779900658449378
 31
0.0
  0
LINE
  5
2D8
  8
2
 10
165.7564024185437
 20
65.779900658450273
 30
0.0
 11
164.7564024185437
 21
64.779900658449378
 31
0.0
  0
LINE
  5
2D9
  8
2
 10
165.2564024185437
 20
65.279900658449861
 30
0.0
 11
165.2564024185437
 21
76.779900658449364
 31
0.0
  0
LINE
  5
2DA
  8
2
 10
165.7564024185437
 20
65.779900658450273
 30
0.0
 11
165.7564024185437
 21
79.779900658449378
 31
0.0
  0
ARC
  5
2FC
  8
0
 10
148.78748753896551
 20
75.916722458185802
 30
0.0
 40
12.0
 50
291.86429886777421
 51
4.1249347160590313
  0
ARC
  5
2FD
  8
0
 10
187.72531729812221
 20
75.916722458185802
 30
0.0
 40
12.0
 50
175.87506528394101
 51
248.13570113222579
  0
LINE
  5
2FF
  8
0
 10
315.75640241854398
 20
102.27990065844941
 30
0.0
 11
315.75640241854398
 21
75.053544257922084
 31
0.0
  0
LINE
  5
300
  8
1
 10
308.25640241854393
 20
102.27990065844941
 30
0.0
 11
308.25640241854393
 21
59.779900658449378
 31
0.0
  0
LINE
  5
301
  8
0
 10
300.75640241854398
 20
102.27990065844941
 30
0.0
 11
300.75640241854398
 21
75.053544257923818
 31
0.0
  0
ARC
  5
302
  8
0
 10
288.78748753896559
 20
75.916722458185802
 30
0.0
 40
12.0
 50
291.86429886777421
 51
4.1249347160590286
  0
ARC
  5
303
  8
0
 10
327.72531729812232
 20
75.916722458185802
 30
0.0
 40
12.0
 50
175.87506528394101
 51
248.13570113222579
  0
LINE
  5
308
  8
0
 10
323.25640241854398
 20
64.779900658449435
 30
0.0
 11
293.25640241854398
 21
64.779900658449336
 31
0.0
  0
LINE
  5
315
  8
0
 10
183.2564024185439
 20
109.77990065844929
 30
0.0
 11
293.25640241854393
 21
109.77990065844899
 31
0.0
  0
ARC
  5
316
  8
1
 10
183.2564024185439
 20
102.27990065844941
 30
0.0
 40
15.0
 50
89.999999999999872
 51
180.0
  0
ARC
  5
317
  8
0
 10
183.2564024185439
 20
102.27990065844941
 30
0.0
 40
7.5
 50
89.999999999999872
 51
180.0
  0
ARC
  5
318
  8
0
 10
183.2564024185439
 20
102.27990065844941
 30
0.0
 40
22.5
 50
89.999999999999872
 51
180.0
  0
ARC
  5
319
  8
0
 10
293.25640241854393
 20
102.27990065844941
 30
0.0
 40
22.5
 50
0.0
 51
90.000000000000114
  0
ARC
  5
31A
  8
1
 10
293.25640241854393
 20
102.27990065844941
 30
0.0
 40
15.0
 50
0.0
 51
90.000000000000114
  0
ARC
  5
31B
  8
0
 10
293.25640241854393
 20
102.27990065844941
 30
0.0
 40
7.5
 50
0.0
 51
90.000000000000114
  0
LINE
  5
31D
  8
2
 10
163.0064024185437
 20
65.279900658449861
 30
0.0
 11
163.0064024185437
 21
76.779900658449364
 31
0.0
  0
LINE
  5
31E
  8
2
 10
173.50640241854401
 20
65.279900658449861
 30
0.0
 11
173.50640241854401
 21
76.779900658449364
 31
0.0
  0
LINE
  5
31F
  8
0
 10
160.75640241854379
 20
76.779900658449407
 30
0.0
 11
175.75640241854379
 21
76.779900658449364
 31
0.0
  0
LINE
  5
320
  8
2
 10
313.5064024185441
 20
65.279900658449861
 30
0.0
 11
313.5064024185441
 21
76.779900658449364
 31
0.0
  0
LINE
  5
321
  8
2
 10
303.0064024185437
 20
65.279900658449861
 30
0.0
 11
303.0064024185437
 21
76.779900658449364
 31
0.0
  0
LINE
  5
322
  8
2
 10
311.2564024185441
 20
65.279900658449861
 30
0.0
 11
311.2564024185441
 21
76.779900658449364
 31
0.0
  0
LINE
  5
323
  8
2
 10
305.2564024185437
 20
65.279900658449861
 30
0.0
 11
305.2564024185437
 21
76.779900658449364
 31
0.0
  0
LINE
  5
324
  8
2
 10
310.75640241854421
 20
65.779900658450273
 30
0.0
 11
310.7564024185441
 21
79.779900658449378
 31
0.0
  0
LINE
  5
325
  8
2
 10
305.75640241854381
 20
65.779900658450273
 30
0.0
 11
305.75640241854381
 21
79.779900658449378
 31
0.0
  0
LINE
  5
326
  8
2
 10
310.75640241854421
 20
65.779900658450273
 30
0.0
 11
311.7564024185441
 21
64.779900658449378
 31
0.0
  0
LINE
  5
327
  8
2
 10
305.75640241854381
 20
65.779900658450273
 30
0.0
 11
304.75640241854381
 21
64.779900658449378
 31
0.0
  0
LINE
  5
328
  8
2
 10
305.75640241854381
 20
65.779900658450273
 30
0.0
 11
310.75640241854421
 21
65.779900658450273
 31
0.0
  0
LINE
  5
329
  8
0
 10
300.75640241854393
 20
76.779900658449407
 30
0.0
 11
315.75640241854393
 21
76.779900658449364
 31
0.0
  0
LINE
  5
32A
  8
2
 10
300.75640241854393
 20
76.779900658449407
 30
0.0
 11
315.75640241854393
 21
76.779900658449364
 31
0.0
  0
LINE
  5
32B
  8
2
 10
305.75640241854381
 20
79.779900658449378
 30
0.0
 11
310.75640241854421
 21
79.779900658449378
 31
0.0
  0
LINE
  5
32C
  8
2
 10
305.75640241854381
 20
77.645926062233798
 30
0.0
 11
305.2564024185437
 21
76.779900658449364
 31
0.0
  0
LINE
  5
32D
  8
2
 10
310.75640241854421
 20
77.645926062233798
 30
0.0
 11
311.2564024185441
 21
76.779900658449364
 31
0.0
  0
LINE
  5
32E
  8
2
 10
308.25640241854398
 20
81.223276331423563
 30
0.0
 11
310.75640241854421
 21
79.779900658449378
 31
0.0
  0
LINE
  5
32F
  8
2
 10
308.25640241854393
 20
81.223276331423563
 30
0.0
 11
305.75640241854381
 21
79.779900658449378
 31
0.0
  0
LINE
  5
330
  8
2
 10
83.800198280185526
 20
65.279900658448412
 30
0.0
 11
83.800198280185526
 21
76.779900658447957
 31
0.0
  0
LINE
  5
331
  8
2
 10
73.300198280185185
 20
65.279900658448412
 30
0.0
 11
73.300198280185185
 21
76.779900658447957
 31
0.0
  0
LINE
  5
332
  8
0
 10
71.050198280185285
 20
117.27990065844929
 30
0.0
 11
71.050198280185299
 21
75.053544257920635
 31
0.0
  0
LINE
  5
333
  8
0
 10
86.050198280185313
 20
117.27990065844929
 30
0.0
 11
86.050198280185299
 21
75.053544257922368
 31
0.0
  0
LINE
  5
334
  8
1
 10
78.550198280185356
 20
129.77990065844929
 30
0.0
 11
78.550198280185356
 21
59.779900658447957
 31
0.0
  0
ARC
  5
335
  8
0
 10
98.019113159763677
 20
75.916722458184381
 30
0.0
 40
12.0
 50
175.87506528394101
 51
248.13570113222579
  0
ARC
  5
336
  8
0
 10
59.081283400607049
 20
75.916722458184381
 30
0.0
 40
12.0
 50
291.86429886777421
 51
4.1249347160590313
  0
LINE
  5
337
  8
2
 10
81.550198280185526
 20
65.279900658448412
 30
0.0
 11
81.550198280185526
 21
76.779900658447957
 31
0.0
  0
LINE
  5
338
  8
2
 10
75.550198280185185
 20
65.279900658448412
 30
0.0
 11
75.550198280185185
 21
76.779900658447957
 31
0.0
  0
LINE
  5
339
  8
2
 10
81.050198280185555
 20
65.779900658448824
 30
0.0
 11
81.050198280185555
 21
79.779900658447957
 31
0.0
  0
LINE
  5
33A
  8
2
 10
76.050198280185157
 20
65.779900658448824
 30
0.0
 11
76.050198280185157
 21
79.779900658447957
 31
0.0
  0
LINE
  5
33B
  8
0
 10
63.550198280185327
 20
64.779900658447986
 30
0.0
 11
93.550198280185299
 21
64.7799006584479
 31
0.0
  0
LINE
  5
33C
  8
2
 10
81.050198280185555
 20
65.779900658448824
 30
0.0
 11
82.050198280185555
 21
64.779900658447914
 31
0.0
  0
LINE
  5
33D
  8
2
 10
76.050198280185157
 20
65.779900658448824
 30
0.0
 11
75.050198280185157
 21
64.779900658447914
 31
0.0
  0
LINE
  5
33E
  8
2
 10
76.050198280185157
 20
65.779900658448824
 30
0.0
 11
81.050198280185555
 21
65.779900658448824
 31
0.0
  0
LINE
  5
341
  8
0
 10
71.050198280185299
 20
76.779900658447957
 30
0.0
 11
86.050198280185271
 21
76.779900658447957
 31
0.0
  0
LINE
  5
342
  8
2
 10
71.050198280185299
 20
76.779900658447957
 30
0.0
 11
86.050198280185299
 21
76.779900658447957
 31
0.0
  0
LINE
  5
343
  8
2
 10
78.550198280185384
 20
81.223276331422142
 30
0.0
 11
81.050198280185555
 21
79.779900658447957
 31
0.0
  0
LINE
  5
344
  8
2
 10
78.550198280185356
 20
81.223276331422142
 30
0.0
 11
76.050198280185157
 21
79.779900658447957
 31
0.0
  0
LINE
  5
345
  8
2
 10
76.050198280185157
 20
79.779900658447957
 30
0.0
 11
81.050198280185555
 21
79.779900658447957
 31
0.0
  0
LINE
  5
346
  8
2
 10
76.050198280185157
 20
77.645926062232306
 30
0.0
 11
75.550198280185185
 21
76.779900658447957
 31
0.0
  0
LINE
  5
347
  8
2
 10
81.050198280185555
 20
77.645926062232306
 30
0.0
 11
81.550198280185526
 21
76.779900658447957
 31
0.0
  0
LINE
  5
34A
  8
1
 10
91.050198280185356
 20
117.27990065844929
 30
0.0
 11
66.050198280185356
 21
117.27990065844929
 31
0.0
  0
ARC
  5
34B
  8
0
 10
78.550198280185356
 20
117.27990065844929
 30
0.0
 40
7.5
 50
0.0
 51
180.0
  0
ARC
  5
34C
  8
2
 10
78.550198280185356
 20
117.27990065844929
 30
0.0
 40
7.5
 50
180.0
 51
0.0
  0
TEXT
  5
46E
  8
0
 62
     3
 10
0.0
 20
0.0
 30
0.0
 40
10.0
  1
SRH4-140B
  7
STANDARD1
  0
ENDSEC
  0
EOF
