  0
SECTION
  2
HEADER
  9
$ACADVER
  1
AC1009
  9
$INSBASE
 10
0.0
 20
0.0
 30
0.0
  9
$EXTMIN
 10
0.0
 20
-2.960436562073669
 30
0.0
  9
$EXTMAX
 10
363.61286760930631
 20
229.80953616085151
 30
0.0
  9
$LIMMIN
 10
0.0
 20
0.0
  9
$LIMMAX
 10
375.0
 20
270.0
  9
$ORTHOMODE
 70
     0
  9
$REGENMODE
 70
     1
  9
$FILLMODE
 70
     1
  9
$QTEXTMODE
 70
     0
  9
$MIRRTEXT
 70
     0
  9
$DRAGMODE
 70
     2
  9
$LTSCALE
 40
10.0
  9
$OSMODE
 70
    55
  9
$ATTMODE
 70
     1
  9
$TEXTSIZE
 40
4.000000000000048
  9
$TRACEWID
 40
0.05
  9
$TEXTSTYLE
  7
STANDARD
  9
$CLAYER
  8
0
  9
$CELTYPE
  6
BYLAYER
  9
$CECOLOR
 62
   256
  9
$DIMSCALE
 40
1.0
  9
$DIMASZ
 40
3.0
  9
$DIMEXO
 40
2.0
  9
$DIMDLI
 40
0.3799999999999999
  9
$DIMRND
 40
0.0
  9
$DIMDLE
 40
0.0
  9
$DIMEXE
 40
2.0
  9
$DIMTP
 40
0.0
  9
$DIMTM
 40
0.0
  9
$DIMTXT
 40
3.2000000000000002
  9
$DIMCEN
 40
0.0
  9
$DIMTSZ
 40
0.0
  9
$DIMTOL
 70
     0
  9
$DIMLIM
 70
     0
  9
$DIMTIH
 70
     0
  9
$DIMTOH
 70
     0
  9
$DIMSE1
 70
     0
  9
$DIMSE2
 70
     0
  9
$DIMTAD
 70
     1
  9
$DIMZIN
 70
     0
  9
$DIMBLK
  1

  9
$DIMASO
 70
     1
  9
$DIMSHO
 70
     0
  9
$DIMPOST
  1

  9
$DIMAPOST
  1

  9
$DIMALT
 70
     0
  9
$DIMALTD
 70
     2
  9
$DIMALTF
 40
25.399999999999999
  9
$DIMLFAC
 40
1.0
  9
$DIMTOFL
 70
     1
  9
$DIMTVP
 40
0.0
  9
$DIMTIX
 70
     1
  9
$DIMSOXD
 70
     0
  9
$DIMSAH
 70
     0
  9
$DIMBLK1
  1

  9
$DIMBLK2
  1

  9
$DIMSTYLE
  2
STANDARD
  9
$DIMCLRD
 70
     0
  9
$DIMCLRE
 70
     0
  9
$DIMCLRT
 70
     0
  9
$DIMTFAC
 40
1.0
  9
$DIMGAP
 40
0.09
  9
$LUNITS
 70
     2
  9
$LUPREC
 70
     4
  9
$SKETCHINC
 40
0.1
  9
$FILLETRAD
 40
10.0
  9
$AUNITS
 70
     0
  9
$AUPREC
 70
     0
  9
$MENU
  1
E:\r13\win\SUPPORT\ACAD
  9
$ELEVATION
 40
0.0
  9
$PELEVATION
 40
0.0
  9
$THICKNESS
 40
0.0
  9
$LIMCHECK
 70
     0
  9
$BLIPMODE
 70
     0
  9
$CHAMFERA
 40
0.0
  9
$CHAMFERB
 40
0.0
  9
$SKPOLY
 70
     0
  9
$TDCREATE
 40
2449840.6332291672
  9
$TDUPDATE
 40
2456598.5569760189
  9
$TDINDWG
 40
0.077914294
  9
$TDUSRTIMER
 40
0.077914294
  9
$USRTIMER
 70
     1
  9
$ANGBASE
 50
0.0
  9
$ANGDIR
 70
     0
  9
$PDMODE
 70
     0
  9
$PDSIZE
 40
0.0
  9
$PLINEWID
 40
0.0
  9
$COORDS
 70
     1
  9
$SPLFRAME
 70
     0
  9
$SPLINETYPE
 70
     6
  9
$SPLINESEGS
 70
     8
  9
$ATTDIA
 70
     0
  9
$ATTREQ
 70
     1
  9
$HANDLING
 70
     1
  9
$HANDSEED
  5
645
  9
$SURFTAB1
 70
     6
  9
$SURFTAB2
 70
     6
  9
$SURFTYPE
 70
     6
  9
$SURFU
 70
     6
  9
$SURFV
 70
     6
  9
$UCSNAME
  2

  9
$UCSORG
 10
0.0
 20
0.0
 30
0.0
  9
$UCSXDIR
 10
1.0
 20
0.0
 30
0.0
  9
$UCSYDIR
 10
0.0
 20
1.0
 30
0.0
  9
$PUCSNAME
  2

  9
$PUCSORG
 10
0.0
 20
0.0
 30
0.0
  9
$PUCSXDIR
 10
1.0
 20
0.0
 30
0.0
  9
$PUCSYDIR
 10
0.0
 20
1.0
 30
0.0
  9
$USERI1
 70
     0
  9
$USERI2
 70
     1
  9
$USERI3
 70
     1
  9
$USERI4
 70
     0
  9
$USERI5
 70
     0
  9
$USERR1
 40
0.0
  9
$USERR2
 40
0.0
  9
$USERR3
 40
0.0
  9
$USERR4
 40
0.0
  9
$USERR5
 40
0.0
  9
$WORLDVIEW
 70
     1
  9
$SHADEDGE
 70
     3
  9
$SHADEDIF
 70
    70
  9
$TILEMODE
 70
     1
  9
$MAXACTVP
 70
    16
  9
$PLIMCHECK
 70
     0
  9
$PEXTMIN
 10
1.0000000000000000E+020
 20
1.0000000000000000E+020
 30
1.0000000000000000E+020
  9
$PEXTMAX
 10
-1.0000000000000000E+020
 20
-1.0000000000000000E+020
 30
-1.0000000000000000E+020
  9
$PLIMMIN
 10
0.0
 20
0.0
  9
$PLIMMAX
 10
12.0
 20
9.0
  9
$UNITMODE
 70
     0
  9
$VISRETAIN
 70
     0
  9
$PLINEGEN
 70
     0
  9
$PSLTSCALE
 70
     0
  0
ENDSEC
  0
SECTION
  2
TABLES
  0
TABLE
  2
VPORT
 70
     1
  0
VPORT
  2
*ACTIVE
 70
     0
 10
0.0
 20
0.0
 11
1.0
 21
1.0
 12
187.4942783906524
 22
197.0509055860143
 13
0.0
 23
0.0
 14
10.0
 24
10.0
 15
10.0
 25
10.0
 16
0.0
 26
0.0
 36
1.0
 17
0.0
 27
0.0
 37
0.0
 40
403.57315882993248
 41
1.7807262569832401
 42
50.0
 43
0.0
 44
0.0
 50
0.0
 51
0.0
 71
     0
 72
   500
 73
     1
 74
     0
 75
     0
 76
     0
 77
     0
 78
     0
  0
ENDTAB
  0
TABLE
  2
LTYPE
 70
     4
  0
LTYPE
  2
CONTINUOUS
 70
     0
  3
Solid Line
 72
    65
 73
     0
 40
0.0
  0
LTYPE
  2
CENTER
 70
     0
  3
____ _ ____ _ ____ _ ____ _ ____ _ ____ _ ____
 72
    65
 73
     4
 40
2.0
 49
1.25
 49
-0.25
 49
0.25
 49
-0.25
  0
LTYPE
  2
HIDDEN
 70
     0
  3
_ _ _ _ _ _ _ _ _ _ _ _ _ _ _ _ _ _ _ _ _ _ _
 72
    65
 73
     2
 40
0.375
 49
0.25
 49
-0.125
  0
LTYPE
  2
PHANTOM2
 70
     0
  3
___ _ _ ___ _ _ ___ _ _ ___ _ _
 72
    65
 73
     6
 40
1.25
 49
0.625
 49
-0.125
 49
0.125
 49
-0.125
 49
0.125
 49
-0.125
  0
ENDTAB
  0
TABLE
  2
LAYER
 70
     3
  0
LAYER
  2
0
 70
     0
 62
     7
  6
CONTINUOUS
  0
LAYER
  2
1
 70
     0
 62
     1
  6
CENTER
  0
LAYER
  2
2
 70
     0
 62
     2
  6
HIDDEN
  0
ENDTAB
  0
TABLE
  2
STYLE
 70
     2
  0
STYLE
  2
STANDARD
 70
     0
 40
0.0
 41
1.0
 50
0.0
 71
     0
 42
4.000000000000048
  3
TXT
  4
BIGFONT
  0
STYLE
  2
STANDARD1
 70
     0
 40
0.0
 41
1.0
 50
0.0
 71
     0
 42
3.0
  3
txt
  4

  0
ENDTAB
  0
TABLE
  2
VIEW
 70
     1
  0
VIEW
  2
ALL
 70
     0
 40
270.0
 10
220.99159663865549
 20
135.0
 41
0.0
 11
0.0
 21
0.0
 31
1.0
 12
0.0
 22
0.0
 32
0.0
 42
0.0
 43
0.0
 44
0.0
 50
0.0
 71
     0
  0
ENDTAB
  0
TABLE
  2
UCS
 70
     0
  0
ENDTAB
  0
TABLE
  2
APPID
 70
     3
  0
APPID
  2
ACAD
 70
     0
  0
APPID
  2
ACAD_MLEADERVER
 70
     0
  0
APPID
  2
ACAD_NAV_VCDISPLAY
 70
     0
  0
ENDTAB
  0
TABLE
  2
DIMSTYLE
 70
     1
  0
DIMSTYLE
  2
STANDARD
 70
     0
  3

  4

  5

  6

  7

 40
1.0
 41
0.18
 42
0.0625
 43
0.38
 44
0.18
 45
0.0
 46
0.0
 47
0.0
 48
0.0
140
0.18
141
0.09
142
0.0
143
25.399999999999999
144
1.0
145
0.0
146
1.0
147
0.09
 71
     0
 72
     0
 73
     1
 74
     1
 75
     0
 76
     0
 77
     0
 78
     0
170
     0
171
     2
172
     0
173
     0
174
     0
175
     0
176
     0
177
     0
178
     0
  0
ENDTAB
  0
ENDSEC
  0
SECTION
  2
BLOCKS
  0
BLOCK
  8
0
  2
$MODEL_SPACE
 70
     0
 10
0.0
 20
0.0
 30
0.0
  3
$MODEL_SPACE
  1

  0
ENDBLK
  5
4C6
  8
0
  0
BLOCK
 67
     1
  8
0
  2
$PAPER_SPACE
 70
     0
 10
0.0
 20
0.0
 30
0.0
  3
$PAPER_SPACE
  1

  0
ENDBLK
  5
4C4
 67
     1
  8
0
  0
BLOCK
  8
0
  2
STDGX5
 70
     0
 10
0.0
 20
0.0
 30
0.0
  3
STDGX5
  1

  0
ENDBLK
  5
1DC
  8
0
  0
ENDSEC
  0
SECTION
  2
ENTITIES
  0
LINE
  5
112
  8
1
 10
137.81214235141519
 20
204.8095361608498
 30
0.0
 11
137.81214235141519
 21
174.8095361608498
 31
0.0
  0
LINE
  5
113
  8
1
 10
257.81214235141522
 20
204.8095361608498
 30
0.0
 11
257.81214235141522
 21
174.8095361608498
 31
0.0
  0
LINE
  5
114
  8
1
 10
137.8121423514153
 20
124.0104653427636
 30
0.0
 11
137.8121423514153
 21
59.010465342763439
 31
0.0
  0
LINE
  5
116
  8
1
 10
147.8121423514153
 20
134.01046534276361
 30
0.0
 11
247.8121423514153
 21
134.01046534276341
 31
0.0
  0
LINE
  5
117
  8
2
 10
135.3121423514153
 20
64.47746534276331
 30
0.0
 11
135.3121423514153
 21
74.010465342763439
 31
0.0
  0
LINE
  5
118
  8
2
 10
135.74514235141459
 20
64.910465342763473
 30
0.0
 11
135.74514235141459
 21
77.010465342763268
 31
0.0
  0
LINE
  5
119
  8
2
 10
139.87914235141591
 20
64.910465342763473
 30
0.0
 11
139.87914235141591
 21
77.010465342763268
 31
0.0
  0
LINE
  5
11A
  8
2
 10
140.31214235141519
 20
64.47746534276331
 30
0.0
 11
140.31214235141519
 21
74.010465342763439
 31
0.0
  0
LINE
  5
11B
  8
2
 10
135.74514235141459
 20
77.010465342763268
 30
0.0
 11
137.8121423514153
 21
78.252444242293507
 31
0.0
  0
LINE
  5
11C
  8
2
 10
139.87914235141591
 20
77.010465342763268
 30
0.0
 11
137.8121423514153
 21
78.252444242293507
 31
0.0
  0
LINE
  5
11D
  8
2
 10
132.81214235141519
 20
74.010465342763439
 30
0.0
 11
142.81214235141519
 21
74.010465342763439
 31
0.0
  0
LINE
  5
11E
  8
2
 10
135.74514235141459
 20
77.010465342763268
 30
0.0
 11
139.87914235141591
 21
77.010465342763268
 31
0.0
  0
LINE
  5
11F
  8
2
 10
134.8451423514154
 20
64.010465342763439
 30
0.0
 11
135.74514235141459
 21
64.910465342763473
 31
0.0
  0
LINE
  5
120
  8
2
 10
135.74514235141459
 20
64.910465342763473
 30
0.0
 11
139.87914235141591
 21
64.910465342763473
 31
0.0
  0
LINE
  5
121
  8
2
 10
139.87914235141591
 20
64.910465342763473
 30
0.0
 11
140.77914235141509
 21
64.010465342763439
 31
0.0
  0
LINE
  5
123
  8
1
 10
257.81214235141528
 20
124.0104653427634
 30
0.0
 11
257.81214235141539
 21
59.010465342763439
 31
0.0
  0
LINE
  5
124
  8
1
 10
321.02030158565452
 20
97.111441505705642
 30
0.0
 11
321.02030158565537
 21
59.010465342761563
 31
0.0
  0
LINE
  5
128
  8
1
 10
348.94923377378808
 20
141.08153315462971
 30
0.0
 11
363.09136939751909
 21
126.9393975308987
 31
0.0
  0
LINE
  5
129
  8
0
 10
316.02030158565452
 20
97.111441505705557
 30
0.0
 11
316.02030158565498
 21
74.010465342761563
 31
0.0
  0
LINE
  5
12A
  8
0
 10
326.02030158565452
 20
97.111441505705784
 30
0.0
 11
326.02030158565498
 21
74.010465342761279
 31
0.0
  0
ARC
  5
12B
  8
0
 10
356.02030158565361
 20
134.01046534276421
 30
0.0
 40
5.0
 50
314.99999999999949
 51
135.0000000000004
  0
ARC
  5
12C
  8
2
 10
356.02030158565361
 20
134.01046534276421
 30
0.0
 40
5.0
 50
135.0000000000004
 51
314.99999999999949
  0
ARC
  5
12F
  8
0
 10
137.81214235141519
 20
189.8095361608498
 30
0.0
 40
5.0
 50
180.0
 51
0.0
  0
ARC
  5
130
  8
2
 10
137.8121423514151
 20
189.8095361608498
 30
0.0
 40
5.0
 50
0.0
 51
180.0
  0
ARC
  5
131
  8
0
 10
257.81214235141522
 20
189.8095361608498
 30
0.0
 40
5.0
 50
180.0
 51
0.0
  0
ARC
  5
132
  8
2
 10
257.81214235141522
 20
189.8095361608498
 30
0.0
 40
5.0
 50
0.0
 51
180.0
  0
LINE
  5
133
  8
0
 10
147.8121423514153
 20
139.01046534276361
 30
0.0
 11
247.8121423514153
 21
139.01046534276341
 31
0.0
  0
LINE
  5
134
  8
0
 10
147.8121423514153
 20
129.01046534276361
 30
0.0
 11
247.8121423514153
 21
129.01046534276341
 31
0.0
  0
LINE
  5
137
  8
0
 10
132.8121423514153
 20
124.01046534276369
 30
0.0
 11
132.81214235141519
 21
74.010465342763439
 31
0.0
  0
LINE
  5
138
  8
0
 10
142.8121423514153
 20
124.0104653427636
 30
0.0
 11
142.81214235141519
 21
74.010465342763453
 31
0.0
  0
LINE
  5
13B
  8
0
 10
262.81214235141528
 20
124.0104653427634
 30
0.0
 11
262.81214235141528
 21
74.010465342763439
 31
0.0
  0
LINE
  5
19F
  8
0
 10
127.8121423514152
 20
64.010465342763453
 30
0.0
 11
147.8121423514153
 21
64.010465342763439
 31
0.0
  0
ARC
  5
1AD
  8
0
 10
120.3121423514152
 20
74.010465342763439
 30
0.0
 40
12.5
 50
306.86989764584422
 51
360.0
  0
ARC
  5
1AE
  8
0
 10
155.3121423514153
 20
74.010465342763439
 30
0.0
 40
12.5
 50
180.0
 51
233.13010235415581
  0
LINE
  5
1B1
  8
0
 10
247.8121423514153
 20
64.010465342763439
 30
0.0
 11
267.81214235141539
 21
64.01046534276341
 31
0.0
  0
ARC
  5
1B2
  8
0
 10
240.3121423514153
 20
74.010465342763439
 30
0.0
 40
12.5
 50
306.86989764584422
 51
360.0
  0
ARC
  5
1B3
  8
0
 10
275.31214235141539
 20
74.010465342763439
 30
0.0
 40
12.5
 50
180.0
 51
233.13010235415581
  0
LINE
  5
1BE
  8
0
 10
252.81214235141539
 20
124.0104653427634
 30
0.0
 11
252.81214235141519
 21
74.01046534276341
 31
0.0
  0
LINE
  5
1C9
  8
0
 10
311.02030158565412
 20
64.010465342761592
 30
0.0
 11
331.02030158565418
 21
64.010465342761563
 31
0.0
  0
ARC
  5
1CA
  8
0
 10
303.52030158565412
 20
74.010465342761563
 30
0.0
 40
12.5
 50
306.86989764584422
 51
360.0
  0
ARC
  5
1CB
  8
0
 10
338.52030158565412
 20
74.010465342761563
 30
0.0
 40
12.5
 50
180.0
 51
233.13010235415581
  0
ARC
  5
1D9
  8
0
 10
257.81214235141522
 20
189.8095361608498
 30
0.0
 40
10.0
 50
119.9999999999996
 51
59.999999999999211
  0
INSERT
  5
278
  8
0
  2
STDGX5
 10
0.0
 20
0.0
 30
0.0
  0
INSERT
  5
279
  8
0
  2
STDGX5
 10
0.0
 20
0.0
 30
0.0
  0
INSERT
  5
27A
  8
0
  2
STDGX5
 10
275.0
 20
0.0
 30
0.0
  0
INSERT
  5
27B
  8
0
  2
STDGX5
 10
275.0
 20
0.0
 30
0.0
  0
LINE
  5
29D
  8
1
 10
363.61286760930631
 20
140.51837907732431
 30
0.0
 11
326.25843098381438
 21
108.5002905411849
 31
0.0
  0
ARC
  5
3D5
  8
1
 10
336.02030158565452
 20
97.111441505706026
 30
0.0
 40
15.0
 50
130.6012946450075
 51
180.00000000000131
  0
LINE
  5
3D6
  8
0
 10
359.27425845293368
 20
130.21418233093789
 30
0.0
 11
329.5123878510945
 21
104.70400752935861
 31
0.0
  0
ARC
  5
3D7
  8
0
 10
336.02030158565452
 20
97.111441505706026
 30
0.0
 40
10.0
 50
130.6012946450075
 51
180.00000000000131
  0
ARC
  5
3D8
  8
0
 10
336.02030158565452
 20
97.111441505706026
 30
0.0
 40
20.0
 50
130.6012946450075
 51
180.00000000000131
  0
LINE
  5
3D9
  8
0
 10
352.7663447183736
 20
137.8067483545905
 30
0.0
 11
323.00447411653431
 21
112.2965735530112
 31
0.0
  0
LINE
  5
3E0
  8
1
 10
46.67505092904252
 20
141.08153315462971
 30
0.0
 11
32.532915305311583
 21
126.9393975308987
 31
0.0
  0
LINE
  5
3E1
  8
1
 10
32.011417093524408
 20
140.51837907732431
 30
0.0
 11
69.365853719016286
 21
108.5002905411849
 31
0.0
  0
LINE
  5
3E2
  8
1
 10
74.603983117176142
 20
97.111441505705642
 30
0.0
 11
74.603983117175289
 21
59.010465342761563
 31
0.0
  0
LINE
  5
3E3
  8
0
 10
69.603983117176142
 20
97.111441505705784
 30
0.0
 11
69.60398311717563
 21
74.010465342761279
 31
0.0
  0
LINE
  5
3E4
  8
0
 10
79.603983117176199
 20
97.111441505705557
 30
0.0
 11
79.60398311717563
 21
74.010465342761563
 31
0.0
  0
ARC
  5
3E9
  8
0
 10
57.103983117176533
 20
74.010465342761563
 30
0.0
 40
12.5
 50
306.86989764584422
 51
360.0
  0
ARC
  5
3EA
  8
0
 10
92.103983117176597
 20
74.010465342761563
 30
0.0
 40
12.5
 50
180.0
 51
233.13010235415581
  0
LINE
  5
3EC
  8
0
 10
84.603983117176526
 20
64.010465342761592
 30
0.0
 11
64.603983117176483
 21
64.010465342761563
 31
0.0
  0
LINE
  5
3F4
  8
0
 10
42.857939984457062
 20
137.8067483545905
 30
0.0
 11
72.619810586296353
 21
112.2965735530112
 31
0.0
  0
LINE
  5
3F5
  8
0
 10
36.350026249896992
 20
130.21418233093789
 30
0.0
 11
66.111896851736219
 21
104.70400752935861
 31
0.0
  0
ARC
  5
3F6
  8
0
 10
59.603983117176142
 20
97.111441505706026
 30
0.0
 40
10.0
 50
359.99999999999869
 51
49.398705354992472
  0
ARC
  5
3F7
  8
1
 10
59.603983117176142
 20
97.111441505706026
 30
0.0
 40
15.0
 50
359.99999999999869
 51
49.398705354992472
  0
ARC
  5
3F8
  8
0
 10
59.603983117176142
 20
97.111441505706026
 30
0.0
 40
20.0
 50
359.99999999999869
 51
49.398705354992472
  0
ARC
  5
3F9
  8
2
 10
39.603983117177052
 20
134.01046534276421
 30
0.0
 40
5.0
 50
225.0000000000004
 51
44.999999999999531
  0
ARC
  5
3FA
  8
0
 10
39.603983117177052
 20
134.01046534276421
 30
0.0
 40
5.0
 50
44.999999999999531
 51
225.0000000000004
  0
LINE
  5
428
  8
0
 10
132.8121423514153
 20
214.80953616085151
 30
0.0
 11
132.81214235141519
 21
189.8095361608498
 31
0.0
  0
LINE
  5
429
  8
1
 10
137.8121423514153
 20
214.80953616085151
 30
0.0
 11
137.8121423514153
 21
174.8095361608498
 31
0.0
  0
LINE
  5
42A
  8
0
 10
262.81214235141528
 20
214.80953616085131
 30
0.0
 11
262.81214235141528
 21
189.8095361608498
 31
0.0
  0
LINE
  5
42B
  8
0
 10
252.81214235141539
 20
214.80953616085131
 30
0.0
 11
252.8121423514153
 21
189.8095361608498
 31
0.0
  0
LINE
  5
42C
  8
1
 10
257.81214235141528
 20
214.80953616085131
 30
0.0
 11
257.81214235141539
 21
174.8095361608498
 31
0.0
  0
LINE
  5
42D
  8
0
 10
142.8121423514153
 20
214.80953616085151
 30
0.0
 11
142.81214235141519
 21
189.8095361608498
 31
0.0
  0
ARC
  5
435
  8
0
 10
137.81214235141519
 20
189.8095361608498
 30
0.0
 40
10.0
 50
119.9999999999994
 51
59.999999999999588
  0
ARC
  5
43A
  8
1
 10
147.8121423514153
 20
124.0104653427636
 30
0.0
 40
10.0
 50
89.999999999999872
 51
180.0
  0
ARC
  5
43B
  8
1
 10
247.8121423514153
 20
124.0104653427634
 30
0.0
 40
10.0
 50
0.0000000000001018
 51
89.999999999999872
  0
ARC
  5
43C
  8
0
 10
247.8121423514153
 20
124.0104653427634
 30
0.0
 40
15.0
 50
0.0000000000001018
 51
89.999999999999872
  0
ARC
  5
43D
  8
0
 10
247.8121423514153
 20
124.0104653427634
 30
0.0
 40
5.0
 50
0.0000000000001018
 51
89.999999999999872
  0
ARC
  5
43E
  8
0
 10
147.8121423514153
 20
124.0104653427636
 30
0.0
 40
15.0
 50
89.999999999999872
 51
180.0
  0
ARC
  5
43F
  8
0
 10
147.8121423514153
 20
124.0104653427636
 30
0.0
 40
5.0
 50
89.999999999999872
 51
180.0
  0
ARC
  5
440
  8
0
 10
247.8121423514153
 20
214.80953616085131
 30
0.0
 40
15.0
 50
0.0000000000001018
 51
89.999999999999872
  0
ARC
  5
441
  8
0
 10
147.8121423514153
 20
214.80953616085151
 30
0.0
 40
15.0
 50
89.999999999999872
 51
180.0
  0
ARC
  5
442
  8
1
 10
147.8121423514153
 20
214.80953616085151
 30
0.0
 40
10.0
 50
89.999999999999872
 51
180.0
  0
LINE
  5
443
  8
0
 10
147.8121423514153
 20
229.80953616085151
 30
0.0
 11
247.8121423514153
 21
229.80953616085131
 31
0.0
  0
LINE
  5
444
  8
0
 10
147.8121423514153
 20
219.80953616085151
 30
0.0
 11
247.8121423514153
 21
219.80953616085131
 31
0.0
  0
LINE
  5
445
  8
1
 10
147.8121423514153
 20
224.80953616085151
 30
0.0
 11
247.8121423514153
 21
224.80953616085131
 31
0.0
  0
ARC
  5
446
  8
0
 10
147.8121423514153
 20
214.80953616085151
 30
0.0
 40
5.0
 50
89.999999999999872
 51
180.0
  0
ARC
  5
447
  8
0
 10
247.8121423514153
 20
214.80953616085131
 30
0.0
 40
5.0
 50
0.0000000000001018
 51
89.999999999999872
  0
ARC
  5
448
  8
1
 10
247.8121423514153
 20
214.80953616085131
 30
0.0
 40
10.0
 50
0.0000000000001018
 51
89.999999999999872
  0
ARC
  5
44B
  8
2
 10
137.81214235141519
 20
189.8095361608498
 30
0.0
 40
10.0
 50
59.999999999999673
 51
119.9999999999992
  0
LINE
  5
44C
  8
1
 10
152.81214235141519
 20
189.8095361608498
 30
0.0
 11
122.8121423514152
 21
189.8095361608498
 31
0.0
  0
LINE
  5
44D
  8
1
 10
137.81214235141519
 20
204.8095361608498
 30
0.0
 11
137.81214235141519
 21
174.8095361608498
 31
0.0
  0
ARC
  5
44E
  8
2
 10
257.8121423514151
 20
189.8095361608498
 30
0.0
 40
10.0
 50
59.999999999999673
 51
119.9999999999992
  0
LINE
  5
44F
  8
1
 10
272.8121423514151
 20
189.8095361608498
 30
0.0
 11
242.8121423514151
 21
189.8095361608498
 31
0.0
  0
LINE
  5
465
  8
2
 10
134.06214235141519
 20
64.47746534276331
 30
0.0
 11
134.06214235141519
 21
74.010465342763439
 31
0.0
  0
LINE
  5
466
  8
2
 10
141.5621423514153
 20
64.47746534276331
 30
0.0
 11
141.5621423514153
 21
74.010465342763439
 31
0.0
  0
LINE
  5
467
  8
0
 10
142.81214235141519
 20
74.010465342763439
 30
0.0
 11
132.81214235141519
 21
74.010465342763453
 31
0.0
  0
LINE
  5
468
  8
0
 10
262.81214235141528
 20
74.010465342763652
 30
0.0
 11
252.81214235141539
 21
74.010465342763666
 31
0.0
  0
LINE
  5
469
  8
2
 10
252.8121423514153
 20
74.010465342763652
 30
0.0
 11
262.81214235141528
 21
74.010465342763652
 31
0.0
  0
LINE
  5
46A
  8
2
 10
255.74514235141459
 20
77.010465342763482
 30
0.0
 11
259.87914235141602
 21
77.010465342763482
 31
0.0
  0
LINE
  5
46B
  8
2
 10
255.74514235141459
 20
77.010465342763482
 30
0.0
 11
257.81214235141528
 21
78.25244424229372
 31
0.0
  0
LINE
  5
46C
  8
2
 10
259.87914235141602
 20
77.010465342763482
 30
0.0
 11
257.81214235141528
 21
78.25244424229372
 31
0.0
  0
LINE
  5
46D
  8
2
 10
261.56214235141528
 20
64.477465342763523
 30
0.0
 11
261.56214235141528
 21
74.010465342763652
 31
0.0
  0
LINE
  5
46E
  8
2
 10
260.31214235141528
 20
64.477465342763523
 30
0.0
 11
260.31214235141528
 21
74.010465342763652
 31
0.0
  0
LINE
  5
46F
  8
2
 10
259.87914235141602
 20
64.910465342763686
 30
0.0
 11
259.87914235141602
 21
77.010465342763482
 31
0.0
  0
LINE
  5
470
  8
2
 10
255.74514235141459
 20
64.910465342763686
 30
0.0
 11
255.74514235141459
 21
77.010465342763482
 31
0.0
  0
LINE
  5
471
  8
2
 10
255.3121423514153
 20
64.477465342763523
 30
0.0
 11
255.3121423514153
 21
74.010465342763652
 31
0.0
  0
LINE
  5
472
  8
2
 10
255.74514235141459
 20
64.910465342763686
 30
0.0
 11
259.87914235141602
 21
64.910465342763686
 31
0.0
  0
LINE
  5
473
  8
2
 10
259.87914235141602
 20
64.910465342763686
 30
0.0
 11
260.7791423514152
 21
64.010465342763652
 31
0.0
  0
LINE
  5
474
  8
2
 10
254.0621423514153
 20
64.477465342763523
 30
0.0
 11
254.0621423514153
 21
74.010465342763652
 31
0.0
  0
LINE
  5
475
  8
2
 10
254.84514235141549
 20
64.010465342763652
 30
0.0
 11
255.74514235141459
 21
64.910465342763686
 31
0.0
  0
LINE
  5
476
  8
0
 10
79.603983117175275
 20
74.01046534276486
 30
0.0
 11
69.603983117175304
 21
74.01046534276486
 31
0.0
  0
LINE
  5
477
  8
2
 10
69.603983117175275
 20
74.01046534276486
 30
0.0
 11
79.603983117175275
 21
74.01046534276486
 31
0.0
  0
LINE
  5
478
  8
2
 10
72.536983117174614
 20
77.010465342764689
 30
0.0
 11
76.670983117175993
 21
77.010465342764689
 31
0.0
  0
LINE
  5
479
  8
2
 10
72.536983117174614
 20
77.010465342764689
 30
0.0
 11
74.603983117175304
 21
78.252444242294914
 31
0.0
  0
LINE
  5
47A
  8
2
 10
76.670983117175993
 20
77.010465342764689
 30
0.0
 11
74.603983117175304
 21
78.252444242294914
 31
0.0
  0
LINE
  5
47B
  8
2
 10
78.353983117175304
 20
64.477465342764731
 30
0.0
 11
78.353983117175304
 21
74.01046534276486
 31
0.0
  0
LINE
  5
47C
  8
2
 10
70.853983117175304
 20
64.477465342764731
 30
0.0
 11
70.853983117175304
 21
74.01046534276486
 31
0.0
  0
LINE
  5
47D
  8
2
 10
77.103983117175304
 20
64.477465342764731
 30
0.0
 11
77.103983117175304
 21
74.01046534276486
 31
0.0
  0
LINE
  5
47E
  8
2
 10
76.670983117175993
 20
64.910465342764894
 30
0.0
 11
76.670983117175993
 21
77.010465342764689
 31
0.0
  0
LINE
  5
47F
  8
2
 10
72.536983117174614
 20
64.910465342764894
 30
0.0
 11
72.536983117174614
 21
77.010465342764689
 31
0.0
  0
LINE
  5
480
  8
2
 10
72.103983117175304
 20
64.477465342764731
 30
0.0
 11
72.103983117175304
 21
74.01046534276486
 31
0.0
  0
LINE
  5
481
  8
2
 10
72.536983117174614
 20
64.910465342764894
 30
0.0
 11
76.670983117175993
 21
64.910465342764894
 31
0.0
  0
LINE
  5
482
  8
2
 10
71.636983117175433
 20
64.01046534276486
 30
0.0
 11
72.536983117174614
 21
64.910465342764894
 31
0.0
  0
LINE
  5
483
  8
2
 10
76.670983117175993
 20
64.910465342764894
 30
0.0
 11
77.570983117175174
 21
64.01046534276486
 31
0.0
  0
LINE
  5
484
  8
2
 10
316.02030158565481
 20
74.010465342765073
 30
0.0
 11
326.02030158565481
 21
74.010465342765073
 31
0.0
  0
LINE
  5
485
  8
0
 10
326.02030158565481
 20
74.010465342765073
 30
0.0
 11
316.02030158565481
 21
74.010465342765087
 31
0.0
  0
LINE
  5
486
  8
2
 10
323.0873015856555
 20
77.010465342764903
 30
0.0
 11
321.02030158565481
 21
78.252444242295141
 31
0.0
  0
LINE
  5
487
  8
2
 10
318.95330158565412
 20
77.010465342764903
 30
0.0
 11
323.0873015856555
 21
77.010465342764903
 31
0.0
  0
LINE
  5
488
  8
2
 10
318.95330158565412
 20
77.010465342764903
 30
0.0
 11
321.02030158565481
 21
78.252444242295141
 31
0.0
  0
LINE
  5
489
  8
2
 10
317.27030158565481
 20
64.477465342764944
 30
0.0
 11
317.27030158565481
 21
74.010465342765073
 31
0.0
  0
LINE
  5
48A
  8
2
 10
318.52030158565481
 20
64.477465342764944
 30
0.0
 11
318.52030158565481
 21
74.010465342765073
 31
0.0
  0
LINE
  5
48B
  8
2
 10
318.95330158565412
 20
64.910465342765093
 30
0.0
 11
318.95330158565412
 21
77.010465342764903
 31
0.0
  0
LINE
  5
48C
  8
2
 10
323.0873015856555
 20
64.910465342765093
 30
0.0
 11
323.0873015856555
 21
77.010465342764903
 31
0.0
  0
LINE
  5
48D
  8
2
 10
323.52030158565481
 20
64.477465342764944
 30
0.0
 11
323.52030158565481
 21
74.010465342765073
 31
0.0
  0
LINE
  5
48E
  8
2
 10
324.77030158565481
 20
64.477465342764944
 30
0.0
 11
324.77030158565481
 21
74.010465342765073
 31
0.0
  0
LINE
  5
48F
  8
2
 10
318.95330158565412
 20
64.910465342765093
 30
0.0
 11
323.0873015856555
 21
64.910465342765093
 31
0.0
  0
LINE
  5
490
  8
2
 10
318.05330158565488
 20
64.010465342765073
 30
0.0
 11
318.95330158565412
 21
64.910465342765093
 31
0.0
  0
LINE
  5
491
  8
2
 10
323.0873015856555
 20
64.910465342765093
 30
0.0
 11
323.98730158565468
 21
64.010465342765073
 31
0.0
  0
TEXT
  5
5B0
  8
0
 62
     3
 10
0.0
 20
0.0
 30
0.0
 40
10.0
  1
SRH4-120C
  7
STANDARD1
  0
ENDSEC
  0
EOF
