  0
SECTION
  2
HEADER
  9
$ACADVER
  1
AC1009
  9
$INSBASE
 10
0.0
 20
0.0
 30
0.0
  9
$EXTMIN
 10
0.0
 20
-2.960436562073669
 30
0.0
  9
$EXTMAX
 10
312.03951848239518
 20
225.9000832909224
 30
0.0
  9
$LIMMIN
 10
0.0
 20
0.0
  9
$LIMMAX
 10
375.0
 20
270.0
  9
$ORTHOMODE
 70
     1
  9
$REGENMODE
 70
     1
  9
$FILLMODE
 70
     1
  9
$QTEXTMODE
 70
     0
  9
$MIRRTEXT
 70
     0
  9
$DRAGMODE
 70
     2
  9
$LTSCALE
 40
10.0
  9
$OSMODE
 70
    37
  9
$ATTMODE
 70
     1
  9
$TEXTSIZE
 40
0.2
  9
$TRACEWID
 40
0.05
  9
$TEXTSTYLE
  7
STANDARD
  9
$CLAYER
  8
0
  9
$CELTYPE
  6
BYLAYER
  9
$CECOLOR
 62
   256
  9
$DIMSCALE
 40
1.0
  9
$DIMASZ
 40
3.0
  9
$DIMEXO
 40
2.0
  9
$DIMDLI
 40
0.38
  9
$DIMRND
 40
0.0
  9
$DIMDLE
 40
0.0
  9
$DIMEXE
 40
2.0
  9
$DIMTP
 40
0.0
  9
$DIMTM
 40
0.0
  9
$DIMTXT
 40
3.2000000000000002
  9
$DIMCEN
 40
0.0
  9
$DIMTSZ
 40
0.0
  9
$DIMTOL
 70
     0
  9
$DIMLIM
 70
     0
  9
$DIMTIH
 70
     0
  9
$DIMTOH
 70
     0
  9
$DIMSE1
 70
     0
  9
$DIMSE2
 70
     0
  9
$DIMTAD
 70
     1
  9
$DIMZIN
 70
     8
  9
$DIMBLK
  1

  9
$DIMASO
 70
     1
  9
$DIMSHO
 70
     0
  9
$DIMPOST
  1

  9
$DIMAPOST
  1

  9
$DIMALT
 70
     0
  9
$DIMALTD
 70
     2
  9
$DIMALTF
 40
25.399999999999999
  9
$DIMLFAC
 40
1.0
  9
$DIMTOFL
 70
     1
  9
$DIMTVP
 40
1.6000000000000001
  9
$DIMTIX
 70
     1
  9
$DIMSOXD
 70
     0
  9
$DIMSAH
 70
     0
  9
$DIMBLK1
  1

  9
$DIMBLK2
  1

  9
$DIMSTYLE
  2
STANDARD
  9
$DIMCLRD
 70
     0
  9
$DIMCLRE
 70
     0
  9
$DIMCLRT
 70
     0
  9
$DIMTFAC
 40
1.0
  9
$DIMGAP
 40
0.09
  9
$LUNITS
 70
     2
  9
$LUPREC
 70
     1
  9
$SKETCHINC
 40
0.1
  9
$FILLETRAD
 40
0.0
  9
$AUNITS
 70
     0
  9
$AUPREC
 70
     0
  9
$MENU
  1
E:\r13\win\SUPPORT\ACAD
  9
$ELEVATION
 40
0.0
  9
$PELEVATION
 40
0.0
  9
$THICKNESS
 40
0.0
  9
$LIMCHECK
 70
     0
  9
$BLIPMODE
 70
     0
  9
$CHAMFERA
 40
0.0
  9
$CHAMFERB
 40
0.0
  9
$SKPOLY
 70
     0
  9
$TDCREATE
 40
2449839.7966319448
  9
$TDUPDATE
 40
2459187.4242864358
  9
$TDINDWG
 40
0.0077428588
  9
$TDUSRTIMER
 40
0.0077428588
  9
$USRTIMER
 70
     1
  9
$ANGBASE
 50
0.0
  9
$ANGDIR
 70
     0
  9
$PDMODE
 70
     0
  9
$PDSIZE
 40
0.0
  9
$PLINEWID
 40
0.0
  9
$COORDS
 70
     1
  9
$SPLFRAME
 70
     0
  9
$SPLINETYPE
 70
     6
  9
$SPLINESEGS
 70
     8
  9
$ATTDIA
 70
     0
  9
$ATTREQ
 70
     1
  9
$HANDLING
 70
     1
  9
$HANDSEED
  5
487
  9
$SURFTAB1
 70
     6
  9
$SURFTAB2
 70
     6
  9
$SURFTYPE
 70
     6
  9
$SURFU
 70
     6
  9
$SURFV
 70
     6
  9
$UCSNAME
  2

  9
$UCSORG
 10
0.0
 20
0.0
 30
0.0
  9
$UCSXDIR
 10
1.0
 20
0.0
 30
0.0
  9
$UCSYDIR
 10
0.0
 20
1.0
 30
0.0
  9
$PUCSNAME
  2

  9
$PUCSORG
 10
0.0
 20
0.0
 30
0.0
  9
$PUCSXDIR
 10
1.0
 20
0.0
 30
0.0
  9
$PUCSYDIR
 10
0.0
 20
1.0
 30
0.0
  9
$USERI1
 70
     0
  9
$USERI2
 70
     1
  9
$USERI3
 70
     1
  9
$USERI4
 70
     0
  9
$USERI5
 70
     0
  9
$USERR1
 40
0.0
  9
$USERR2
 40
0.0
  9
$USERR3
 40
0.0
  9
$USERR4
 40
0.0
  9
$USERR5
 40
0.0
  9
$WORLDVIEW
 70
     1
  9
$SHADEDGE
 70
     3
  9
$SHADEDIF
 70
    70
  9
$TILEMODE
 70
     1
  9
$MAXACTVP
 70
    16
  9
$PLIMCHECK
 70
     0
  9
$PEXTMIN
 10
1.0000000000000000E+020
 20
1.0000000000000000E+020
 30
1.0000000000000000E+020
  9
$PEXTMAX
 10
-1.0000000000000000E+020
 20
-1.0000000000000000E+020
 30
-1.0000000000000000E+020
  9
$PLIMMIN
 10
0.0
 20
0.0
  9
$PLIMMAX
 10
12.0
 20
9.0
  9
$UNITMODE
 70
     0
  9
$VISRETAIN
 70
     0
  9
$PLINEGEN
 70
     0
  9
$PSLTSCALE
 70
     0
  0
ENDSEC
  0
SECTION
  2
TABLES
  0
TABLE
  2
VPORT
 70
     1
  0
VPORT
  2
*ACTIVE
 70
     0
 10
0.0
 20
0.0
 11
1.0
 21
1.0
 12
362.34662576687123
 22
150.0
 13
0.0
 23
0.0
 14
10.0
 24
10.0
 15
10.0
 25
10.0
 16
0.0
 26
0.0
 36
1.0
 17
0.0
 27
0.0
 37
0.0
 40
300.0
 41
2.415644171779141
 42
50.0
 43
0.0
 44
0.0
 50
0.0
 51
0.0
 71
     0
 72
   500
 73
     1
 74
     0
 75
     0
 76
     0
 77
     0
 78
     2
  0
ENDTAB
  0
TABLE
  2
LTYPE
 70
     4
  0
LTYPE
  2
CONTINUOUS
 70
     0
  3
Solid Line
 72
    65
 73
     0
 40
0.0
  0
LTYPE
  2
CENTER
 70
     0
  3
____ _ ____ _ ____ _ ____ _ ____ _ ____ _ ____
 72
    65
 73
     4
 40
2.0
 49
1.25
 49
-0.25
 49
0.25
 49
-0.25
  0
LTYPE
  2
HIDDEN
 70
     0
  3
_ _ _ _ _ _ _ _ _ _ _ _ _ _ _ _ _ _ _ _ _ _ _
 72
    65
 73
     2
 40
0.375
 49
0.25
 49
-0.125
  0
LTYPE
  2
PHANTOM2
 70
     0
  3
Phantom (.5x) ___ _ _ ___ _ _ ___ _ _ ___ _ _
 72
    65
 73
     6
 40
1.25
 49
0.625
 49
-0.125
 49
0.125
 49
-0.125
 49
0.125
 49
-0.125
  0
ENDTAB
  0
TABLE
  2
LAYER
 70
     4
  0
LAYER
  2
0
 70
     0
 62
     7
  6
CONTINUOUS
  0
LAYER
  2
1
 70
     0
 62
     1
  6
CENTER
  0
LAYER
  2
2
 70
     0
 62
     2
  6
HIDDEN
  0
LAYER
  2
3
 70
     0
 62
     3
  6
CONTINUOUS
  0
ENDTAB
  0
TABLE
  2
STYLE
 70
     2
  0
STYLE
  2
STANDARD
 70
     0
 40
0.0
 41
1.0
 50
0.0
 71
     0
 42
0.2
  3
TXT
  4
BIGFONT
  0
STYLE
  2
STANDARD1
 70
     0
 40
0.0
 41
1.0
 50
0.0
 71
     0
 42
3.0
  3
txt
  4

  0
ENDTAB
  0
TABLE
  2
VIEW
 70
     1
  0
VIEW
  2
ALL
 70
     0
 40
270.0
 10
220.99159663865549
 20
135.0
 41
0.0
 11
0.0
 21
0.0
 31
1.0
 12
0.0
 22
0.0
 32
0.0
 42
0.0
 43
0.0
 44
0.0
 50
0.0
 71
     0
  0
ENDTAB
  0
TABLE
  2
UCS
 70
     0
  0
ENDTAB
  0
TABLE
  2
APPID
 70
    15
  0
APPID
  2
ACAD
 70
     0
  0
APPID
  2
ACAD_MLEADERVER
 70
     0
  0
APPID
  2
MCAD_NO_VIS
 70
     0
  0
APPID
  2
ACAD_TEMP_GRAPHIC
 70
     0
  0
APPID
  2
ACATTRIBSERVICES
 70
     0
  0
APPID
  2
DESIGNERASSEMBLIES
 70
     0
  0
APPID
  2
ACAD_DSTYLE_DIMJAG
 70
     0
  0
APPID
  2
ACAD_DSTYLE_DIMBREAK
 70
     0
  0
APPID
  2
ACAD_NAV_VCDISPLAY
 70
     0
  0
APPID
  2
ACAD_EXEMPT_FROM_CAD_STANDARDS
 70
     0
  0
APPID
  2
ACAD_DSTYLE_DIMARC_LENGTH_
 70
     0
  0
APPID
  2
ACAD_DSTYLE_DIM_LINETYPE
 70
     0
  0
APPID
  2
ACAD_DSTYLE_DIM_EXT1_LINETYPE
 70
     0
  0
APPID
  2
ACAD_DSTYLE_DIM_EXT2_LINETYPE
 70
     0
  0
APPID
  2
ACAD_DSTYLE_DIMTALN
 70
     0
  0
ENDTAB
  0
TABLE
  2
DIMSTYLE
 70
     1
  0
DIMSTYLE
  2
STANDARD
 70
     0
  3

  4

  5

  6

  7

 40
1.0
 41
0.18
 42
0.0625
 43
0.38
 44
0.18
 45
0.0
 46
0.0
 47
0.0
 48
0.0
140
0.18
141
0.09
142
0.0
143
25.399999999999999
144
1.0
145
0.0
146
1.0
147
0.09
 71
     0
 72
     0
 73
     1
 74
     1
 75
     0
 76
     0
 77
     0
 78
     0
170
     0
171
     2
172
     0
173
     0
174
     0
175
     0
176
     0
177
     0
178
     0
  0
ENDTAB
  0
ENDSEC
  0
SECTION
  2
BLOCKS
  0
BLOCK
  8
0
  2
$MODEL_SPACE
 70
     0
 10
0.0
 20
0.0
 30
0.0
  3
$MODEL_SPACE
  1

  0
ENDBLK
  5
22D
  8
0
  0
BLOCK
 67
     1
  8
0
  2
$PAPER_SPACE
 70
     0
 10
0.0
 20
0.0
 30
0.0
  3
$PAPER_SPACE
  1

  0
ENDBLK
  5
22B
 67
     1
  8
0
  0
ENDSEC
  0
SECTION
  2
ENTITIES
  0
CIRCLE
  5
37
  8
2
 10
188.85922298154659
 20
135.1778047936472
 30
0.0
 40
5.5
  0
CIRCLE
  5
38
  8
2
 10
188.85922298154659
 20
135.1778047936472
 30
0.0
 40
3.0
  0
LINE
  5
39
  8
2
 10
194.85922298154659
 20
132.17780479364669
 30
0.0
 11
191.85922298154659
 21
129.17780479364711
 31
0.0
  0
LINE
  5
3A
  8
2
 10
194.85922298154659
 20
138.1778047936476
 30
0.0
 11
194.85922298154659
 21
132.17780479364669
 31
0.0
  0
LINE
  5
3B
  8
2
 10
194.85922298154659
 20
138.1778047936476
 30
0.0
 11
191.85922298154659
 21
141.17780479364711
 31
0.0
  0
LINE
  5
3C
  8
0
 10
281.43951848239527
 20
132.17780479364669
 30
0.0
 11
293.4395184823955
 21
132.17780479364669
 31
0.0
  0
LINE
  5
3D
  8
0
 10
293.4395184823955
 20
138.1778047936476
 30
0.0
 11
281.4395184823955
 21
138.1778047936476
 31
0.0
  0
LINE
  5
3E
  8
0
 10
85.892236845287471
 20
132.17780479364669
 30
0.0
 11
73.892236845287471
 21
132.17780479364669
 31
0.0
  0
LINE
  5
3F
  8
0
 10
73.892236845287471
 20
138.1778047936476
 30
0.0
 11
85.892236845287471
 21
138.1778047936476
 31
0.0
  0
LINE
  5
40
  8
0
 10
101.0922368452873
 20
132.17780479364669
 30
0.0
 11
113.0922368452875
 21
132.17780479364669
 31
0.0
  0
LINE
  5
41
  8
0
 10
113.0922368452875
 20
138.1778047936476
 30
0.0
 11
101.0922368452875
 21
138.1778047936476
 31
0.0
  0
CIRCLE
  5
42
  8
0
 10
93.492236845287366
 20
135.1778047936472
 30
0.0
 40
3.0
  0
CIRCLE
  5
43
  8
3
 10
93.492236845287366
 20
135.1778047936472
 30
0.0
 40
2.458499999999999
  0
LINE
  5
44
  8
0
 10
96.378988191234626
 20
140.1778047936462
 30
0.0
 11
90.60548549933992
 21
140.1778047936462
 31
0.0
  0
CIRCLE
  5
45
  8
0
 10
93.492236845287366
 20
135.1778047936472
 30
0.0
 40
4.9000000000000004
  0
LINE
  5
46
  8
0
 10
90.605485499339693
 20
140.17780479364581
 30
0.0
 11
87.718734153392234
 21
135.1778047936472
 31
0.0
  0
LINE
  5
47
  8
0
 10
87.718734153392461
 20
135.17780479364669
 30
0.0
 11
90.60548549933992
 21
130.17780479364811
 31
0.0
  0
LINE
  5
48
  8
0
 10
90.605485499340375
 20
130.17780479364811
 30
0.0
 11
96.378988191235067
 21
130.17780479364811
 31
0.0
  0
LINE
  5
49
  8
0
 10
96.378988191235294
 20
130.17780479364851
 30
0.0
 11
99.26573953718254
 21
135.1778047936472
 31
0.0
  0
LINE
  5
4A
  8
0
 10
99.265739537182299
 20
135.1778047936476
 30
0.0
 11
96.378988191235067
 21
140.1778047936462
 31
0.0
  0
LINE
  5
4B
  8
1
 10
118.0922368452873
 20
135.1778047936472
 30
0.0
 11
68.892236845287471
 21
135.1778047936472
 31
0.0
  0
LINE
  5
4C
  8
0
 10
73.892236845287471
 20
141.17780479364711
 30
0.0
 11
73.892236845287471
 21
129.17780479364711
 31
0.0
  0
LINE
  5
4D
  8
0
 10
73.892236845287471
 20
129.17780479364711
 30
0.0
 11
85.892236845287471
 21
129.17780479364711
 31
0.0
  0
LINE
  5
4E
  8
0
 10
85.892236845287471
 20
129.17780479364711
 30
0.0
 11
85.892236845287471
 21
141.17780479364711
 31
0.0
  0
LINE
  5
4F
  8
0
 10
85.892236845287471
 20
141.17780479364711
 30
0.0
 11
73.892236845287471
 21
141.17780479364711
 31
0.0
  0
LINE
  5
50
  8
0
 10
87.492238193986637
 20
140.67780479364711
 30
0.0
 11
85.892238193986486
 21
140.67780479364711
 31
0.0
  0
LINE
  5
51
  8
0
 10
87.49223684528738
 20
129.67780479364711
 30
0.0
 11
85.892236845287471
 21
129.67780479364711
 31
0.0
  0
LINE
  5
52
  8
0
 10
99.492236845287394
 20
141.17780479364711
 30
0.0
 11
87.49223684528738
 21
141.17780479364711
 31
0.0
  0
LINE
  5
53
  8
0
 10
99.492236845287394
 20
129.17780479364711
 30
0.0
 11
99.492236845287394
 21
141.17780479364711
 31
0.0
  0
LINE
  5
54
  8
0
 10
87.49223684528738
 20
129.17780479364711
 30
0.0
 11
99.492236845287394
 21
129.17780479364711
 31
0.0
  0
LINE
  5
55
  8
0
 10
87.49223684528738
 20
141.17780479364711
 30
0.0
 11
87.49223684528738
 21
129.17780479364711
 31
0.0
  0
LINE
  5
56
  8
0
 10
101.0922368452873
 20
141.17780479364711
 30
0.0
 11
101.0922368452873
 21
129.17780479364711
 31
0.0
  0
LINE
  5
57
  8
0
 10
101.0922368452873
 20
129.17780479364711
 30
0.0
 11
113.0922368452875
 21
129.17780479364711
 31
0.0
  0
LINE
  5
58
  8
0
 10
113.0922368452875
 20
129.17780479364711
 30
0.0
 11
113.0922368452875
 21
141.17780479364711
 31
0.0
  0
LINE
  5
59
  8
0
 10
113.0922368452875
 20
141.17780479364711
 30
0.0
 11
101.0922368452875
 21
141.17780479364711
 31
0.0
  0
LINE
  5
5A
  8
0
 10
99.492236845287394
 20
129.67780479364711
 30
0.0
 11
101.0922368452875
 21
129.67780479364711
 31
0.0
  0
LINE
  5
5B
  8
0
 10
99.492235496588364
 20
140.67780479364711
 30
0.0
 11
101.0922354965883
 21
140.67780479364711
 31
0.0
  0
LINE
  5
5C
  8
1
 10
79.892236845287471
 20
146.17780479364711
 30
0.0
 11
79.892236845287471
 21
124.1778047936471
 31
0.0
  0
LINE
  5
5D
  8
1
 10
93.492236845287366
 20
151.1778047936472
 30
0.0
 11
93.492236845287366
 21
119.1778047936471
 31
0.0
  0
LINE
  5
5E
  8
1
 10
107.0922368452873
 20
146.17780479364711
 30
0.0
 11
107.0922368452873
 21
124.1778047936471
 31
0.0
  0
LINE
  5
5F
  8
1
 10
301.03951848239518
 20
146.17780479364711
 30
0.0
 11
301.03951848239518
 21
124.1778047936471
 31
0.0
  0
CIRCLE
  5
60
  8
0
 10
301.03951848239518
 20
135.1778047936472
 30
0.0
 40
3.0
  0
CIRCLE
  5
61
  8
3
 10
301.03951848239518
 20
135.1778047936472
 30
0.0
 40
2.458499999999999
  0
LINE
  5
62
  8
0
 10
303.92626982834241
 20
140.1778047936462
 30
0.0
 11
298.15276713644772
 21
140.1778047936462
 31
0.0
  0
CIRCLE
  5
63
  8
0
 10
301.03951848239518
 20
135.1778047936472
 30
0.0
 40
4.9000000000000004
  0
LINE
  5
64
  8
0
 10
298.15276713644749
 20
140.17780479364581
 30
0.0
 11
295.26601579049998
 21
135.1778047936472
 31
0.0
  0
LINE
  5
65
  8
0
 10
295.26601579050032
 20
135.17780479364669
 30
0.0
 11
298.15276713644772
 21
130.17780479364811
 31
0.0
  0
LINE
  5
66
  8
0
 10
298.15276713644818
 20
130.17780479364811
 30
0.0
 11
303.92626982834292
 21
130.17780479364811
 31
0.0
  0
LINE
  5
67
  8
0
 10
303.9262698283431
 20
130.17780479364851
 30
0.0
 11
306.81302117429033
 21
135.1778047936472
 31
0.0
  0
LINE
  5
68
  8
0
 10
306.8130211742901
 20
135.1778047936476
 30
0.0
 11
303.92626982834292
 21
140.1778047936462
 31
0.0
  0
LINE
  5
69
  8
1
 10
287.43951848239527
 20
151.1778047936472
 30
0.0
 11
287.43951848239527
 21
119.1778047936471
 31
0.0
  0
LINE
  5
6A
  8
0
 10
279.61302117429028
 20
135.1778047936476
 30
0.0
 11
276.72626982834311
 21
140.1778047936462
 31
0.0
  0
LINE
  5
6B
  8
0
 10
276.72626982834311
 20
130.17780479364851
 30
0.0
 11
279.61302117429051
 21
135.1778047936472
 31
0.0
  0
LINE
  5
6C
  8
0
 10
270.95276713644807
 20
130.17780479364811
 30
0.0
 11
276.72626982834282
 21
130.17780479364811
 31
0.0
  0
LINE
  5
6D
  8
0
 10
268.0660157905005
 20
135.17780479364669
 30
0.0
 11
270.95276713644768
 21
130.17780479364811
 31
0.0
  0
LINE
  5
6E
  8
0
 10
270.95276713644751
 20
140.17780479364581
 30
0.0
 11
268.06601579050027
 21
135.1778047936472
 31
0.0
  0
CIRCLE
  5
6F
  8
0
 10
273.83951848239542
 20
135.1778047936472
 30
0.0
 40
4.9000000000000004
  0
LINE
  5
70
  8
0
 10
276.72626982834259
 20
140.1778047936462
 30
0.0
 11
270.95276713644768
 21
140.1778047936462
 31
0.0
  0
CIRCLE
  5
71
  8
3
 10
273.83951848239542
 20
135.1778047936472
 30
0.0
 40
2.458499999999999
  0
CIRCLE
  5
72
  8
0
 10
273.83951848239542
 20
135.1778047936472
 30
0.0
 40
3.0
  0
LINE
  5
73
  8
1
 10
273.83951848239542
 20
146.17780479364711
 30
0.0
 11
273.83951848239542
 21
124.1778047936471
 31
0.0
  0
LINE
  5
74
  8
0
 10
293.43951713369631
 20
140.67780479364711
 30
0.0
 11
295.03951713369622
 21
140.67780479364711
 31
0.0
  0
LINE
  5
75
  8
0
 10
293.43951848239527
 20
129.67780479364711
 30
0.0
 11
295.03951848239541
 21
129.67780479364711
 31
0.0
  0
LINE
  5
76
  8
0
 10
307.03951848239541
 20
141.17780479364711
 30
0.0
 11
295.03951848239541
 21
141.17780479364711
 31
0.0
  0
LINE
  5
77
  8
0
 10
307.03951848239541
 20
129.17780479364711
 30
0.0
 11
307.03951848239541
 21
141.17780479364711
 31
0.0
  0
LINE
  5
78
  8
0
 10
295.03951848239518
 20
129.17780479364711
 30
0.0
 11
307.03951848239541
 21
129.17780479364711
 31
0.0
  0
LINE
  5
79
  8
0
 10
295.03951848239518
 20
141.17780479364711
 30
0.0
 11
295.03951848239518
 21
129.17780479364711
 31
0.0
  0
LINE
  5
7A
  8
0
 10
281.43951848239527
 20
141.17780479364711
 30
0.0
 11
281.43951848239527
 21
129.17780479364711
 31
0.0
  0
LINE
  5
7B
  8
0
 10
281.43951848239527
 20
129.17780479364711
 30
0.0
 11
293.43951848239527
 21
129.17780479364711
 31
0.0
  0
LINE
  5
7C
  8
0
 10
293.43951848239527
 20
129.17780479364711
 30
0.0
 11
293.43951848239527
 21
141.17780479364711
 31
0.0
  0
LINE
  5
7D
  8
0
 10
293.43951848239527
 20
141.17780479364711
 30
0.0
 11
281.43951848239527
 21
141.17780479364711
 31
0.0
  0
LINE
  5
7E
  8
0
 10
281.43951848239527
 20
129.67780479364711
 30
0.0
 11
279.83951848239542
 21
129.67780479364711
 31
0.0
  0
LINE
  5
7F
  8
0
 10
281.43951983109451
 20
140.67780479364711
 30
0.0
 11
279.83951983109438
 21
140.67780479364711
 31
0.0
  0
LINE
  5
80
  8
0
 10
279.83951848239542
 20
141.17780479364711
 30
0.0
 11
267.83951848239542
 21
141.17780479364711
 31
0.0
  0
LINE
  5
81
  8
0
 10
279.83951848239542
 20
129.17780479364711
 30
0.0
 11
279.83951848239542
 21
141.17780479364711
 31
0.0
  0
LINE
  5
82
  8
0
 10
267.83951848239542
 20
129.17780479364711
 30
0.0
 11
279.83951848239542
 21
129.17780479364711
 31
0.0
  0
LINE
  5
83
  8
0
 10
267.83951848239542
 20
141.17780479364711
 30
0.0
 11
267.83951848239542
 21
129.17780479364711
 31
0.0
  0
LINE
  5
84
  8
1
 10
312.03951848239518
 20
135.1778047936472
 30
0.0
 11
262.83951848239542
 21
135.1778047936472
 31
0.0
  0
LINE
  5
85
  8
0
 10
198.35922298154659
 20
140.67780479364711
 30
0.0
 11
198.35922298154659
 21
129.67780479364711
 31
0.0
  0
LINE
  5
86
  8
0
 10
200.15922298154661
 20
140.67780479364711
 30
0.0
 11
200.15922298154661
 21
129.67780479364711
 31
0.0
  0
LINE
  5
87
  8
0
 10
198.35922298154659
 20
140.67780479364711
 30
0.0
 11
200.15922298154661
 21
140.67780479364711
 31
0.0
  0
LINE
  5
88
  8
0
 10
198.35922298154659
 20
129.67780479364711
 30
0.0
 11
200.15922298154661
 21
129.67780479364711
 31
0.0
  0
ARC
  5
89
  8
0
 10
197.88060169674091
 20
132.67780479364669
 30
0.0
 40
7.2208862578870718
 50
339.74384199958968
 51
20.25615800041038
  0
LINE
  5
8A
  8
0
 10
205.10148795462749
 20
130.17780479364669
 30
0.0
 11
205.15922298154661
 21
130.27780479364711
 31
0.0
  0
ARC
  5
8B
  8
0
 10
207.4378442663525
 20
132.67780479364669
 30
0.0
 40
7.2208862578870718
 50
159.74384199958959
 51
200.2561580004103
  0
LINE
  5
8C
  8
0
 10
200.21695800846589
 20
130.17780479364669
 30
0.0
 11
200.15922298154661
 21
130.27780479364711
 31
0.0
  0
LINE
  5
8D
  8
0
 10
205.10148795462749
 20
130.17780479364669
 30
0.0
 11
200.21695800846589
 21
130.17780479364669
 31
0.0
  0
LINE
  5
8E
  8
0
 10
205.10148795462749
 20
140.1778047936476
 30
0.0
 11
200.21695800846589
 21
140.1778047936476
 31
0.0
  0
LINE
  5
8F
  8
0
 10
200.21695800846589
 20
140.1778047936476
 30
0.0
 11
200.15922298154661
 21
140.0778047936472
 31
0.0
  0
ARC
  5
90
  8
0
 10
207.4378442663525
 20
137.6778047936474
 30
0.0
 40
7.2208862578870718
 50
159.7438419995897
 51
200.25615800041041
  0
LINE
  5
91
  8
0
 10
205.10148795462749
 20
140.1778047936476
 30
0.0
 11
205.15922298154661
 21
140.0778047936472
 31
0.0
  0
ARC
  5
92
  8
0
 10
197.88060169674091
 20
137.6778047936474
 30
0.0
 40
7.2208862578870718
 50
339.74384199958962
 51
20.256158000410281
  0
LINE
  5
93
  8
0
 10
200.66353999585061
 20
135.1778047936472
 30
0.0
 11
204.6549059672428
 21
135.17780479364669
 31
0.0
  0
LINE
  5
94
  8
0
 10
205.15922298154661
 20
140.0778047936472
 30
0.0
 11
205.15922298154661
 21
130.27780479364711
 31
0.0
  0
LINE
  5
95
  8
0
 10
172.5592229815467
 20
140.0778047936472
 30
0.0
 11
172.5592229815467
 21
130.27780479364711
 31
0.0
  0
LINE
  5
96
  8
0
 10
177.05490596724269
 20
135.1778047936472
 30
0.0
 11
173.06353999585039
 21
135.17780479364669
 31
0.0
  0
ARC
  5
97
  8
0
 10
179.83784426635239
 20
137.6778047936474
 30
0.0
 40
7.2208862578870718
 50
159.7438419995897
 51
200.25615800041041
  0
LINE
  5
98
  8
0
 10
172.61695800846579
 20
140.1778047936476
 30
0.0
 11
172.5592229815467
 21
140.0778047936472
 31
0.0
  0
ARC
  5
99
  8
0
 10
170.28060169674069
 20
137.6778047936474
 30
0.0
 40
7.2208862578870718
 50
339.74384199958962
 51
20.25615800041032
  0
LINE
  5
9A
  8
0
 10
177.50148795462741
 20
140.1778047936476
 30
0.0
 11
177.5592229815467
 21
140.0778047936472
 31
0.0
  0
LINE
  5
9B
  8
0
 10
172.61695800846579
 20
140.1778047936476
 30
0.0
 11
177.50148795462741
 21
140.1778047936476
 31
0.0
  0
LINE
  5
9C
  8
0
 10
172.61695800846579
 20
130.17780479364669
 30
0.0
 11
177.50148795462741
 21
130.17780479364669
 31
0.0
  0
LINE
  5
9D
  8
0
 10
177.50148795462741
 20
130.17780479364669
 30
0.0
 11
177.5592229815467
 21
130.27780479364711
 31
0.0
  0
ARC
  5
9E
  8
0
 10
170.28060169674069
 20
132.67780479364669
 30
0.0
 40
7.2208862578870718
 50
339.74384199958968
 51
20.25615800041038
  0
LINE
  5
9F
  8
0
 10
172.61695800846579
 20
130.17780479364669
 30
0.0
 11
172.5592229815467
 21
130.27780479364711
 31
0.0
  0
ARC
  5
A0
  8
0
 10
179.83784426635239
 20
132.67780479364669
 30
0.0
 40
7.2208862578870718
 50
159.74384199958959
 51
200.2561580004103
  0
LINE
  5
A1
  8
1
 10
188.85922298154659
 20
225.9000832909224
 30
0.0
 11
188.85922298154659
 21
176.70008329092261
 31
0.0
  0
LINE
  5
A2
  8
0
 10
182.85922298154659
 20
132.17780479364669
 30
0.0
 11
185.85922298154659
 21
129.17780479364711
 31
0.0
  0
LINE
  5
A3
  8
0
 10
182.85922298154659
 20
138.1778047936476
 30
0.0
 11
185.85922298154659
 21
141.17780479364711
 31
0.0
  0
LINE
  5
A4
  8
0
 10
182.85922298154659
 20
138.1778047936476
 30
0.0
 11
182.85922298154659
 21
132.17780479364669
 31
0.0
  0
LINE
  5
A5
  8
0
 10
198.35922298154659
 20
138.17780479364711
 30
0.0
 11
196.35922298154659
 21
138.17780479364711
 31
0.0
  0
LINE
  5
A6
  8
0
 10
205.15922298154661
 20
132.1778047936472
 30
0.0
 11
205.35922298154671
 21
132.1778047936472
 31
0.0
  0
LINE
  5
A7
  8
3
 10
198.35922298154659
 20
137.63630479364639
 30
0.0
 11
197.4213174692469
 21
138.17780479364711
 31
0.0
  0
LINE
  5
A8
  8
3
 10
205.90072298154689
 20
137.6363047936469
 30
0.0
 11
205.15922298154641
 21
137.6363047936469
 31
0.0
  0
LINE
  5
A9
  8
3
 10
198.35922298154659
 20
132.71930479364809
 30
0.0
 11
197.42131746924619
 21
132.1778047936472
 31
0.0
  0
LINE
  5
AA
  8
3
 10
205.90072298154689
 20
132.71930479364741
 30
0.0
 11
205.15922298154661
 21
132.71930479364741
 31
0.0
  0
LINE
  5
AB
  8
0
 10
205.35922298154671
 20
132.1778047936472
 30
0.0
 11
205.35922298154671
 21
138.17780479364711
 31
0.0
  0
LINE
  5
AC
  8
0
 10
206.35922298154659
 20
137.17780479364711
 30
0.0
 11
205.35922298154671
 21
138.17780479364711
 31
0.0
  0
LINE
  5
AD
  8
0
 10
205.35922298154671
 20
132.1778047936472
 30
0.0
 11
206.35922298154659
 21
133.1778047936472
 31
0.0
  0
LINE
  5
AE
  8
0
 10
205.35922298154671
 20
138.17780479364711
 30
0.0
 11
205.15922298154641
 21
138.17780479364711
 31
0.0
  0
LINE
  5
AF
  8
0
 10
206.35922298154659
 20
133.1778047936472
 30
0.0
 11
206.35922298154659
 21
137.17780479364711
 31
0.0
  0
LINE
  5
B0
  8
0
 10
196.35922298154659
 20
132.1778047936472
 30
0.0
 11
198.35922298154659
 21
132.1778047936472
 31
0.0
  0
LINE
  5
B1
  8
0
 10
196.35922298154659
 20
141.17780479364711
 30
0.0
 11
196.35922298154659
 21
129.17780479364711
 31
0.0
  0
LINE
  5
B2
  8
0
 10
196.35922298154659
 20
141.17780479364711
 30
0.0
 11
181.35922298154659
 21
141.17780479364711
 31
0.0
  0
LINE
  5
B3
  8
0
 10
181.35922298154659
 20
141.17780479364711
 30
0.0
 11
181.35922298154659
 21
129.17780479364711
 31
0.0
  0
LINE
  5
B4
  8
0
 10
181.35922298154659
 20
129.17780479364711
 30
0.0
 11
196.35922298154659
 21
129.17780479364711
 31
0.0
  0
LINE
  5
B5
  8
0
 10
179.35922298154659
 20
132.1778047936472
 30
0.0
 11
181.35922298154659
 21
132.1778047936472
 31
0.0
  0
LINE
  5
B6
  8
0
 10
172.5592229815467
 20
138.17780479364711
 30
0.0
 11
168.35922298154659
 21
138.17780479364711
 31
0.0
  0
LINE
  5
B7
  8
0
 10
179.35922298154659
 20
129.67780479364711
 30
0.0
 11
177.5592229815467
 21
129.67780479364711
 31
0.0
  0
LINE
  5
B8
  8
3
 10
179.35922298154659
 20
132.71930479364789
 30
0.0
 11
180.2971284938464
 21
132.1778047936472
 31
0.0
  0
LINE
  5
B9
  8
3
 10
167.81772298154641
 20
132.71930479364741
 30
0.0
 11
172.5592229815469
 21
132.71930479364761
 31
0.0
  0
LINE
  5
BA
  8
3
 10
179.35922298154659
 20
137.63630479364599
 30
0.0
 11
180.297128493847
 21
138.17780479364711
 31
0.0
  0
LINE
  5
BB
  8
3
 10
167.81772298154641
 20
137.6363047936469
 30
0.0
 11
172.5592229815467
 21
137.6363047936469
 31
0.0
  0
LINE
  5
BC
  8
0
 10
168.35922298154659
 20
138.17780479364711
 30
0.0
 11
168.35922298154659
 21
132.1778047936472
 31
0.0
  0
LINE
  5
BD
  8
0
 10
167.35922298154659
 20
133.1778047936472
 30
0.0
 11
168.35922298154659
 21
132.1778047936472
 31
0.0
  0
LINE
  5
BE
  8
0
 10
168.35922298154659
 20
138.17780479364711
 30
0.0
 11
167.35922298154659
 21
137.17780479364711
 31
0.0
  0
LINE
  5
BF
  8
0
 10
168.35922298154659
 20
132.1778047936472
 30
0.0
 11
172.5592229815469
 21
132.1778047936472
 31
0.0
  0
LINE
  5
C0
  8
0
 10
167.35922298154659
 20
137.17780479364711
 30
0.0
 11
167.35922298154659
 21
133.1778047936472
 31
0.0
  0
LINE
  5
C1
  8
0
 10
181.35922298154659
 20
138.17780479364711
 30
0.0
 11
179.35922298154659
 21
138.17780479364711
 31
0.0
  0
LINE
  5
C2
  8
0
 10
179.35922298154659
 20
140.67780479364711
 30
0.0
 11
177.5592229815467
 21
140.67780479364711
 31
0.0
  0
LINE
  5
C3
  8
0
 10
177.5592229815467
 20
140.67780479364711
 30
0.0
 11
177.5592229815467
 21
129.67780479364711
 31
0.0
  0
LINE
  5
C4
  8
0
 10
179.35922298154659
 20
140.67780479364711
 30
0.0
 11
179.35922298154659
 21
129.67780479364711
 31
0.0
  0
LINE
  5
C5
  8
1
 10
177.85922298154659
 20
187.70008329092261
 30
0.0
 11
211.35922298154659
 21
187.70008329092261
 31
0.0
  0
LINE
  5
C6
  8
0
 10
182.85922298154659
 20
193.70008329092261
 30
0.0
 11
196.35922298154659
 21
193.70008329092261
 31
0.0
  0
LINE
  5
C7
  8
0
 10
182.85922298154659
 20
181.70008329092261
 30
0.0
 11
182.85922298154659
 21
193.70008329092261
 31
0.0
  0
LINE
  5
C8
  8
0
 10
196.35922298154659
 20
181.70008329092261
 30
0.0
 11
182.85922298154659
 21
181.70008329092261
 31
0.0
  0
LINE
  5
C9
  8
0
 10
196.35922298154659
 20
193.70008329092261
 30
0.0
 11
196.35922298154659
 21
181.70008329092261
 31
0.0
  0
LINE
  5
CA
  8
0
 10
185.85922298154659
 20
181.70008329092261
 30
0.0
 11
185.85922298154659
 21
193.70008329092261
 31
0.0
  0
LINE
  5
CB
  8
0
 10
194.35922298154659
 20
195.30008329092249
 30
0.0
 11
194.35922298154659
 21
193.70008329092261
 31
0.0
  0
LINE
  5
CC
  8
0
 10
183.35922298154659
 20
195.3000846396217
 30
0.0
 11
183.35922298154659
 21
193.70008463962179
 31
0.0
  0
LINE
  5
CD
  8
0
 10
196.35922298154659
 20
184.70008329092261
 30
0.0
 11
198.35922298154659
 21
184.70008329092261
 31
0.0
  0
LINE
  5
CE
  8
0
 10
206.35922298154659
 20
185.70008329092261
 30
0.0
 11
206.35922298154659
 21
189.70008329092261
 31
0.0
  0
LINE
  5
CF
  8
0
 10
205.35922298154671
 20
190.70008329092261
 30
0.0
 11
205.15922298154641
 21
190.70008329092261
 31
0.0
  0
LINE
  5
D0
  8
0
 10
198.35922298154659
 20
182.20008329092261
 30
0.0
 11
198.35922298154659
 21
193.20008329092261
 31
0.0
  0
LINE
  5
D1
  8
0
 10
205.35922298154671
 20
184.70008329092261
 30
0.0
 11
206.35922298154659
 21
185.70008329092261
 31
0.0
  0
LINE
  5
D2
  8
0
 10
206.35922298154659
 20
189.70008329092261
 30
0.0
 11
205.35922298154671
 21
190.70008329092261
 31
0.0
  0
LINE
  5
D3
  8
0
 10
205.35922298154671
 20
184.70008329092261
 30
0.0
 11
205.35922298154671
 21
190.70008329092261
 31
0.0
  0
LINE
  5
D4
  8
3
 10
205.90072298154689
 20
185.2415832909229
 30
0.0
 11
205.15922298154661
 21
185.2415832909229
 31
0.0
  0
LINE
  5
D5
  8
3
 10
198.35922298154659
 20
185.2415832909235
 30
0.0
 11
197.42131746924619
 21
184.70008329092261
 31
0.0
  0
LINE
  5
D6
  8
3
 10
205.90072298154689
 20
190.15858329092231
 30
0.0
 11
205.15922298154641
 21
190.15858329092231
 31
0.0
  0
LINE
  5
D7
  8
3
 10
198.35922298154659
 20
190.1585832909218
 30
0.0
 11
197.4213174692469
 21
190.70008329092261
 31
0.0
  0
LINE
  5
D8
  8
0
 10
200.15922298154661
 20
182.20008329092261
 30
0.0
 11
200.15922298154661
 21
193.20008329092261
 31
0.0
  0
LINE
  5
D9
  8
0
 10
198.35922298154659
 20
182.20008329092261
 30
0.0
 11
200.15922298154661
 21
182.20008329092261
 31
0.0
  0
LINE
  5
DA
  8
0
 10
198.35922298154659
 20
193.20008329092261
 30
0.0
 11
200.15922298154661
 21
193.20008329092261
 31
0.0
  0
ARC
  5
DB
  8
0
 10
202.5456652062054
 20
183.36995627199991
 30
0.0
 40
2.5558227484224929
 50
334.38424746716851
 51
34.384247468042169
  0
LINE
  5
DC
  8
0
 10
204.6549059672428
 20
181.92658059902629
 30
0.0
 11
205.15922298154661
 21
182.80008329092229
 31
0.0
  0
LINE
  5
DD
  8
0
 10
204.6549059672428
 20
181.92658059902629
 30
0.0
 11
200.6635399958497
 21
181.92658059902629
 31
0.0
  0
LINE
  5
DE
  8
0
 10
204.6549059672428
 20
193.47358598281841
 30
0.0
 11
205.15922298154661
 21
192.6000832909227
 31
0.0
  0
ARC
  5
DF
  8
0
 10
202.5456652062054
 20
192.03021030984479
 30
0.0
 40
2.5558227484224929
 50
325.61575253195792
 51
25.6157525328315
  0
ARC
  5
E0
  8
0
 10
195.5480699420022
 20
187.7000832909219
 30
0.0
 40
9.5534180126256771
 50
342.41204622601879
 51
17.587953773981219
  0
LINE
  5
E1
  8
0
 10
204.65490596724311
 20
184.81333194497381
 30
0.0
 11
200.6635399958499
 21
184.81333194497381
 31
0.0
  0
LINE
  5
E2
  8
0
 10
204.65490596724561
 20
190.5868346368712
 30
0.0
 11
200.6635399958524
 21
190.5868346368712
 31
0.0
  0
ARC
  5
E3
  8
0
 10
202.7727807568871
 20
183.36995627199991
 30
0.0
 40
2.5558227484224929
 50
145.61575253195781
 51
205.61575253283149
  0
ARC
  5
E4
  8
0
 10
209.7703760210901
 20
187.7000832909219
 30
0.0
 40
9.5534180126256771
 50
162.41204622601879
 51
197.58795377398121
  0
ARC
  5
E5
  8
0
 10
202.7727807568871
 20
192.03021030984479
 30
0.0
 40
2.5558227484224929
 50
154.38424746716851
 51
214.38424746804219
  0
LINE
  5
E6
  8
0
 10
200.6635399958497
 20
181.92658059902629
 30
0.0
 11
200.1592229815457
 21
182.80008329092229
 31
0.0
  0
LINE
  5
E7
  8
0
 10
200.6635399958549
 20
193.47358598281841
 30
0.0
 11
200.1592229815511
 21
192.6000832909227
 31
0.0
  0
LINE
  5
E8
  8
0
 10
204.6549059672428
 20
193.47358598281869
 30
0.0
 11
200.6635399958497
 21
193.47358598281869
 31
0.0
  0
LINE
  5
E9
  8
0
 10
205.15922298154641
 20
192.60008329092341
 30
0.0
 11
205.15922298154661
 21
182.80008329092229
 31
0.0
  0
LINE
  5
EA
  8
0
 10
205.15922298154661
 20
184.70008329092261
 30
0.0
 11
205.35922298154671
 21
184.70008329092261
 31
0.0
  0
LINE
  5
EB
  8
0
 10
198.35922298154659
 20
190.70008329092261
 30
0.0
 11
196.35922298154659
 21
190.70008329092261
 31
0.0
  0
LINE
  5
EC
  8
0
 10
179.35922298154659
 20
206.80008329092249
 30
0.0
 11
179.35922298154659
 21
195.80008329092249
 31
0.0
  0
LINE
  5
ED
  8
0
 10
177.5592229815467
 20
206.80008329092249
 30
0.0
 11
177.5592229815467
 21
195.80008329092249
 31
0.0
  0
LINE
  5
EE
  8
0
 10
179.35922298154659
 20
206.80008329092249
 30
0.0
 11
177.5592229815467
 21
206.80008329092249
 31
0.0
  0
ARC
  5
EF
  8
0
 10
175.17278075688779
 20
205.6302103098449
 30
0.0
 40
2.5558227484224929
 50
154.38424746716851
 51
214.38424746804219
  0
LINE
  5
F0
  8
0
 10
173.06353999585039
 20
207.07358598281851
 30
0.0
 11
172.5592229815467
 21
206.20008329092261
 31
0.0
  0
LINE
  5
F1
  8
0
 10
173.06353999585039
 20
207.07358598281851
 30
0.0
 11
177.0549059672436
 21
207.07358598281851
 31
0.0
  0
ARC
  5
F2
  8
0
 10
174.9456652062062
 20
205.6302103098449
 30
0.0
 40
2.5558227484224929
 50
325.61575253195792
 51
25.61575253283149
  0
LINE
  5
F3
  8
0
 10
177.0549059672436
 20
207.07358598281851
 30
0.0
 11
177.55922298154761
 21
206.20008329092261
 31
0.0
  0
LINE
  5
F4
  8
0
 10
181.35922298154659
 20
204.30008329092249
 30
0.0
 11
179.35922298154659
 21
204.30008329092249
 31
0.0
  0
LINE
  5
F5
  8
0
 10
167.35922298154659
 20
203.30008329092249
 30
0.0
 11
167.35922298154659
 21
199.30008329092249
 31
0.0
  0
LINE
  5
F6
  8
0
 10
168.35922298154659
 20
198.30008329092249
 30
0.0
 11
172.5592229815469
 21
198.30008329092249
 31
0.0
  0
LINE
  5
F7
  8
0
 10
168.35922298154659
 20
204.30008329092249
 30
0.0
 11
167.35922298154659
 21
203.30008329092249
 31
0.0
  0
LINE
  5
F8
  8
0
 10
167.35922298154659
 20
199.30008329092249
 30
0.0
 11
168.35922298154659
 21
198.30008329092249
 31
0.0
  0
LINE
  5
F9
  8
0
 10
168.35922298154659
 20
204.30008329092249
 30
0.0
 11
168.35922298154659
 21
198.30008329092249
 31
0.0
  0
LINE
  5
FA
  8
3
 10
167.81772298154641
 20
203.75858329092219
 30
0.0
 11
172.5592229815467
 21
203.75858329092219
 31
0.0
  0
LINE
  5
FB
  8
3
 10
179.35922298154659
 20
203.75858329092139
 30
0.0
 11
180.297128493847
 21
204.30008329092249
 31
0.0
  0
LINE
  5
FC
  8
3
 10
167.81772298154641
 20
198.8415832909227
 30
0.0
 11
172.5592229815469
 21
198.84158329092301
 31
0.0
  0
LINE
  5
FD
  8
3
 10
179.35922298154659
 20
198.84158329092321
 30
0.0
 11
180.2971284938464
 21
198.30008329092249
 31
0.0
  0
LINE
  5
FE
  8
0
 10
179.35922298154659
 20
195.80008329092249
 30
0.0
 11
177.5592229815467
 21
195.80008329092249
 31
0.0
  0
LINE
  5
FF
  8
0
 10
173.06353999585039
 20
195.5265805990264
 30
0.0
 11
172.5592229815467
 21
196.4000832909224
 31
0.0
  0
ARC
  5
100
  8
0
 10
175.17278075688779
 20
196.9699562720001
 30
0.0
 40
2.5558227484224929
 50
145.61575253195781
 51
205.61575253283149
  0
ARC
  5
101
  8
0
 10
182.1703760210911
 20
201.300083290923
 30
0.0
 40
9.5534180126256771
 50
162.41204622601879
 51
197.58795377398121
  0
LINE
  5
102
  8
0
 10
173.06353999585019
 20
204.18683463687111
 30
0.0
 11
177.0549059672434
 21
204.18683463687111
 31
0.0
  0
LINE
  5
103
  8
0
 10
173.06353999584769
 20
198.41333194497369
 30
0.0
 11
177.0549059672409
 21
198.41333194497369
 31
0.0
  0
ARC
  5
104
  8
0
 10
167.94806994200309
 20
201.300083290923
 30
0.0
 40
9.5534180126256771
 50
342.41204622601879
 51
17.587953773981209
  0
ARC
  5
105
  8
0
 10
174.9456652062062
 20
196.9699562720001
 30
0.0
 40
2.5558227484224929
 50
334.38424746716851
 51
34.384247468042162
  0
LINE
  5
106
  8
0
 10
177.0549059672384
 20
195.5265805990264
 30
0.0
 11
177.55922298154209
 21
196.4000832909224
 31
0.0
  0
LINE
  5
107
  8
0
 10
173.06353999585039
 20
195.5265805990262
 30
0.0
 11
177.0549059672436
 21
195.5265805990262
 31
0.0
  0
LINE
  5
108
  8
0
 10
172.5592229815469
 20
196.40008329092149
 30
0.0
 11
172.5592229815467
 21
206.20008329092261
 31
0.0
  0
LINE
  5
109
  8
0
 10
172.5592229815467
 20
204.30008329092249
 30
0.0
 11
168.35922298154659
 21
204.30008329092249
 31
0.0
  0
LINE
  5
10A
  8
0
 10
179.35922298154659
 20
198.30008329092249
 30
0.0
 11
181.35922298154659
 21
198.30008329092249
 31
0.0
  0
LINE
  5
10B
  8
0
 10
198.35922298154659
 20
211.9000832909224
 30
0.0
 11
196.35922298154659
 21
211.9000832909224
 31
0.0
  0
LINE
  5
10C
  8
0
 10
205.15922298154661
 20
217.9000832909224
 30
0.0
 11
205.35922298154671
 21
217.9000832909224
 31
0.0
  0
LINE
  5
10D
  8
0
 10
205.15922298154641
 20
210.00008329092159
 30
0.0
 11
205.15922298154661
 21
219.80008329092269
 31
0.0
  0
LINE
  5
10E
  8
0
 10
204.6549059672428
 20
209.1265805990264
 30
0.0
 11
200.6635399958497
 21
209.1265805990264
 31
0.0
  0
LINE
  5
10F
  8
0
 10
200.6635399958549
 20
209.1265805990266
 30
0.0
 11
200.1592229815511
 21
210.0000832909223
 31
0.0
  0
LINE
  5
110
  8
0
 10
200.6635399958497
 20
220.67358598281871
 30
0.0
 11
200.1592229815457
 21
219.80008329092269
 31
0.0
  0
ARC
  5
111
  8
0
 10
202.7727807568871
 20
210.56995627200021
 30
0.0
 40
2.5558227484224929
 50
145.61575253195781
 51
205.61575253283149
  0
ARC
  5
112
  8
0
 10
209.7703760210901
 20
214.90008329092311
 30
0.0
 40
9.5534180126256771
 50
162.41204622601879
 51
197.58795377398121
  0
ARC
  5
113
  8
0
 10
202.7727807568871
 20
219.23021030984509
 30
0.0
 40
2.5558227484224929
 50
154.38424746716851
 51
214.38424746804219
  0
LINE
  5
114
  8
0
 10
204.65490596724561
 20
212.0133319449738
 30
0.0
 11
200.6635399958524
 21
212.0133319449738
 31
0.0
  0
LINE
  5
115
  8
0
 10
204.65490596724311
 20
217.78683463687119
 30
0.0
 11
200.6635399958499
 21
217.78683463687119
 31
0.0
  0
ARC
  5
116
  8
0
 10
195.5480699420022
 20
214.90008329092311
 30
0.0
 40
9.5534180126256771
 50
342.41204622601879
 51
17.587953773981209
  0
ARC
  5
117
  8
0
 10
202.5456652062054
 20
210.56995627200021
 30
0.0
 40
2.5558227484224929
 50
334.38424746716851
 51
34.384247468042169
  0
LINE
  5
118
  8
0
 10
204.6549059672428
 20
209.1265805990266
 30
0.0
 11
205.15922298154661
 21
210.0000832909223
 31
0.0
  0
LINE
  5
119
  8
0
 10
204.6549059672428
 20
220.67358598281871
 30
0.0
 11
200.6635399958497
 21
220.67358598281871
 31
0.0
  0
LINE
  5
11A
  8
0
 10
204.6549059672428
 20
220.67358598281871
 30
0.0
 11
205.15922298154661
 21
219.80008329092269
 31
0.0
  0
ARC
  5
11B
  8
0
 10
202.5456652062054
 20
219.23021030984509
 30
0.0
 40
2.5558227484224929
 50
325.61575253195792
 51
25.61575253283149
  0
LINE
  5
11C
  8
0
 10
198.35922298154659
 20
209.4000832909224
 30
0.0
 11
200.15922298154661
 21
209.4000832909224
 31
0.0
  0
LINE
  5
11D
  8
0
 10
198.35922298154659
 20
220.4000832909224
 30
0.0
 11
200.15922298154661
 21
220.4000832909224
 31
0.0
  0
LINE
  5
11E
  8
0
 10
200.15922298154661
 20
220.4000832909224
 30
0.0
 11
200.15922298154661
 21
209.4000832909224
 31
0.0
  0
LINE
  5
11F
  8
3
 10
198.35922298154659
 20
212.44158329092309
 30
0.0
 11
197.4213174692469
 21
211.9000832909224
 31
0.0
  0
LINE
  5
120
  8
3
 10
205.90072298154689
 20
212.44158329092269
 30
0.0
 11
205.15922298154641
 21
212.44158329092269
 31
0.0
  0
LINE
  5
121
  8
3
 10
198.35922298154659
 20
217.3585832909215
 30
0.0
 11
197.42131746924619
 21
217.9000832909224
 31
0.0
  0
LINE
  5
122
  8
3
 10
205.90072298154689
 20
217.35858329092221
 30
0.0
 11
205.15922298154661
 21
217.35858329092221
 31
0.0
  0
LINE
  5
123
  8
0
 10
205.35922298154671
 20
217.9000832909224
 30
0.0
 11
205.35922298154671
 21
211.9000832909224
 31
0.0
  0
LINE
  5
124
  8
0
 10
206.35922298154659
 20
212.9000832909224
 30
0.0
 11
205.35922298154671
 21
211.9000832909224
 31
0.0
  0
LINE
  5
125
  8
0
 10
205.35922298154671
 20
217.9000832909224
 30
0.0
 11
206.35922298154659
 21
216.9000832909224
 31
0.0
  0
LINE
  5
126
  8
0
 10
198.35922298154659
 20
220.4000832909224
 30
0.0
 11
198.35922298154659
 21
209.4000832909224
 31
0.0
  0
LINE
  5
127
  8
0
 10
205.35922298154671
 20
211.9000832909224
 30
0.0
 11
205.15922298154641
 21
211.9000832909224
 31
0.0
  0
LINE
  5
128
  8
0
 10
206.35922298154659
 20
216.9000832909224
 30
0.0
 11
206.35922298154659
 21
212.9000832909224
 31
0.0
  0
LINE
  5
129
  8
0
 10
196.35922298154659
 20
217.9000832909224
 30
0.0
 11
198.35922298154659
 21
217.9000832909224
 31
0.0
  0
LINE
  5
12A
  8
1
 10
177.85922298154659
 20
214.9000832909224
 30
0.0
 11
211.35922298154659
 21
214.9000832909224
 31
0.0
  0
LINE
  5
12B
  8
0
 10
183.35922298154659
 20
207.3000819422233
 30
0.0
 11
183.35922298154659
 21
208.90008194222321
 31
0.0
  0
LINE
  5
12C
  8
0
 10
194.35922298154659
 20
207.30008329092249
 30
0.0
 11
194.35922298154659
 21
208.9000832909224
 31
0.0
  0
LINE
  5
12D
  8
0
 10
191.85922298154659
 20
195.30008329092249
 30
0.0
 11
191.85922298154659
 21
207.30008329092249
 31
0.0
  0
LINE
  5
12E
  8
0
 10
185.85922298154659
 20
220.9000832909224
 30
0.0
 11
185.85922298154659
 21
208.9000832909224
 31
0.0
  0
LINE
  5
12F
  8
0
 10
196.35922298154659
 20
208.9000832909224
 30
0.0
 11
196.35922298154659
 21
220.9000832909224
 31
0.0
  0
LINE
  5
130
  8
0
 10
196.35922298154659
 20
220.9000832909224
 30
0.0
 11
182.85922298154659
 21
220.9000832909224
 31
0.0
  0
LINE
  5
131
  8
0
 10
182.85922298154659
 20
220.9000832909224
 30
0.0
 11
182.85922298154659
 21
208.9000832909224
 31
0.0
  0
LINE
  5
132
  8
0
 10
182.85922298154659
 20
208.9000832909224
 30
0.0
 11
196.35922298154659
 21
208.9000832909224
 31
0.0
  0
LINE
  5
133
  8
0
 10
181.35922298154659
 20
195.30008329092249
 30
0.0
 11
194.85922298154659
 21
195.30008329092249
 31
0.0
  0
LINE
  5
134
  8
0
 10
181.35922298154659
 20
207.30008329092249
 30
0.0
 11
181.35922298154659
 21
195.30008329092249
 31
0.0
  0
LINE
  5
135
  8
0
 10
194.85922298154659
 20
207.30008329092249
 30
0.0
 11
181.35922298154659
 21
207.30008329092249
 31
0.0
  0
LINE
  5
136
  8
0
 10
194.85922298154659
 20
195.30008329092249
 30
0.0
 11
194.85922298154659
 21
207.30008329092249
 31
0.0
  0
LINE
  5
137
  8
2
 10
191.85922298154659
 20
216.9000832909224
 30
0.0
 11
188.85922298154671
 21
218.63213409849129
 31
0.0
  0
LINE
  5
138
  8
2
 10
185.85922298154671
 20
216.9000832909224
 30
0.0
 11
188.85922298154671
 21
218.63213409849129
 31
0.0
  0
LINE
  5
139
  8
2
 10
185.85922298154659
 20
216.9000832909224
 30
0.0
 11
191.85922298154659
 21
216.9000832909224
 31
0.0
  0
LINE
  5
13A
  8
2
 10
185.85922298154671
 20
185.70008329092261
 30
0.0
 11
185.85922298154659
 21
216.9000832909224
 31
0.0
  0
LINE
  5
13B
  8
2
 10
191.85922298154659
 20
216.9000832909224
 30
0.0
 11
191.85922298154671
 21
185.70008329092261
 31
0.0
  0
LINE
  5
13C
  8
2
 10
185.85922298154659
 20
185.70008329092261
 30
0.0
 11
191.85922298154659
 21
185.70008329092261
 31
0.0
  0
LINE
  5
13D
  8
2
 10
185.85922298154671
 20
185.70008329092261
 30
0.0
 11
188.85922298154671
 21
183.96803248335371
 31
0.0
  0
LINE
  5
13E
  8
2
 10
191.85922298154659
 20
185.70008329092261
 30
0.0
 11
188.85922298154671
 21
183.96803248335371
 31
0.0
  0
LINE
  5
13F
  8
2
 10
185.85922298154671
 20
216.30008329092249
 30
0.0
 11
191.85922298154659
 21
216.30008329092249
 31
0.0
  0
LINE
  5
140
  8
2
 10
185.85922298154671
 20
186.30008329092249
 30
0.0
 11
191.85922298154659
 21
186.30008329092249
 31
0.0
  0
LINE
  5
141
  8
1
 10
162.35922298154671
 20
201.30008329092249
 30
0.0
 11
200.35922298154659
 21
201.30008329092249
 31
0.0
  0
LINE
  5
142
  8
1
 10
162.35922298154671
 20
67.679627015796228
 30
0.0
 11
200.35922298154659
 21
67.679627015796228
 31
0.0
  0
LINE
  5
143
  8
2
 10
185.85922298154671
 20
82.679627015796228
 30
0.0
 11
191.85922298154659
 21
82.679627015796228
 31
0.0
  0
LINE
  5
144
  8
2
 10
185.85922298154671
 20
52.679627015796228
 30
0.0
 11
191.85922298154659
 21
52.679627015796228
 31
0.0
  0
LINE
  5
145
  8
2
 10
191.85922298154659
 20
83.279627015796123
 30
0.0
 11
188.85922298154671
 21
85.011677823365034
 31
0.0
  0
LINE
  5
146
  8
2
 10
185.85922298154671
 20
83.279627015796123
 30
0.0
 11
188.85922298154671
 21
85.011677823365034
 31
0.0
  0
LINE
  5
147
  8
2
 10
185.85922298154659
 20
83.279627015796123
 30
0.0
 11
191.85922298154659
 21
83.279627015796123
 31
0.0
  0
LINE
  5
148
  8
2
 10
191.85922298154659
 20
52.079627015796312
 30
0.0
 11
191.85922298154671
 21
83.279627015796123
 31
0.0
  0
LINE
  5
149
  8
2
 10
185.85922298154671
 20
83.279627015796123
 30
0.0
 11
185.85922298154659
 21
52.079627015796312
 31
0.0
  0
LINE
  5
14A
  8
2
 10
185.85922298154659
 20
52.079627015796312
 30
0.0
 11
191.85922298154659
 21
52.079627015796312
 31
0.0
  0
LINE
  5
14B
  8
2
 10
185.85922298154671
 20
52.079627015796312
 30
0.0
 11
188.85922298154671
 21
50.347576208227423
 31
0.0
  0
LINE
  5
14C
  8
2
 10
191.85922298154659
 20
52.079627015796312
 30
0.0
 11
188.85922298154671
 21
50.347576208227423
 31
0.0
  0
LINE
  5
14D
  8
0
 10
194.85922298154659
 20
73.679627015796228
 30
0.0
 11
194.85922298154659
 21
61.679627015796228
 31
0.0
  0
LINE
  5
14E
  8
0
 10
194.85922298154659
 20
61.679627015796228
 30
0.0
 11
181.35922298154659
 21
61.679627015796228
 31
0.0
  0
LINE
  5
14F
  8
0
 10
181.35922298154659
 20
61.679627015796228
 30
0.0
 11
181.35922298154659
 21
73.679627015796228
 31
0.0
  0
LINE
  5
150
  8
0
 10
181.35922298154659
 20
73.679627015796228
 30
0.0
 11
194.85922298154659
 21
73.679627015796228
 31
0.0
  0
LINE
  5
151
  8
0
 10
182.85922298154659
 20
60.079627015796319
 30
0.0
 11
196.35922298154659
 21
60.079627015796319
 31
0.0
  0
LINE
  5
152
  8
0
 10
182.85922298154659
 20
48.079627015796319
 30
0.0
 11
182.85922298154659
 21
60.079627015796319
 31
0.0
  0
LINE
  5
153
  8
0
 10
196.35922298154659
 20
48.079627015796319
 30
0.0
 11
182.85922298154659
 21
48.079627015796319
 31
0.0
  0
LINE
  5
154
  8
0
 10
196.35922298154659
 20
60.079627015796319
 30
0.0
 11
196.35922298154659
 21
48.079627015796319
 31
0.0
  0
LINE
  5
155
  8
0
 10
185.85922298154659
 20
48.079627015796319
 30
0.0
 11
185.85922298154659
 21
60.079627015796319
 31
0.0
  0
LINE
  5
156
  8
0
 10
191.85922298154659
 20
73.679627015796228
 30
0.0
 11
191.85922298154659
 21
61.679627015796228
 31
0.0
  0
LINE
  5
157
  8
0
 10
194.35922298154659
 20
61.679627015796228
 30
0.0
 11
194.35922298154659
 21
60.079627015796319
 31
0.0
  0
LINE
  5
158
  8
0
 10
183.35922298154659
 20
61.679628364495471
 30
0.0
 11
183.35922298154659
 21
60.079628364495562
 31
0.0
  0
LINE
  5
159
  8
1
 10
177.85922298154659
 20
54.079627015796319
 30
0.0
 11
211.35922298154659
 21
54.079627015796319
 31
0.0
  0
LINE
  5
15A
  8
0
 10
196.35922298154659
 20
51.079627015796319
 30
0.0
 11
198.35922298154659
 21
51.079627015796319
 31
0.0
  0
LINE
  5
15B
  8
0
 10
206.35922298154659
 20
52.079627015796312
 30
0.0
 11
206.35922298154659
 21
56.079627015796319
 31
0.0
  0
LINE
  5
15C
  8
0
 10
205.35922298154671
 20
57.079627015796312
 30
0.0
 11
205.15922298154641
 21
57.079627015796312
 31
0.0
  0
LINE
  5
15D
  8
0
 10
198.35922298154659
 20
48.579627015796319
 30
0.0
 11
198.35922298154659
 21
59.579627015796312
 31
0.0
  0
LINE
  5
15E
  8
0
 10
205.35922298154671
 20
51.079627015796319
 30
0.0
 11
206.35922298154659
 21
52.079627015796312
 31
0.0
  0
LINE
  5
15F
  8
0
 10
206.35922298154659
 20
56.079627015796319
 30
0.0
 11
205.35922298154671
 21
57.079627015796312
 31
0.0
  0
LINE
  5
160
  8
0
 10
205.35922298154671
 20
51.079627015796319
 30
0.0
 11
205.35922298154671
 21
57.079627015796312
 31
0.0
  0
LINE
  5
161
  8
3
 10
205.90072298154689
 20
51.621127015796581
 30
0.0
 11
205.15922298154661
 21
51.621127015796581
 31
0.0
  0
LINE
  5
162
  8
3
 10
198.35922298154659
 20
51.621127015797271
 30
0.0
 11
197.42131746924619
 21
51.079627015796319
 31
0.0
  0
LINE
  5
163
  8
3
 10
205.90072298154689
 20
56.53812701579605
 30
0.0
 11
205.15922298154641
 21
56.53812701579605
 31
0.0
  0
LINE
  5
164
  8
3
 10
198.35922298154659
 20
56.538127015795602
 30
0.0
 11
197.4213174692469
 21
57.079627015796312
 31
0.0
  0
LINE
  5
165
  8
0
 10
200.15922298154661
 20
48.579627015796319
 30
0.0
 11
200.15922298154661
 21
59.579627015796312
 31
0.0
  0
LINE
  5
166
  8
0
 10
198.35922298154659
 20
48.579627015796319
 30
0.0
 11
200.15922298154661
 21
48.579627015796319
 31
0.0
  0
LINE
  5
167
  8
0
 10
198.35922298154659
 20
59.579627015796312
 30
0.0
 11
200.15922298154661
 21
59.579627015796312
 31
0.0
  0
ARC
  5
168
  8
0
 10
202.5456652062054
 20
49.749499996873652
 30
0.0
 40
2.5558227484224929
 50
334.38424746716851
 51
34.384247468042169
  0
LINE
  5
169
  8
0
 10
204.6549059672428
 20
48.306124323900043
 30
0.0
 11
205.15922298154661
 21
49.179627015796001
 31
0.0
  0
LINE
  5
16A
  8
0
 10
204.6549059672428
 20
48.306124323900043
 30
0.0
 11
200.6635399958497
 21
48.306124323900043
 31
0.0
  0
LINE
  5
16B
  8
0
 10
204.6549059672428
 20
59.85312970769214
 30
0.0
 11
205.15922298154661
 21
58.97962701579641
 31
0.0
  0
ARC
  5
16C
  8
0
 10
202.5456652062054
 20
58.409754034718532
 30
0.0
 40
2.5558227484224929
 50
325.61575253195792
 51
25.6157525328315
  0
ARC
  5
16D
  8
0
 10
195.5480699420022
 20
54.07962701579563
 30
0.0
 40
9.5534180126256771
 50
342.41204622601879
 51
17.587953773981219
  0
LINE
  5
16E
  8
0
 10
204.65490596724311
 20
51.192875669847488
 30
0.0
 11
200.6635399958499
 21
51.192875669847488
 31
0.0
  0
LINE
  5
16F
  8
0
 10
204.65490596724561
 20
56.966378361744923
 30
0.0
 11
200.6635399958524
 21
56.966378361744923
 31
0.0
  0
ARC
  5
170
  8
0
 10
202.7727807568871
 20
49.749499996873652
 30
0.0
 40
2.5558227484224929
 50
145.61575253195781
 51
205.61575253283149
  0
ARC
  5
171
  8
0
 10
209.7703760210901
 20
54.07962701579563
 30
0.0
 40
9.5534180126256771
 50
162.41204622601879
 51
197.58795377398121
  0
ARC
  5
172
  8
0
 10
202.7727807568871
 20
58.409754034718532
 30
0.0
 40
2.5558227484224929
 50
154.38424746716851
 51
214.38424746804219
  0
LINE
  5
173
  8
0
 10
200.6635399958497
 20
48.306124323900043
 30
0.0
 11
200.1592229815457
 21
49.179627015796001
 31
0.0
  0
LINE
  5
174
  8
0
 10
200.6635399958549
 20
59.85312970769214
 30
0.0
 11
200.1592229815511
 21
58.97962701579641
 31
0.0
  0
LINE
  5
175
  8
0
 10
204.6549059672428
 20
59.853129707692368
 30
0.0
 11
200.6635399958497
 21
59.853129707692368
 31
0.0
  0
LINE
  5
176
  8
0
 10
205.15922298154641
 20
58.979627015797092
 30
0.0
 11
205.15922298154661
 21
49.179627015796001
 31
0.0
  0
LINE
  5
177
  8
0
 10
205.15922298154661
 20
51.079627015796319
 30
0.0
 11
205.35922298154671
 21
51.079627015796319
 31
0.0
  0
LINE
  5
178
  8
0
 10
198.35922298154659
 20
57.079627015796312
 30
0.0
 11
196.35922298154659
 21
57.079627015796312
 31
0.0
  0
LINE
  5
179
  8
0
 10
179.35922298154659
 20
70.679627015796228
 30
0.0
 11
181.35922298154659
 21
70.679627015796228
 31
0.0
  0
LINE
  5
17A
  8
0
 10
172.5592229815467
 20
64.679627015796214
 30
0.0
 11
168.35922298154659
 21
64.679627015796214
 31
0.0
  0
LINE
  5
17B
  8
0
 10
172.5592229815469
 20
72.579627015797229
 30
0.0
 11
172.5592229815467
 21
62.779627015796137
 31
0.0
  0
LINE
  5
17C
  8
0
 10
173.06353999585039
 20
73.453129707692511
 30
0.0
 11
177.0549059672436
 21
73.453129707692511
 31
0.0
  0
LINE
  5
17D
  8
0
 10
177.0549059672384
 20
73.453129707692284
 30
0.0
 11
177.55922298154209
 21
72.579627015796319
 31
0.0
  0
ARC
  5
17E
  8
0
 10
174.9456652062062
 20
72.009754034718668
 30
0.0
 40
2.5558227484224929
 50
325.61575253195792
 51
25.6157525328315
  0
ARC
  5
17F
  8
0
 10
167.94806994200309
 20
67.679627015795774
 30
0.0
 40
9.5534180126256771
 50
342.41204622601879
 51
17.587953773981219
  0
LINE
  5
180
  8
0
 10
173.06353999584769
 20
70.566378361745052
 30
0.0
 11
177.0549059672409
 21
70.566378361745052
 31
0.0
  0
LINE
  5
181
  8
0
 10
173.06353999585019
 20
64.792875669847632
 30
0.0
 11
177.0549059672434
 21
64.792875669847632
 31
0.0
  0
ARC
  5
182
  8
0
 10
182.1703760210911
 20
67.679627015795774
 30
0.0
 40
9.5534180126256771
 50
162.41204622601879
 51
197.58795377398121
  0
ARC
  5
183
  8
0
 10
175.17278075688779
 20
72.009754034718668
 30
0.0
 40
2.5558227484224929
 50
154.38424746716851
 51
214.38424746804219
  0
LINE
  5
184
  8
0
 10
173.06353999585039
 20
73.453129707692284
 30
0.0
 11
172.5592229815467
 21
72.579627015796319
 31
0.0
  0
LINE
  5
185
  8
0
 10
179.35922298154659
 20
73.179627015796228
 30
0.0
 11
177.5592229815467
 21
73.179627015796228
 31
0.0
  0
LINE
  5
186
  8
3
 10
179.35922298154659
 20
70.138127015795504
 30
0.0
 11
180.2971284938464
 21
70.679627015796228
 31
0.0
  0
LINE
  5
187
  8
3
 10
167.81772298154641
 20
70.138127015795945
 30
0.0
 11
172.5592229815469
 21
70.138127015795732
 31
0.0
  0
LINE
  5
188
  8
3
 10
179.35922298154659
 20
65.221127015797407
 30
0.0
 11
180.297128493847
 21
64.679627015796214
 31
0.0
  0
LINE
  5
189
  8
3
 10
167.81772298154641
 20
65.221127015796498
 30
0.0
 11
172.5592229815467
 21
65.221127015796498
 31
0.0
  0
LINE
  5
18A
  8
0
 10
168.35922298154659
 20
64.679627015796214
 30
0.0
 11
168.35922298154659
 21
70.679627015796228
 31
0.0
  0
LINE
  5
18B
  8
0
 10
167.35922298154659
 20
69.679627015796214
 30
0.0
 11
168.35922298154659
 21
70.679627015796228
 31
0.0
  0
LINE
  5
18C
  8
0
 10
168.35922298154659
 20
64.679627015796214
 30
0.0
 11
167.35922298154659
 21
65.679627015796228
 31
0.0
  0
LINE
  5
18D
  8
0
 10
168.35922298154659
 20
70.679627015796228
 30
0.0
 11
172.5592229815469
 21
70.679627015796228
 31
0.0
  0
LINE
  5
18E
  8
0
 10
167.35922298154659
 20
65.679627015796228
 30
0.0
 11
167.35922298154659
 21
69.679627015796214
 31
0.0
  0
LINE
  5
18F
  8
0
 10
181.35922298154659
 20
64.679627015796214
 30
0.0
 11
179.35922298154659
 21
64.679627015796214
 31
0.0
  0
LINE
  5
190
  8
0
 10
177.0549059672436
 20
61.906124323900173
 30
0.0
 11
177.55922298154761
 21
62.779627015796137
 31
0.0
  0
ARC
  5
191
  8
0
 10
174.9456652062062
 20
63.349499996873789
 30
0.0
 40
2.5558227484224929
 50
334.38424746716851
 51
34.384247468042169
  0
LINE
  5
192
  8
0
 10
173.06353999585039
 20
61.906124323900173
 30
0.0
 11
177.0549059672436
 21
61.906124323900173
 31
0.0
  0
LINE
  5
193
  8
0
 10
173.06353999585039
 20
61.906124323900173
 30
0.0
 11
172.5592229815467
 21
62.779627015796137
 31
0.0
  0
ARC
  5
194
  8
0
 10
175.17278075688779
 20
63.349499996873789
 30
0.0
 40
2.5558227484224929
 50
145.61575253195781
 51
205.61575253283149
  0
LINE
  5
195
  8
0
 10
179.35922298154659
 20
62.179627015796221
 30
0.0
 11
177.5592229815467
 21
62.179627015796221
 31
0.0
  0
LINE
  5
196
  8
0
 10
177.5592229815467
 20
62.179627015796221
 30
0.0
 11
177.5592229815467
 21
73.179627015796228
 31
0.0
  0
LINE
  5
197
  8
0
 10
179.35922298154659
 20
62.179627015796221
 30
0.0
 11
179.35922298154659
 21
73.179627015796228
 31
0.0
  0
LINE
  5
198
  8
0
 10
198.35922298154659
 20
78.279627015796137
 30
0.0
 11
196.35922298154659
 21
78.279627015796137
 31
0.0
  0
LINE
  5
199
  8
0
 10
205.15922298154661
 20
84.279627015796137
 30
0.0
 11
205.35922298154671
 21
84.279627015796137
 31
0.0
  0
LINE
  5
19A
  8
0
 10
205.15922298154641
 20
76.379627015795364
 30
0.0
 11
205.15922298154661
 21
86.179627015796456
 31
0.0
  0
LINE
  5
19B
  8
0
 10
204.6549059672428
 20
75.506124323900082
 30
0.0
 11
200.6635399958497
 21
75.506124323900082
 31
0.0
  0
LINE
  5
19C
  8
0
 10
200.6635399958549
 20
75.506124323900309
 30
0.0
 11
200.1592229815511
 21
76.379627015796046
 31
0.0
  0
LINE
  5
19D
  8
0
 10
200.6635399958497
 20
87.05312970769242
 30
0.0
 11
200.1592229815457
 21
86.179627015796456
 31
0.0
  0
ARC
  5
19E
  8
0
 10
202.7727807568871
 20
76.949499996873925
 30
0.0
 40
2.5558227484224929
 50
145.61575253195781
 51
205.61575253283149
  0
ARC
  5
19F
  8
0
 10
209.7703760210901
 20
81.279627015796805
 30
0.0
 40
9.5534180126256771
 50
162.41204622601879
 51
197.58795377398121
  0
ARC
  5
1A0
  8
0
 10
202.7727807568871
 20
85.609754034718804
 30
0.0
 40
2.5558227484224929
 50
154.38424746716851
 51
214.38424746804219
  0
LINE
  5
1A1
  8
0
 10
204.65490596724561
 20
78.392875669847541
 30
0.0
 11
200.6635399958524
 21
78.392875669847541
 31
0.0
  0
LINE
  5
1A2
  8
0
 10
204.65490596724311
 20
84.166378361744961
 30
0.0
 11
200.6635399958499
 21
84.166378361744961
 31
0.0
  0
ARC
  5
1A3
  8
0
 10
195.5480699420022
 20
81.279627015796805
 30
0.0
 40
9.5534180126256771
 50
342.41204622601879
 51
17.587953773981219
  0
ARC
  5
1A4
  8
0
 10
202.5456652062054
 20
76.949499996873925
 30
0.0
 40
2.5558227484224929
 50
334.38424746716851
 51
34.384247468042169
  0
LINE
  5
1A5
  8
0
 10
204.6549059672428
 20
75.506124323900309
 30
0.0
 11
205.15922298154661
 21
76.379627015796046
 31
0.0
  0
LINE
  5
1A6
  8
0
 10
204.6549059672428
 20
87.05312970769242
 30
0.0
 11
200.6635399958497
 21
87.05312970769242
 31
0.0
  0
LINE
  5
1A7
  8
0
 10
204.6549059672428
 20
87.05312970769242
 30
0.0
 11
205.15922298154661
 21
86.179627015796456
 31
0.0
  0
ARC
  5
1A8
  8
0
 10
202.5456652062054
 20
85.609754034718804
 30
0.0
 40
2.5558227484224929
 50
325.61575253195792
 51
25.6157525328315
  0
LINE
  5
1A9
  8
0
 10
198.35922298154659
 20
75.779627015796137
 30
0.0
 11
200.15922298154661
 21
75.779627015796137
 31
0.0
  0
LINE
  5
1AA
  8
0
 10
198.35922298154659
 20
86.779627015796137
 30
0.0
 11
200.15922298154661
 21
86.779627015796137
 31
0.0
  0
LINE
  5
1AB
  8
0
 10
200.15922298154661
 20
86.779627015796137
 30
0.0
 11
200.15922298154661
 21
75.779627015796137
 31
0.0
  0
LINE
  5
1AC
  8
3
 10
198.35922298154659
 20
78.821127015796861
 30
0.0
 11
197.4213174692469
 21
78.279627015796137
 31
0.0
  0
LINE
  5
1AD
  8
3
 10
205.90072298154689
 20
78.821127015796407
 30
0.0
 11
205.15922298154641
 21
78.821127015796407
 31
0.0
  0
LINE
  5
1AE
  8
3
 10
198.35922298154659
 20
83.738127015795186
 30
0.0
 11
197.42131746924619
 21
84.279627015796137
 31
0.0
  0
LINE
  5
1AF
  8
3
 10
205.90072298154689
 20
83.738127015795854
 30
0.0
 11
205.15922298154661
 21
83.738127015795854
 31
0.0
  0
LINE
  5
1B0
  8
0
 10
205.35922298154671
 20
84.279627015796137
 30
0.0
 11
205.35922298154671
 21
78.279627015796137
 31
0.0
  0
LINE
  5
1B1
  8
0
 10
206.35922298154659
 20
79.279627015796123
 30
0.0
 11
205.35922298154671
 21
78.279627015796137
 31
0.0
  0
LINE
  5
1B2
  8
0
 10
205.35922298154671
 20
84.279627015796137
 30
0.0
 11
206.35922298154659
 21
83.279627015796123
 31
0.0
  0
LINE
  5
1B3
  8
0
 10
198.35922298154659
 20
86.779627015796137
 30
0.0
 11
198.35922298154659
 21
75.779627015796137
 31
0.0
  0
LINE
  5
1B4
  8
0
 10
205.35922298154671
 20
78.279627015796137
 30
0.0
 11
205.15922298154641
 21
78.279627015796137
 31
0.0
  0
LINE
  5
1B5
  8
0
 10
206.35922298154659
 20
83.279627015796123
 30
0.0
 11
206.35922298154659
 21
79.279627015796123
 31
0.0
  0
LINE
  5
1B6
  8
0
 10
196.35922298154659
 20
84.279627015796137
 30
0.0
 11
198.35922298154659
 21
84.279627015796137
 31
0.0
  0
LINE
  5
1B7
  8
0
 10
183.35922298154659
 20
73.679625667096985
 30
0.0
 11
183.35922298154659
 21
75.279625667096894
 31
0.0
  0
LINE
  5
1B8
  8
0
 10
194.35922298154659
 20
73.679627015796228
 30
0.0
 11
194.35922298154659
 21
75.279627015796137
 31
0.0
  0
LINE
  5
1B9
  8
0
 10
185.85922298154659
 20
87.279627015796123
 30
0.0
 11
185.85922298154659
 21
75.279627015796137
 31
0.0
  0
LINE
  5
1BA
  8
0
 10
196.35922298154659
 20
75.279627015796137
 30
0.0
 11
196.35922298154659
 21
87.279627015796123
 31
0.0
  0
LINE
  5
1BB
  8
0
 10
196.35922298154659
 20
87.279627015796123
 30
0.0
 11
182.85922298154659
 21
87.279627015796123
 31
0.0
  0
LINE
  5
1BC
  8
0
 10
182.85922298154659
 20
87.279627015796123
 30
0.0
 11
182.85922298154659
 21
75.279627015796137
 31
0.0
  0
LINE
  5
1BD
  8
0
 10
182.85922298154659
 20
75.279627015796137
 30
0.0
 11
196.35922298154659
 21
75.279627015796137
 31
0.0
  0
LINE
  5
1BE
  8
1
 10
177.85922298154659
 20
81.279627015796137
 30
0.0
 11
211.35922298154659
 21
81.279627015796137
 31
0.0
  0
LINE
  5
1BF
  8
1
 10
188.85922298154659
 20
43.079627015796319
 30
0.0
 11
188.85922298154659
 21
92.279627015796123
 31
0.0
  0
LINE
  5
1C0
  8
1
 10
188.85922298154659
 20
146.17780479364711
 30
0.0
 11
188.85922298154659
 21
124.1778047936471
 31
0.0
  0
LINE
  5
1C1
  8
1
 10
162.35922298154659
 20
135.1778047936472
 30
0.0
 11
211.35922298154659
 21
135.1778047936472
 31
0.0
  0
TEXT
  5
317
  8
0
 62
     3
 10
0.0
 20
0.0
 30
0.0
 40
10.0
  1
SQS1439
  7
STANDARD1
  0
ENDSEC
  0
EOF
