  0
SECTION
  2
HEADER
  9
$ACADVER
  1
AC1009
  9
$INSBASE
 10
0.0
 20
0.0
 30
0.0
  9
$EXTMIN
 10
0.0
 20
-2.960436562073669
 30
0.0
  9
$EXTMAX
 10
930.00953077814449
 20
474.87337146495611
 30
0.0
  9
$LIMMIN
 10
0.0
 20
0.0
  9
$LIMMAX
 10
770.0
 20
540.0
  9
$ORTHOMODE
 70
     1
  9
$REGENMODE
 70
     1
  9
$FILLMODE
 70
     1
  9
$QTEXTMODE
 70
     0
  9
$MIRRTEXT
 70
     0
  9
$DRAGMODE
 70
     2
  9
$LTSCALE
 40
20.0
  9
$OSMODE
 70
    55
  9
$ATTMODE
 70
     1
  9
$TEXTSIZE
 40
4.000000000000048
  9
$TRACEWID
 40
0.05
  9
$TEXTSTYLE
  7
STANDARD
  9
$CLAYER
  8
5
  9
$CELTYPE
  6
BYLAYER
  9
$CECOLOR
 62
   256
  9
$DIMSCALE
 40
2.0
  9
$DIMASZ
 40
3.0
  9
$DIMEXO
 40
2.0
  9
$DIMDLI
 40
0.38
  9
$DIMRND
 40
0.0
  9
$DIMDLE
 40
0.0
  9
$DIMEXE
 40
2.0
  9
$DIMTP
 40
0.0
  9
$DIMTM
 40
0.0
  9
$DIMTXT
 40
3.0
  9
$DIMCEN
 40
0.0
  9
$DIMTSZ
 40
0.0
  9
$DIMTOL
 70
     0
  9
$DIMLIM
 70
     0
  9
$DIMTIH
 70
     0
  9
$DIMTOH
 70
     0
  9
$DIMSE1
 70
     0
  9
$DIMSE2
 70
     0
  9
$DIMTAD
 70
     1
  9
$DIMZIN
 70
     0
  9
$DIMBLK
  1

  9
$DIMASO
 70
     0
  9
$DIMSHO
 70
     0
  9
$DIMPOST
  1

  9
$DIMAPOST
  1

  9
$DIMALT
 70
     0
  9
$DIMALTD
 70
     2
  9
$DIMALTF
 40
25.399999999999999
  9
$DIMLFAC
 40
1.0
  9
$DIMTOFL
 70
     0
  9
$DIMTVP
 40
1.6000000000000001
  9
$DIMTIX
 70
     1
  9
$DIMSOXD
 70
     0
  9
$DIMSAH
 70
     0
  9
$DIMBLK1
  1

  9
$DIMBLK2
  1

  9
$DIMSTYLE
  2
STANDARD
  9
$DIMCLRD
 70
     4
  9
$DIMCLRE
 70
     4
  9
$DIMCLRT
 70
     4
  9
$DIMTFAC
 40
1.0
  9
$DIMGAP
 40
0.09
  9
$LUNITS
 70
     2
  9
$LUPREC
 70
     1
  9
$SKETCHINC
 40
0.1
  9
$FILLETRAD
 40
0.0
  9
$AUNITS
 70
     0
  9
$AUPREC
 70
     0
  9
$MENU
  1
E:\r13\win\SUPPORT\ACAD
  9
$ELEVATION
 40
0.0
  9
$PELEVATION
 40
0.0
  9
$THICKNESS
 40
0.0
  9
$LIMCHECK
 70
     0
  9
$BLIPMODE
 70
     0
  9
$CHAMFERA
 40
1.1999999999999991
  9
$CHAMFERB
 40
1.1999999999999991
  9
$SKPOLY
 70
     0
  9
$TDCREATE
 40
2450158.583426042
  9
$TDUPDATE
 40
2456598.555542408
  9
$TDINDWG
 40
0.229197581
  9
$TDUSRTIMER
 40
0.229197581
  9
$USRTIMER
 70
     1
  9
$ANGBASE
 50
0.0
  9
$ANGDIR
 70
     0
  9
$PDMODE
 70
     0
  9
$PDSIZE
 40
0.0
  9
$PLINEWID
 40
0.0
  9
$COORDS
 70
     1
  9
$SPLFRAME
 70
     0
  9
$SPLINETYPE
 70
     6
  9
$SPLINESEGS
 70
     8
  9
$ATTDIA
 70
     0
  9
$ATTREQ
 70
     1
  9
$HANDLING
 70
     1
  9
$HANDSEED
  5
1154
  9
$SURFTAB1
 70
     6
  9
$SURFTAB2
 70
     6
  9
$SURFTYPE
 70
     6
  9
$SURFU
 70
     6
  9
$SURFV
 70
     6
  9
$UCSNAME
  2

  9
$UCSORG
 10
0.0
 20
0.0
 30
0.0
  9
$UCSXDIR
 10
1.0
 20
0.0
 30
0.0
  9
$UCSYDIR
 10
0.0
 20
1.0
 30
0.0
  9
$PUCSNAME
  2

  9
$PUCSORG
 10
0.0
 20
0.0
 30
0.0
  9
$PUCSXDIR
 10
1.0
 20
0.0
 30
0.0
  9
$PUCSYDIR
 10
0.0
 20
1.0
 30
0.0
  9
$USERI1
 70
     3
  9
$USERI2
 70
     1
  9
$USERI3
 70
     0
  9
$USERI4
 70
     0
  9
$USERI5
 70
     0
  9
$USERR1
 40
2.0
  9
$USERR2
 40
3.0
  9
$USERR3
 40
3.0
  9
$USERR4
 40
3.0
  9
$USERR5
 40
10.0
  9
$WORLDVIEW
 70
     1
  9
$SHADEDGE
 70
     3
  9
$SHADEDIF
 70
    70
  9
$TILEMODE
 70
     1
  9
$MAXACTVP
 70
    16
  9
$PLIMCHECK
 70
     0
  9
$PEXTMIN
 10
1.0000000000000000E+020
 20
1.0000000000000000E+020
 30
1.0000000000000000E+020
  9
$PEXTMAX
 10
-1.0000000000000000E+020
 20
-1.0000000000000000E+020
 30
-1.0000000000000000E+020
  9
$PLIMMIN
 10
0.0
 20
0.0
  9
$PLIMMAX
 10
12.0
 20
9.0
  9
$UNITMODE
 70
     0
  9
$VISRETAIN
 70
     0
  9
$PLINEGEN
 70
     0
  9
$PSLTSCALE
 70
     0
  0
ENDSEC
  0
SECTION
  2
TABLES
  0
TABLE
  2
VPORT
 70
     1
  0
VPORT
  2
*ACTIVE
 70
     0
 10
0.0
 20
0.0
 11
1.0
 21
1.0
 12
465.00476755441969
 22
394.89452070385119
 13
0.0
 23
0.0
 14
10.0
 24
10.0
 15
10.0
 25
10.0
 16
0.0
 26
0.0
 36
1.0
 17
0.0
 27
0.0
 37
0.0
 40
802.76084457946263
 41
1.7807262569832401
 42
50.0
 43
0.0
 44
0.0
 50
0.0
 51
0.0
 71
     0
 72
   500
 73
     1
 74
     0
 75
     0
 76
     0
 77
     0
 78
     2
  0
ENDTAB
  0
TABLE
  2
LTYPE
 70
     4
  0
LTYPE
  2
CONTINUOUS
 70
     0
  3
Solid Line
 72
    65
 73
     0
 40
0.0
  0
LTYPE
  2
CENTER
 70
     0
  3
____ _ ____ _ ____ _ ____ _ ____ _ ____ _ ____
 72
    65
 73
     4
 40
2.0
 49
1.25
 49
-0.25
 49
0.25
 49
-0.25
  0
LTYPE
  2
HIDDEN
 70
     0
  3
_ _ _ _ _ _ _ _ _ _ _ _ _ _ _ _ _ _ _ _ _ _ _
 72
    65
 73
     2
 40
0.375
 49
0.25
 49
-0.125
  0
LTYPE
  2
PHANTOM2
 70
     0
  3
Phantom (.5x) ___ _ _ ___ _ _ ___ _ _ ___ _ _
 72
    65
 73
     6
 40
1.25
 49
0.625
 49
-0.125
 49
0.125
 49
-0.125
 49
0.125
 49
-0.125
  0
ENDTAB
  0
TABLE
  2
LAYER
 70
     4
  0
LAYER
  2
0
 70
     0
 62
     7
  6
CONTINUOUS
  0
LAYER
  2
1
 70
     0
 62
     1
  6
CENTER
  0
LAYER
  2
2
 70
     0
 62
     2
  6
HIDDEN
  0
LAYER
  2
5
 70
     0
 62
     3
  6
PHANTOM2
  0
ENDTAB
  0
TABLE
  2
STYLE
 70
     2
  0
STYLE
  2
STANDARD
 70
     0
 40
0.0
 41
1.0
 50
0.0
 71
     0
 42
4.000000000000048
  3
SIMPLEX
  4
BIGFONT
  0
STYLE
  2
STANDARD1
 70
     0
 40
0.0
 41
1.0
 50
0.0
 71
     0
 42
3.0
  3
txt
  4

  0
ENDTAB
  0
TABLE
  2
VIEW
 70
     1
  0
VIEW
  2
ALL
 70
     0
 40
179.5384664489153
 10
146.94997169852391
 20
89.769233224457665
 41
0.0
 11
0.0
 21
0.0
 31
1.0
 12
0.0
 22
0.0
 32
0.0
 42
50.0
 43
0.0
 44
0.0
 50
0.0
 71
     0
  0
ENDTAB
  0
TABLE
  2
UCS
 70
     0
  0
ENDTAB
  0
TABLE
  2
APPID
 70
     3
  0
APPID
  2
ACAD
 70
     0
  0
APPID
  2
ACAD_MLEADERVER
 70
     0
  0
APPID
  2
ACAD_NAV_VCDISPLAY
 70
     0
  0
ENDTAB
  0
TABLE
  2
DIMSTYLE
 70
     1
  0
DIMSTYLE
  2
STANDARD
 70
     0
  3

  4

  5

  6

  7

 40
1.0
 41
0.18
 42
0.0625
 43
0.38
 44
0.18
 45
0.0
 46
0.0
 47
0.0
 48
0.0
140
0.18
141
0.09
142
0.0
143
25.399999999999999
144
1.0
145
0.0
146
1.0
147
0.09
 71
     0
 72
     0
 73
     1
 74
     1
 75
     0
 76
     0
 77
     0
 78
     0
170
     0
171
     2
172
     0
173
     0
174
     0
175
     0
176
     0
177
     0
178
     0
  0
ENDTAB
  0
ENDSEC
  0
SECTION
  2
BLOCKS
  0
BLOCK
  8
0
  2
$MODEL_SPACE
 70
     0
 10
0.0
 20
0.0
 30
0.0
  3
$MODEL_SPACE
  1

  0
ENDBLK
  5
644
  8
0
  0
BLOCK
 67
     1
  8
0
  2
$PAPER_SPACE
 70
     0
 10
0.0
 20
0.0
 30
0.0
  3
$PAPER_SPACE
  1

  0
ENDBLK
  5
642
 67
     1
  8
0
  0
ENDSEC
  0
SECTION
  2
ENTITIES
  0
ARC
  5
E4B
  8
2
 10
943.75034577814472
 20
156.87337146495591
 30
0.0
 40
15.9
 50
149.79173200000071
 51
210.20826799999651
  0
LINE
  5
E4C
  8
0
 10
930.00953077814449
 20
196.87337146495591
 30
0.0
 11
930.00953077814449
 21
146.87337146495591
 31
0.0
  0
LINE
  5
E4D
  8
0
 10
930.00953077814449
 20
146.87337146495591
 30
0.0
 11
732.00953077814449
 21
146.87337146495591
 31
0.0
  0
LINE
  5
E4E
  8
0
 10
732.00953077814449
 20
196.87337146495591
 30
0.0
 11
930.00953077814449
 21
196.87337146495591
 31
0.0
  0
ARC
  5
E4F
  8
2
 10
718.26871577814495
 20
156.87337146495591
 30
0.0
 40
15.9
 50
329.79173200000349
 51
30.208267999996451
  0
LINE
  5
E50
  8
1
 10
831.00953077814495
 20
206.87337146495591
 30
0.0
 11
831.00953077814472
 21
129.87337146495591
 31
0.0
  0
LINE
  5
E51
  8
0
 10
732.00953077814449
 20
146.87337146495591
 30
0.0
 11
732.00953077814449
 21
196.87337146495591
 31
0.0
  0
LINE
  5
E52
  8
1
 10
527.00953077814461
 20
365.87337146495588
 30
0.0
 11
682.00953077814449
 21
365.87337146495588
 31
0.0
  0
LINE
  5
E53
  8
1
 10
604.50953077814461
 20
474.87337146495611
 30
0.0
 11
604.50953077814461
 21
256.87337146495588
 31
0.0
  0
LINE
  5
E54
  8
1
 10
604.50953077814484
 20
206.87337146495591
 30
0.0
 11
604.50953077814461
 21
129.87337146495591
 31
0.0
  0
LINE
  5
E55
  8
1
 10
143.00953077814501
 20
206.87337146495591
 30
0.0
 11
143.00953077814481
 21
129.87337146495591
 31
0.0
  0
LINE
  5
E56
  8
1
 10
93.009530778144395
 20
201.8733714649558
 30
0.0
 11
93.009530778144864
 21
134.8733714649558
 31
0.0
  0
LINE
  5
E57
  8
2
 10
98.259530778144637
 20
139.8733714649558
 30
0.0
 11
98.259530778144637
 21
155.5743334649558
 31
0.0
  0
LINE
  5
E58
  8
2
 10
87.759530778144637
 20
139.8733714649558
 30
0.0
 11
87.759530778144637
 21
155.5743334649558
 31
0.0
  0
LINE
  5
E5B
  8
2
 10
87.009530778144637
 20
156.8733714649558
 30
0.0
 11
87.759530778144637
 21
155.5743334649558
 31
0.0
  0
LINE
  5
E5C
  8
2
 10
98.259530778144637
 20
155.5743334649558
 30
0.0
 11
87.759530778144637
 21
155.5743334649558
 31
0.0
  0
LINE
  5
E5D
  8
2
 10
103.00953077814459
 20
191.8733714649558
 30
0.0
 11
103.00953077814459
 21
196.8733714649558
 31
0.0
  0
LINE
  5
E5E
  8
2
 10
102.00953077814459
 20
156.8733714649558
 30
0.0
 11
102.00953077814459
 21
191.8733714649558
 31
0.0
  0
LINE
  5
E5F
  8
2
 10
83.009530778144637
 20
191.8733714649558
 30
0.0
 11
103.00953077814459
 21
191.8733714649558
 31
0.0
  0
LINE
  5
E61
  8
2
 10
102.00953077814459
 20
156.8733714649558
 30
0.0
 11
84.009530778144637
 21
156.8733714649558
 31
0.0
  0
LINE
  5
E62
  8
2
 10
84.009530778144637
 20
156.8733714649558
 30
0.0
 11
84.009530778144637
 21
191.8733714649558
 31
0.0
  0
LINE
  5
E63
  8
2
 10
83.009530778144637
 20
191.8733714649558
 30
0.0
 11
83.009530778144637
 21
196.8733714649558
 31
0.0
  0
LINE
  5
E64
  8
2
 10
99.009530778144637
 20
156.8733714649558
 30
0.0
 11
98.259530778144637
 21
155.5743334649558
 31
0.0
  0
LINE
  5
E66
  8
2
 10
187.75953077814509
 20
139.87337146495611
 30
0.0
 11
187.75953077814509
 21
155.57433346495611
 31
0.0
  0
LINE
  5
E67
  8
1
 10
193.00953077814529
 20
201.87337146495611
 30
0.0
 11
193.00953077814489
 21
134.87337146495611
 31
0.0
  0
LINE
  5
E69
  8
2
 10
198.25953077814509
 20
139.87337146495611
 30
0.0
 11
198.25953077814509
 21
155.57433346495611
 31
0.0
  0
LINE
  5
E6A
  8
2
 10
187.00953077814509
 20
156.87337146495611
 30
0.0
 11
187.75953077814509
 21
155.57433346495611
 31
0.0
  0
LINE
  5
E6B
  8
2
 10
203.00953077814509
 20
191.87337146495611
 30
0.0
 11
203.00953077814509
 21
196.87337146495611
 31
0.0
  0
LINE
  5
E6C
  8
2
 10
202.00953077814509
 20
156.87337146495611
 30
0.0
 11
202.00953077814509
 21
191.87337146495611
 31
0.0
  0
LINE
  5
E6D
  8
2
 10
184.00953077814509
 20
156.87337146495611
 30
0.0
 11
202.00953077814509
 21
156.87337146495611
 31
0.0
  0
LINE
  5
E6F
  8
2
 10
203.00953077814509
 20
191.87337146495611
 30
0.0
 11
183.00953077814509
 21
191.87337146495611
 31
0.0
  0
LINE
  5
E70
  8
2
 10
184.00953077814509
 20
156.87337146495611
 30
0.0
 11
184.00953077814509
 21
191.87337146495611
 31
0.0
  0
LINE
  5
E71
  8
2
 10
183.00953077814509
 20
191.87337146495611
 30
0.0
 11
183.00953077814509
 21
196.87337146495611
 31
0.0
  0
LINE
  5
E72
  8
2
 10
187.75953077814509
 20
155.57433346495611
 30
0.0
 11
198.25953077814509
 21
155.57433346495611
 31
0.0
  0
LINE
  5
E73
  8
2
 10
199.00953077814509
 20
156.87337146495611
 30
0.0
 11
198.25953077814509
 21
155.57433346495611
 31
0.0
  0
LINE
  5
E74
  8
1
 10
377.00953077814478
 20
430.87337146495611
 30
0.0
 11
377.00953077814478
 21
400.87337146495611
 31
0.0
  0
CIRCLE
  5
E75
  8
0
 10
377.00953077814478
 20
415.87337146495611
 30
0.0
 40
5.25
  0
LINE
  5
E76
  8
1
 10
392.00953077814489
 20
415.87337146495611
 30
0.0
 11
362.00953077814478
 21
415.87337146495611
 31
0.0
  0
CIRCLE
  5
E77
  8
0
 10
377.00953077814478
 20
315.87337146495588
 30
0.0
 40
5.25
  0
LINE
  5
E78
  8
1
 10
392.00953077814489
 20
315.87337146495588
 30
0.0
 11
362.00953077814478
 21
315.87337146495588
 31
0.0
  0
LINE
  5
E79
  8
1
 10
377.00953077814478
 20
300.87337146495588
 30
0.0
 11
377.00953077814478
 21
330.87337146495588
 31
0.0
  0
LINE
  5
E7A
  8
1
 10
377.00953077814478
 20
201.87337146495599
 30
0.0
 11
377.00953077814438
 21
134.87337146495591
 31
0.0
  0
LINE
  5
E7B
  8
1
 10
369.50953077814512
 20
206.87337146495591
 30
0.0
 11
369.50953077814489
 21
129.87337146495591
 31
0.0
  0
LINE
  5
E7C
  8
1
 10
369.50953077814489
 20
474.87337146495611
 30
0.0
 11
369.50953077814489
 21
256.87337146495588
 31
0.0
  0
LINE
  5
E7D
  8
1
 10
292.00953077814478
 20
365.87337146495599
 30
0.0
 11
447.00953077814478
 21
365.87337146495599
 31
0.0
  0
LINE
  5
E7E
  8
0
 10
437.00953077814478
 20
266.87337146495588
 30
0.0
 11
437.00953077814478
 21
464.87337146495588
 31
0.0
  0
ARC
  5
E7F
  8
2
 10
419.00953077814478
 20
478.61418646495582
 30
0.0
 40
15.9
 50
269.9999949999995
 51
300.20826800000009
  0
LINE
  5
E80
  8
2
 10
320.00953277814477
 20
462.7141864649559
 30
0.0
 11
419.00953277814477
 21
462.7141864649559
 31
0.0
  0
ARC
  5
E81
  8
2
 10
320.00953077814478
 20
478.61418646495582
 30
0.0
 40
15.9
 50
239.7917319999996
 51
270.00000400000562
  0
ARC
  5
E82
  8
2
 10
320.00953077814478
 20
253.132556464956
 30
0.0
 40
15.9
 50
89.999995999994397
 51
120.2082680000001
  0
LINE
  5
E83
  8
0
 10
44.009530778144843
 20
146.87337146495591
 30
0.0
 11
44.009530778144843
 21
196.87337146495591
 31
0.0
  0
ARC
  5
E84
  8
2
 10
30.268715778144951
 20
156.87337146495591
 30
0.0
 40
15.9
 50
329.79173200000349
 51
30.208267999996451
  0
LINE
  5
E85
  8
0
 10
101.0645307781445
 20
139.8733714649558
 30
0.0
 11
102.0645307781445
 21
140.8733714649558
 31
0.0
  0
LINE
  5
E86
  8
0
 10
102.0645307781445
 20
145.47337146495579
 30
0.0
 11
101.60265077814461
 21
146.2733714649558
 31
0.0
  0
ARC
  5
E87
  8
0
 10
101.9490607781445
 20
146.47337146495579
 30
0.0
 40
0.4
 50
90.0
 51
209.9999999999967
  0
ARC
  5
E88
  8
0
 10
84.080000778144523
 20
146.47337146495579
 30
0.0
 40
0.4
 50
330.00000000000051
 51
90.0
  0
LINE
  5
E89
  8
0
 10
83.964530778144564
 20
140.8733714649558
 30
0.0
 11
102.0645307781445
 21
140.8733714649558
 31
0.0
  0
LINE
  5
E8A
  8
0
 10
101.0645307781445
 20
139.8733714649558
 30
0.0
 11
84.964530778144564
 21
139.8733714649558
 31
0.0
  0
LINE
  5
E8B
  8
0
 10
84.964530778144564
 20
139.8733714649558
 30
0.0
 11
83.964530778144564
 21
140.8733714649558
 31
0.0
  0
LINE
  5
E8C
  8
0
 10
83.964530778144564
 20
145.47337146495579
 30
0.0
 11
84.426411778144512
 21
146.2733714649558
 31
0.0
  0
LINE
  5
E8D
  8
0
 10
83.964530778144564
 20
140.8733714649558
 30
0.0
 11
83.964530778144564
 21
145.47337146495579
 31
0.0
  0
LINE
  5
E8E
  8
0
 10
102.0645307781445
 20
140.8733714649558
 30
0.0
 11
102.0645307781445
 21
145.47337146495579
 31
0.0
  0
LINE
  5
E8F
  8
0
 10
44.009530778144843
 20
196.87337146495591
 30
0.0
 11
242.00953077814481
 21
196.87337146495591
 31
0.0
  0
LINE
  5
E90
  8
0
 10
242.00953077814481
 20
146.87337146495591
 30
0.0
 11
44.009530778144843
 21
146.87337146495591
 31
0.0
  0
ARC
  5
E92
  8
0
 10
419.00953077814478
 20
156.87337146495591
 30
0.0
 40
8.0
 50
270.0
 51
90.0
  0
LINE
  5
E93
  8
0
 10
302.00953077814478
 20
146.87337146495591
 30
0.0
 11
302.00953077814478
 21
196.87337146495591
 31
0.0
  0
LINE
  5
E94
  8
0
 10
302.00953077814478
 20
146.87337146495591
 30
0.0
 11
302.00953077814478
 21
196.87337146495591
 31
0.0
  0
LINE
  5
E95
  8
0
 10
302.00953077814478
 20
196.87337146495591
 30
0.0
 11
437.00953077814478
 21
196.87337146495591
 31
0.0
  0
LINE
  5
E96
  8
0
 10
437.00953077814478
 20
146.87337146495591
 30
0.0
 11
302.00953077814478
 21
146.87337146495591
 31
0.0
  0
LINE
  5
E97
  8
0
 10
419.00953077814478
 20
148.87337146495591
 30
0.0
 11
320.00953377814471
 21
148.87337146495591
 31
0.0
  0
ARC
  5
E98
  8
0
 10
320.00953077814478
 20
156.87337146495591
 30
0.0
 40
8.0
 50
90.000018999994083
 51
270.0000150000015
  0
LINE
  5
E99
  8
0
 10
419.00953077814478
 20
164.87337146495591
 30
0.0
 11
320.0095287781449
 21
164.87337146495591
 31
0.0
  0
LINE
  5
E9A
  8
0
 10
437.00953077814478
 20
196.87337146495591
 30
0.0
 11
437.00953077814478
 21
146.87337146495591
 31
0.0
  0
LINE
  5
E9B
  8
0
 10
437.00953077814478
 20
196.87337146495591
 30
0.0
 11
437.00953077814478
 21
146.87337146495591
 31
0.0
  0
LINE
  5
E9C
  8
0
 10
184.96453077814519
 20
139.87337146495611
 30
0.0
 11
184.96453077814519
 21
146.87337146495611
 31
0.0
  0
LINE
  5
E9D
  8
0
 10
190.0019297781453
 20
139.87337146495611
 30
0.0
 11
190.0019297781453
 21
146.87337146495611
 31
0.0
  0
LINE
  5
E9E
  8
0
 10
196.00713177814541
 20
139.87337146495611
 30
0.0
 11
196.00713177814541
 21
146.87337146495611
 31
0.0
  0
LINE
  5
E9F
  8
0
 10
201.0445307781454
 20
139.87337146495611
 30
0.0
 11
201.0445307781454
 21
146.87337146495611
 31
0.0
  0
LINE
  5
EA0
  8
0
 10
242.00953077814481
 20
196.87337146495591
 30
0.0
 11
242.00953077814481
 21
146.87337146495591
 31
0.0
  0
ARC
  5
EA1
  8
2
 10
255.750345778145
 20
156.87337146495591
 30
0.0
 40
15.9
 50
149.79173200000071
 51
210.20826799999651
  0
LINE
  5
EA2
  8
0
 10
190.0019297781453
 20
140.87337146495611
 30
0.0
 11
196.00713177814541
 21
140.87337146495611
 31
0.0
  0
LINE
  5
EA3
  8
0
 10
201.05453077814519
 20
139.87337146495611
 30
0.0
 11
184.96453077814519
 21
139.87337146495611
 31
0.0
  0
LINE
  5
EA4
  8
2
 10
320.00953277814477
 20
269.03255646495592
 30
0.0
 11
419.00953277814477
 21
269.03255646495592
 31
0.0
  0
ARC
  5
EA5
  8
2
 10
419.00953077814478
 20
253.132556464956
 30
0.0
 40
15.9
 50
59.791731999999918
 51
90.000005000000485
  0
LINE
  5
EA6
  8
0
 10
437.00953077814478
 20
464.87337146495588
 30
0.0
 11
302.00953077814478
 21
464.87337146495588
 31
0.0
  0
LINE
  5
EA7
  8
0
 10
302.00953077814478
 20
266.87337146495588
 30
0.0
 11
437.00953077814478
 21
266.87337146495588
 31
0.0
  0
LINE
  5
EA8
  8
0
 10
302.00953077814478
 20
464.87337146495588
 30
0.0
 11
302.00953077814478
 21
266.87337146495588
 31
0.0
  0
LINE
  5
EA9
  8
2
 10
383.00953077814461
 20
156.87337146495591
 30
0.0
 11
382.25953077814461
 21
155.57433346495591
 31
0.0
  0
LINE
  5
EAA
  8
2
 10
371.75953077814461
 20
155.57433346495591
 30
0.0
 11
382.25953077814461
 21
155.57433346495591
 31
0.0
  0
LINE
  5
EAB
  8
2
 10
367.00953077814461
 20
191.87337146495599
 30
0.0
 11
367.00953077814461
 21
196.87337146495591
 31
0.0
  0
LINE
  5
EAC
  8
0
 10
368.95953077814471
 20
139.87337146495591
 30
0.0
 11
367.9595307781446
 21
140.87337146495591
 31
0.0
  0
LINE
  5
EAD
  8
0
 10
367.9595307781446
 20
140.87337146495591
 30
0.0
 11
367.9595307781446
 21
145.4733714649559
 31
0.0
  0
LINE
  5
EAE
  8
2
 10
382.25953077814461
 20
139.87337146495591
 30
0.0
 11
382.25953077814461
 21
155.57433346495591
 31
0.0
  0
LINE
  5
EAF
  8
2
 10
371.75953077814461
 20
139.87337146495591
 30
0.0
 11
371.75953077814461
 21
155.57433346495591
 31
0.0
  0
LINE
  5
EB1
  8
2
 10
368.00953077814461
 20
156.87337146495591
 30
0.0
 11
368.00953077814461
 21
191.87337146495599
 31
0.0
  0
ARC
  5
EB2
  8
0
 10
368.07500077814461
 20
146.4733714649559
 30
0.0
 40
0.4
 50
330.00000000000051
 51
90.0
  0
LINE
  5
EB3
  8
0
 10
367.9595307781446
 20
145.4733714649559
 30
0.0
 11
368.42141077814449
 21
146.27337146495589
 31
0.0
  0
CIRCLE
  5
EB8
  8
0
 10
377.00953077814478
 20
415.87337146495588
 30
0.0
 40
9.0
  0
CIRCLE
  5
EB9
  8
0
 10
377.00953077814478
 20
415.87337146495588
 30
0.0
 40
10.0
  0
CIRCLE
  5
EBA
  8
0
 10
377.00953077814478
 20
315.87337146495588
 30
0.0
 40
10.0
  0
CIRCLE
  5
EBB
  8
0
 10
377.00953077814478
 20
315.87337146495588
 30
0.0
 40
9.0
  0
LINE
  5
EBF
  8
0
 10
537.00953077814484
 20
266.87337146495588
 30
0.0
 11
537.00953077814484
 21
464.87337146495588
 31
0.0
  0
LINE
  5
EC0
  8
0
 10
672.00953077814461
 20
146.87337146495591
 30
0.0
 11
672.00953077814461
 21
196.87337146495591
 31
0.0
  0
LINE
  5
EC1
  8
0
 10
672.00953077814461
 20
146.87337146495591
 30
0.0
 11
672.00953077814461
 21
196.87337146495591
 31
0.0
  0
LINE
  5
EC2
  8
0
 10
672.00953077814461
 20
196.87337146495591
 30
0.0
 11
537.00953077814484
 21
196.87337146495591
 31
0.0
  0
LINE
  5
EC3
  8
0
 10
537.00953077814484
 20
146.87337146495591
 30
0.0
 11
672.00953077814461
 21
146.87337146495591
 31
0.0
  0
LINE
  5
EC4
  8
0
 10
555.00953077814461
 20
148.87337146495591
 30
0.0
 11
654.00952877814484
 21
148.87337146495591
 31
0.0
  0
ARC
  5
EC5
  8
0
 10
654.00953077814461
 20
156.87337146495591
 30
0.0
 40
8.0
 50
269.9999849999985
 51
89.999981000005903
  0
LINE
  5
EC6
  8
0
 10
555.00953077814461
 20
164.87337146495591
 30
0.0
 11
654.00953377814471
 21
164.87337146495591
 31
0.0
  0
LINE
  5
EC7
  8
0
 10
537.00953077814484
 20
196.87337146495591
 30
0.0
 11
537.00953077814484
 21
146.87337146495591
 31
0.0
  0
LINE
  5
EC8
  8
0
 10
537.00953077814484
 20
196.87337146495591
 30
0.0
 11
537.00953077814484
 21
146.87337146495591
 31
0.0
  0
ARC
  5
EC9
  8
0
 10
555.00953077814461
 20
156.87337146495591
 30
0.0
 40
8.0
 50
90.0
 51
270.0
  0
LINE
  5
ECA
  8
0
 10
385.05953077814462
 20
139.87337146495591
 30
0.0
 11
368.95953077814471
 21
139.87337146495591
 31
0.0
  0
LINE
  5
ECB
  8
0
 10
386.05953077814462
 20
140.87337146495591
 30
0.0
 11
367.9595307781446
 21
140.87337146495591
 31
0.0
  0
LINE
  5
ECC
  8
2
 10
387.00953077814461
 20
191.87337146495599
 30
0.0
 11
367.00953077814461
 21
191.87337146495599
 31
0.0
  0
LINE
  5
ECF
  8
2
 10
368.00953077814461
 20
156.87337146495591
 30
0.0
 11
386.00953077814461
 21
156.87337146495591
 31
0.0
  0
LINE
  5
ED0
  8
2
 10
386.00953077814461
 20
156.87337146495591
 30
0.0
 11
386.00953077814461
 21
191.87337146495599
 31
0.0
  0
LINE
  5
ED1
  8
2
 10
387.00953077814461
 20
191.87337146495599
 30
0.0
 11
387.00953077814461
 21
196.87337146495591
 31
0.0
  0
LINE
  5
ED2
  8
0
 10
386.05953077814462
 20
145.4733714649559
 30
0.0
 11
385.59764977814461
 21
146.27337146495589
 31
0.0
  0
ARC
  5
ED3
  8
0
 10
385.94405977814449
 20
146.4733714649559
 30
0.0
 40
0.4
 50
90.0
 51
209.9999999999967
  0
LINE
  5
ED4
  8
0
 10
385.05953077814462
 20
139.87337146495591
 30
0.0
 11
386.05953077814462
 21
140.87337146495591
 31
0.0
  0
LINE
  5
ED5
  8
0
 10
386.05953077814462
 20
140.87337146495591
 30
0.0
 11
386.05953077814462
 21
145.4733714649559
 31
0.0
  0
LINE
  5
ED6
  8
2
 10
371.00953077814461
 20
156.87337146495591
 30
0.0
 11
371.75953077814461
 21
155.57433346495591
 31
0.0
  0
ARC
  5
ED7
  8
2
 10
555.00953077814461
 20
478.61418646495582
 30
0.0
 40
15.9
 50
239.7917319999996
 51
270.0000050000005
  0
LINE
  5
ED8
  8
2
 10
654.00952977814472
 20
462.7141864649559
 30
0.0
 11
555.00952977814472
 21
462.7141864649559
 31
0.0
  0
ARC
  5
ED9
  8
2
 10
654.00953077814461
 20
478.61418646495582
 30
0.0
 40
15.9
 50
269.99999599999438
 51
300.20826800000009
  0
ARC
  5
EDA
  8
2
 10
654.00953077814461
 20
253.132556464956
 30
0.0
 40
15.9
 50
59.791731999999918
 51
90.000004000005603
  0
LINE
  5
EDB
  8
2
 10
654.00952977814472
 20
269.03255646495592
 30
0.0
 11
555.00952977814472
 21
269.03255646495592
 31
0.0
  0
ARC
  5
EDC
  8
2
 10
555.00953077814461
 20
253.132556464956
 30
0.0
 40
15.9
 50
89.999994999999487
 51
120.2082680000001
  0
LINE
  5
EDD
  8
0
 10
537.00953077814484
 20
464.87337146495588
 30
0.0
 11
672.00953077814461
 21
464.87337146495588
 31
0.0
  0
LINE
  5
EDE
  8
0
 10
672.00953077814461
 20
266.87337146495588
 30
0.0
 11
537.00953077814484
 21
266.87337146495588
 31
0.0
  0
LINE
  5
EDF
  8
0
 10
672.00953077814461
 20
464.87337146495588
 30
0.0
 11
672.00953077814461
 21
266.87337146495588
 31
0.0
  0
LINE
  5
FBF
  8
5
 10
559.50953077814461
 20
393.87337146495582
 30
0.0
 11
559.50953077814461
 21
337.87337146495588
 31
0.0
  0
LINE
  5
FC0
  8
5
 10
649.50953077814438
 20
393.87337146495582
 30
0.0
 11
649.50953077814461
 21
337.87337146495588
 31
0.0
  0
LINE
  5
FC1
  8
5
 10
649.50953077814461
 20
337.87337146495588
 30
0.0
 11
559.50953077814461
 21
337.87337146495588
 31
0.0
  0
LINE
  5
FC2
  8
5
 10
649.50953077814438
 20
393.87337146495582
 30
0.0
 11
559.50953077814449
 21
393.87337146495582
 31
0.0
  0
LINE
  5
FC9
  8
5
 10
859.00953077814484
 20
167.8733714649558
 30
0.0
 11
803.00953077814472
 21
167.87337146495599
 31
0.0
  0
LINE
  5
FCA
  8
5
 10
171.00953077814489
 20
167.8733714649577
 30
0.0
 11
115.00953077814491
 21
167.8733714649579
 31
0.0
  0
LINE
  5
FCD
  8
5
 10
649.50953077814472
 20
167.87337146495599
 30
0.0
 11
649.50953077814472
 21
146.87337146495591
 31
0.0
  0
LINE
  5
FCE
  8
5
 10
559.50953077814472
 20
167.87337146495591
 30
0.0
 11
559.50953077814472
 21
146.87337146495591
 31
0.0
  0
LINE
  5
FCF
  8
5
 10
649.50953077814472
 20
167.87337146495591
 30
0.0
 11
559.50953077814472
 21
167.87337146495591
 31
0.0
  0
LINE
  5
FD0
  8
5
 10
421.00953077814478
 20
167.87337146495599
 30
0.0
 11
338.00953077814489
 21
167.87337146495591
 31
0.0
  0
LINE
  5
FE1
  8
5
 10
367.00953077814472
 20
166.873371464955
 30
0.0
 11
387.00953077814461
 21
166.87337146495489
 31
0.0
  0
LINE
  5
FF7
  8
5
 10
859.00953077814484
 20
167.87337146495591
 30
0.0
 11
859.00953077814461
 21
146.87337146495591
 31
0.0
  0
LINE
  5
FF8
  8
5
 10
803.00953077814472
 20
167.87337146495599
 30
0.0
 11
803.00953077814449
 21
146.87337146495591
 31
0.0
  0
CIRCLE
  5
FFC
  8
5
 10
377.00953077814478
 20
415.87337146495611
 30
0.0
 40
10.0
  0
CIRCLE
  5
FFD
  8
5
 10
377.00953077814478
 20
315.87337146495588
 30
0.0
 40
10.0
  0
LINE
  5
FFE
  8
5
 10
387.00953077814461
 20
166.87337146495489
 30
0.0
 11
387.00953077814438
 21
146.87337146495591
 31
0.0
  0
LINE
  5
FFF
  8
5
 10
367.00953077814461
 20
166.87337146495489
 30
0.0
 11
367.00953077814449
 21
146.87337146495591
 31
0.0
  0
LINE
  5
1002
  8
5
 10
421.00953077814478
 20
337.87337146495599
 30
0.0
 11
421.00953077814478
 21
393.87337146495599
 31
0.0
  0
LINE
  5
1003
  8
5
 10
338.00953077814489
 20
337.87337146495588
 30
0.0
 11
338.00953077814489
 21
393.87337146495599
 31
0.0
  0
LINE
  5
1004
  8
5
 10
338.00953077814489
 20
393.87337146495599
 30
0.0
 11
421.00953077814478
 21
393.87337146495599
 31
0.0
  0
LINE
  5
1005
  8
5
 10
338.00953077814489
 20
337.87337146495588
 30
0.0
 11
421.00953077814478
 21
337.87337146495588
 31
0.0
  0
LINE
  5
1006
  8
5
 10
421.00953077814478
 20
167.87337146495599
 30
0.0
 11
421.00953077814478
 21
146.87337146495591
 31
0.0
  0
LINE
  5
1007
  8
5
 10
338.00953077814489
 20
167.87337146495591
 30
0.0
 11
338.00953077814489
 21
146.87337146495591
 31
0.0
  0
LINE
  5
1008
  8
5
 10
171.00953077814489
 20
167.8733714649577
 30
0.0
 11
171.00953077814489
 21
146.87337146495591
 31
0.0
  0
LINE
  5
1009
  8
5
 10
115.00953077814491
 20
167.87337146495781
 30
0.0
 11
115.00953077814481
 21
146.87337146495591
 31
0.0
  0
LINE
  5
100C
  8
5
 10
203.0095307781452
 20
166.87337146495489
 30
0.0
 11
203.00953077814501
 21
146.87337146495591
 31
0.0
  0
LINE
  5
100D
  8
5
 10
183.0095307781452
 20
166.873371464955
 30
0.0
 11
203.00953077814509
 21
166.87337146495489
 31
0.0
  0
LINE
  5
100E
  8
5
 10
183.00953077814509
 20
166.87337146495489
 30
0.0
 11
183.00953077814501
 21
146.87337146495591
 31
0.0
  0
LINE
  5
100F
  8
5
 10
83.009530778145034
 20
166.873371464955
 30
0.0
 11
103.00953077814481
 21
166.87337146495489
 31
0.0
  0
LINE
  5
1010
  8
5
 10
83.009530778144935
 20
166.87337146495489
 30
0.0
 11
83.009530778144764
 21
146.87337146495591
 31
0.0
  0
LINE
  5
1011
  8
5
 10
103.00953077814491
 20
166.87337146495489
 30
0.0
 11
103.00953077814469
 21
146.87337146495591
 31
0.0
  0
TEXT
  5
10BD
  8
0
 62
     3
 10
0.0
 20
0.0
 30
0.0
 40
10.0
  1
SQL1540-SS20
  7
STANDARD1
  0
ENDSEC
  0
EOF
