  0
SECTION
  2
HEADER
  9
$ACADVER
  1
AC1009
  9
$INSBASE
 10
0.0
 20
0.0
 30
0.0
  9
$EXTMIN
 10
0.0
 20
-2.960436562073669
 30
0.0
  9
$EXTMAX
 10
1343.063673725844
 20
614.85061430221731
 30
0.0
  9
$LIMMIN
 10
0.0
 20
0.0
  9
$LIMMAX
 10
770.0
 20
540.0
  9
$ORTHOMODE
 70
     0
  9
$REGENMODE
 70
     1
  9
$FILLMODE
 70
     1
  9
$QTEXTMODE
 70
     0
  9
$MIRRTEXT
 70
     0
  9
$DRAGMODE
 70
     2
  9
$LTSCALE
 40
20.0
  9
$OSMODE
 70
    55
  9
$ATTMODE
 70
     1
  9
$TEXTSIZE
 40
4.000000000000048
  9
$TRACEWID
 40
0.05
  9
$TEXTSTYLE
  7
STANDARD
  9
$CLAYER
  8
5
  9
$CELTYPE
  6
BYLAYER
  9
$CECOLOR
 62
   256
  9
$DIMSCALE
 40
2.0
  9
$DIMASZ
 40
3.0
  9
$DIMEXO
 40
2.0
  9
$DIMDLI
 40
0.38
  9
$DIMRND
 40
0.0
  9
$DIMDLE
 40
0.0
  9
$DIMEXE
 40
2.0
  9
$DIMTP
 40
0.0
  9
$DIMTM
 40
0.0
  9
$DIMTXT
 40
3.0
  9
$DIMCEN
 40
0.0
  9
$DIMTSZ
 40
0.0
  9
$DIMTOL
 70
     0
  9
$DIMLIM
 70
     0
  9
$DIMTIH
 70
     0
  9
$DIMTOH
 70
     0
  9
$DIMSE1
 70
     0
  9
$DIMSE2
 70
     0
  9
$DIMTAD
 70
     1
  9
$DIMZIN
 70
     0
  9
$DIMBLK
  1

  9
$DIMASO
 70
     0
  9
$DIMSHO
 70
     0
  9
$DIMPOST
  1

  9
$DIMAPOST
  1

  9
$DIMALT
 70
     0
  9
$DIMALTD
 70
     2
  9
$DIMALTF
 40
25.399999999999999
  9
$DIMLFAC
 40
1.0
  9
$DIMTOFL
 70
     0
  9
$DIMTVP
 40
1.6000000000000001
  9
$DIMTIX
 70
     1
  9
$DIMSOXD
 70
     0
  9
$DIMSAH
 70
     0
  9
$DIMBLK1
  1

  9
$DIMBLK2
  1

  9
$DIMSTYLE
  2
STANDARD
  9
$DIMCLRD
 70
     4
  9
$DIMCLRE
 70
     4
  9
$DIMCLRT
 70
     4
  9
$DIMTFAC
 40
1.0
  9
$DIMGAP
 40
0.09
  9
$LUNITS
 70
     2
  9
$LUPREC
 70
     1
  9
$SKETCHINC
 40
0.1
  9
$FILLETRAD
 40
0.0
  9
$AUNITS
 70
     0
  9
$AUPREC
 70
     0
  9
$MENU
  1
E:\r13\win\SUPPORT\ACAD
  9
$ELEVATION
 40
0.0
  9
$PELEVATION
 40
0.0
  9
$THICKNESS
 40
0.0
  9
$LIMCHECK
 70
     0
  9
$BLIPMODE
 70
     0
  9
$CHAMFERA
 40
1.1999999999999991
  9
$CHAMFERB
 40
1.1999999999999991
  9
$SKPOLY
 70
     0
  9
$TDCREATE
 40
2450158.583426042
  9
$TDUPDATE
 40
2456598.5554461689
  9
$TDINDWG
 40
0.1683114468
  9
$TDUSRTIMER
 40
0.1683114468
  9
$USRTIMER
 70
     1
  9
$ANGBASE
 50
0.0
  9
$ANGDIR
 70
     0
  9
$PDMODE
 70
     0
  9
$PDSIZE
 40
0.0
  9
$PLINEWID
 40
0.0
  9
$COORDS
 70
     1
  9
$SPLFRAME
 70
     0
  9
$SPLINETYPE
 70
     6
  9
$SPLINESEGS
 70
     8
  9
$ATTDIA
 70
     0
  9
$ATTREQ
 70
     1
  9
$HANDLING
 70
     1
  9
$HANDSEED
  5
13A4
  9
$SURFTAB1
 70
     6
  9
$SURFTAB2
 70
     6
  9
$SURFTYPE
 70
     6
  9
$SURFU
 70
     6
  9
$SURFV
 70
     6
  9
$UCSNAME
  2

  9
$UCSORG
 10
0.0
 20
0.0
 30
0.0
  9
$UCSXDIR
 10
1.0
 20
0.0
 30
0.0
  9
$UCSYDIR
 10
0.0
 20
1.0
 30
0.0
  9
$PUCSNAME
  2

  9
$PUCSORG
 10
0.0
 20
0.0
 30
0.0
  9
$PUCSXDIR
 10
1.0
 20
0.0
 30
0.0
  9
$PUCSYDIR
 10
0.0
 20
1.0
 30
0.0
  9
$USERI1
 70
     3
  9
$USERI2
 70
     1
  9
$USERI3
 70
     0
  9
$USERI4
 70
     0
  9
$USERI5
 70
     0
  9
$USERR1
 40
2.0
  9
$USERR2
 40
3.0
  9
$USERR3
 40
3.0
  9
$USERR4
 40
3.0
  9
$USERR5
 40
10.0
  9
$WORLDVIEW
 70
     1
  9
$SHADEDGE
 70
     3
  9
$SHADEDIF
 70
    70
  9
$TILEMODE
 70
     1
  9
$MAXACTVP
 70
    16
  9
$PLIMCHECK
 70
     0
  9
$PEXTMIN
 10
1.0000000000000000E+020
 20
1.0000000000000000E+020
 30
1.0000000000000000E+020
  9
$PEXTMAX
 10
-1.0000000000000000E+020
 20
-1.0000000000000000E+020
 30
-1.0000000000000000E+020
  9
$PLIMMIN
 10
0.0
 20
0.0
  9
$PLIMMAX
 10
12.0
 20
9.0
  9
$UNITMODE
 70
     0
  9
$VISRETAIN
 70
     0
  9
$PLINEGEN
 70
     0
  9
$PSLTSCALE
 70
     0
  0
ENDSEC
  0
SECTION
  2
TABLES
  0
TABLE
  2
VPORT
 70
     1
  0
VPORT
  2
*ACTIVE
 70
     0
 10
0.0
 20
0.0
 11
1.0
 21
1.0
 12
671.53183998998622
 22
449.7583122373768
 13
0.0
 23
0.0
 14
10.0
 24
10.0
 15
10.0
 25
10.0
 16
0.0
 26
0.0
 36
1.0
 17
0.0
 27
0.0
 37
0.0
 40
913.43690421897759
 41
1.7807262569832401
 42
50.0
 43
0.0
 44
0.0
 50
0.0
 51
0.0
 71
     0
 72
   500
 73
     1
 74
     0
 75
     0
 76
     0
 77
     0
 78
     2
  0
ENDTAB
  0
TABLE
  2
LTYPE
 70
     4
  0
LTYPE
  2
CONTINUOUS
 70
     0
  3
Solid Line
 72
    65
 73
     0
 40
0.0
  0
LTYPE
  2
CENTER
 70
     0
  3
____ _ ____ _ ____ _ ____ _ ____ _ ____ _ ____
 72
    65
 73
     4
 40
2.0
 49
1.25
 49
-0.25
 49
0.25
 49
-0.25
  0
LTYPE
  2
HIDDEN
 70
     0
  3
_ _ _ _ _ _ _ _ _ _ _ _ _ _ _ _ _ _ _ _ _ _ _
 72
    65
 73
     2
 40
0.375
 49
0.25
 49
-0.125
  0
LTYPE
  2
PHANTOM2
 70
     0
  3
Phantom (.5x) ___ _ _ ___ _ _ ___ _ _ ___ _ _
 72
    65
 73
     6
 40
1.25
 49
0.625
 49
-0.125
 49
0.125
 49
-0.125
 49
0.125
 49
-0.125
  0
ENDTAB
  0
TABLE
  2
LAYER
 70
     4
  0
LAYER
  2
0
 70
     0
 62
     7
  6
CONTINUOUS
  0
LAYER
  2
1
 70
     0
 62
     1
  6
CENTER
  0
LAYER
  2
2
 70
     0
 62
     2
  6
HIDDEN
  0
LAYER
  2
5
 70
     0
 62
     3
  6
PHANTOM2
  0
ENDTAB
  0
TABLE
  2
STYLE
 70
     2
  0
STYLE
  2
STANDARD
 70
     0
 40
0.0
 41
1.0
 50
0.0
 71
     0
 42
4.000000000000048
  3
SIMPLEX
  4
BIGFONT
  0
STYLE
  2
STANDARD1
 70
     0
 40
0.0
 41
1.0
 50
0.0
 71
     0
 42
3.0
  3
txt
  4

  0
ENDTAB
  0
TABLE
  2
VIEW
 70
     1
  0
VIEW
  2
ALL
 70
     0
 40
179.5384664489153
 10
146.94997169852391
 20
89.769233224457665
 41
0.0
 11
0.0
 21
0.0
 31
1.0
 12
0.0
 22
0.0
 32
0.0
 42
50.0
 43
0.0
 44
0.0
 50
0.0
 71
     0
  0
ENDTAB
  0
TABLE
  2
UCS
 70
     0
  0
ENDTAB
  0
TABLE
  2
APPID
 70
     3
  0
APPID
  2
ACAD
 70
     0
  0
APPID
  2
ACAD_MLEADERVER
 70
     0
  0
APPID
  2
ACAD_NAV_VCDISPLAY
 70
     0
  0
ENDTAB
  0
TABLE
  2
DIMSTYLE
 70
     1
  0
DIMSTYLE
  2
STANDARD
 70
     0
  3

  4

  5

  6

  7

 40
1.0
 41
0.18
 42
0.0625
 43
0.38
 44
0.18
 45
0.0
 46
0.0
 47
0.0
 48
0.0
140
0.18
141
0.09
142
0.0
143
25.399999999999999
144
1.0
145
0.0
146
1.0
147
0.09
 71
     0
 72
     0
 73
     1
 74
     1
 75
     0
 76
     0
 77
     0
 78
     0
170
     0
171
     2
172
     0
173
     0
174
     0
175
     0
176
     0
177
     0
178
     0
  0
ENDTAB
  0
ENDSEC
  0
SECTION
  2
BLOCKS
  0
BLOCK
  8
0
  2
$MODEL_SPACE
 70
     0
 10
0.0
 20
0.0
 30
0.0
  3
$MODEL_SPACE
  1

  0
ENDBLK
  5
644
  8
0
  0
BLOCK
 67
     1
  8
0
  2
$PAPER_SPACE
 70
     0
 10
0.0
 20
0.0
 30
0.0
  3
$PAPER_SPACE
  1

  0
ENDBLK
  5
642
 67
     1
  8
0
  0
ENDSEC
  0
SECTION
  2
ENTITIES
  0
LINE
  5
1146
  8
0
 10
1343.063673725844
 20
326.85061430221708
 30
0.0
 11
1343.063673725844
 21
376.85061430221708
 31
0.0
  0
ARC
  5
1147
  8
2
 10
1356.8044887258441
 20
336.85061430221708
 30
0.0
 40
15.9
 50
149.79173200000349
 51
210.20826799999651
  0
LINE
  5
1148
  8
0
 10
1343.063673725844
 20
376.85061430221708
 30
0.0
 11
1195.063673725844
 21
376.85061430221708
 31
0.0
  0
LINE
  5
1149
  8
0
 10
1195.063673725844
 20
326.85061430221708
 30
0.0
 11
1343.063673725844
 21
326.85061430221708
 31
0.0
  0
LINE
  5
114A
  8
0
 10
980.0636737258443
 20
604.85061430221731
 30
0.0
 11
1115.063673725844
 21
604.85061430221731
 31
0.0
  0
LINE
  5
114B
  8
0
 10
1115.063673725844
 20
456.85061430221708
 30
0.0
 11
980.0636737258443
 21
456.85061430221708
 31
0.0
  0
LINE
  5
114C
  8
0
 10
1115.063673725844
 20
604.85061430221731
 30
0.0
 11
1115.063673725844
 21
456.85061430221708
 31
0.0
  0
LINE
  5
114D
  8
0
 10
980.0636737258443
 20
456.85061430221708
 30
0.0
 11
980.0636737258443
 21
604.85061430221731
 31
0.0
  0
ARC
  5
114E
  8
2
 10
998.06367372584452
 20
618.59142930221685
 30
0.0
 40
15.9
 50
239.79173199999991
 51
270.0000050000005
  0
LINE
  5
114F
  8
2
 10
1097.063671725844
 20
602.6914293022171
 30
0.0
 11
998.06367172584453
 21
602.6914293022171
 31
0.0
  0
ARC
  5
1150
  8
2
 10
1097.063673725844
 20
618.59142930221685
 30
0.0
 40
15.9
 50
269.99999600000092
 51
300.20826800000009
  0
ARC
  5
1151
  8
2
 10
1097.063673725844
 20
443.1097993022172
 30
0.0
 40
15.9
 50
59.791731999999918
 51
90.00000399999908
  0
LINE
  5
1152
  8
2
 10
1097.063671725844
 20
459.009799302217
 30
0.0
 11
998.06367172584453
 21
459.009799302217
 31
0.0
  0
ARC
  5
1153
  8
2
 10
998.06367372584452
 20
443.1097993022172
 30
0.0
 40
15.9
 50
89.999994999999487
 51
120.2082680000001
  0
LINE
  5
1154
  8
0
 10
1195.063673725844
 20
376.85061430221708
 30
0.0
 11
1195.063673725844
 21
326.85061430221708
 31
0.0
  0
ARC
  5
1155
  8
2
 10
1181.3228587258441
 20
336.85061430221708
 30
0.0
 40
15.9
 50
329.79173199999991
 51
30.208268000000079
  0
ARC
  5
1156
  8
0
 10
998.0636737258443
 20
336.85061430221708
 30
0.0
 40
8.0
 50
90.0
 51
270.0
  0
LINE
  5
1157
  8
0
 10
1115.063673725844
 20
326.85061430221708
 30
0.0
 11
1115.063673725844
 21
376.85061430221708
 31
0.0
  0
LINE
  5
1158
  8
0
 10
1115.063673725844
 20
326.85061430221708
 30
0.0
 11
1115.063673725844
 21
376.85061430221708
 31
0.0
  0
LINE
  5
1159
  8
0
 10
1115.063673725844
 20
376.85061430221708
 30
0.0
 11
980.0636737258443
 21
376.85061430221708
 31
0.0
  0
LINE
  5
115A
  8
0
 10
980.0636737258443
 20
326.85061430221708
 30
0.0
 11
1115.063673725844
 21
326.85061430221708
 31
0.0
  0
LINE
  5
115B
  8
0
 10
998.0636737258443
 20
328.85061430221708
 30
0.0
 11
1097.0636707258441
 21
328.85061430221708
 31
0.0
  0
ARC
  5
115C
  8
0
 10
1097.063673725844
 20
336.85061430221708
 30
0.0
 40
8.0
 50
269.9999849999985
 51
89.999980999999394
  0
LINE
  5
115D
  8
0
 10
998.0636737258443
 20
344.85061430221708
 30
0.0
 11
1097.063675725844
 21
344.85061430221708
 31
0.0
  0
LINE
  5
115E
  8
0
 10
980.0636737258443
 20
376.85061430221708
 30
0.0
 11
980.0636737258443
 21
326.85061430221708
 31
0.0
  0
LINE
  5
115F
  8
0
 10
980.0636737258443
 20
376.85061430221708
 30
0.0
 11
980.0636737258443
 21
326.85061430221708
 31
0.0
  0
LINE
  5
1160
  8
1
 10
1047.563673725844
 20
614.85061430221731
 30
0.0
 11
1047.563673725844
 21
446.85061430221702
 31
0.0
  0
LINE
  5
1161
  8
1
 10
1269.063673725844
 20
386.85061430221708
 30
0.0
 11
1269.063673725844
 21
316.85061430221708
 31
0.0
  0
LINE
  5
1162
  8
1
 10
970.0636737258443
 20
530.8506143022172
 30
0.0
 11
1125.063673725844
 21
530.8506143022172
 31
0.0
  0
LINE
  5
1163
  8
1
 10
1047.563673725844
 20
386.85061430221708
 30
0.0
 11
1047.563673725844
 21
316.85061430221708
 31
0.0
  0
LINE
  5
116E
  8
5
 10
191.06367372584381
 20
347.85061430221702
 30
0.0
 11
135.06367372584381
 21
347.85061430221708
 31
0.0
  0
LINE
  5
116F
  8
5
 10
429.56367372584373
 20
347.85061430221708
 30
0.0
 11
339.56367372584373
 21
347.85061430221702
 31
0.0
  0
LINE
  5
1174
  8
5
 10
339.56367372584373
 20
347.85061430221708
 30
0.0
 11
339.56367372584373
 21
326.85061430221708
 31
0.0
  0
LINE
  5
1175
  8
5
 10
429.56367372584373
 20
347.85061430221708
 30
0.0
 11
429.56367372584373
 21
326.85061430221702
 31
0.0
  0
LINE
  5
1176
  8
5
 10
339.56367372584373
 20
558.85061430221708
 30
0.0
 11
339.56367372584373
 21
502.85061430221708
 31
0.0
  0
LINE
  5
1177
  8
5
 10
429.56367372584361
 20
558.85061430221708
 30
0.0
 11
429.56367372584361
 21
502.85061430221708
 31
0.0
  0
LINE
  5
1178
  8
0
 10
764.09867372584415
 20
319.85061430221708
 30
0.0
 11
764.09867372584415
 21
326.85061430221708
 31
0.0
  0
LINE
  5
1179
  8
0
 10
759.0612747258441
 20
319.85061430221708
 30
0.0
 11
759.0612747258441
 21
326.85061430221708
 31
0.0
  0
LINE
  5
117A
  8
0
 10
753.05607272584405
 20
319.85061430221708
 30
0.0
 11
753.05607272584405
 21
326.85061430221708
 31
0.0
  0
LINE
  5
117B
  8
0
 10
748.01867372584388
 20
319.85061430221708
 30
0.0
 11
748.01867372584388
 21
326.85061430221708
 31
0.0
  0
LINE
  5
117C
  8
0
 10
764.09867372584404
 20
319.85061430221702
 30
0.0
 11
748.01867372584388
 21
319.85061430221708
 31
0.0
  0
LINE
  5
117D
  8
0
 10
753.05607272584405
 20
320.85061430221708
 30
0.0
 11
759.0612747258441
 21
320.85061430221708
 31
0.0
  0
ARC
  5
1184
  8
2
 10
891.32623939755445
 20
338.3506142832004
 30
0.0
 40
15.9
 50
143.31006599999839
 51
180.00000200000281
  0
ARC
  5
1185
  8
2
 10
891.32623939755445
 20
338.35061432123382
 30
0.0
 40
15.9
 50
179.99999799999719
 51
216.68993400000161
  0
ARC
  5
1186
  8
2
 10
719.31377177960564
 20
338.35061432123382
 30
0.0
 40
15.9
 50
323.31006599999841
 51
0.0000020000028068
  0
ARC
  5
1187
  8
2
 10
719.31377177960564
 20
338.3506142832004
 30
0.0
 40
15.9
 50
359.99999799999722
 51
36.689934000001557
  0
LINE
  5
1188
  8
1
 10
856.06367372584373
 20
381.85061430221708
 30
0.0
 11
856.06367372584373
 21
314.85061430221708
 31
0.0
  0
LINE
  5
1189
  8
2
 10
865.06367372584373
 20
336.85061430221708
 30
0.0
 11
865.06367372584373
 21
371.85061430221708
 31
0.0
  0
ARC
  5
118A
  8
0
 10
864.99820372584372
 20
326.4506143022171
 30
0.0
 40
0.4
 50
90.0
 51
209.99999999999969
  0
LINE
  5
118B
  8
0
 10
865.1136737258438
 20
325.4506143022171
 30
0.0
 11
864.65179372584385
 21
326.25061430221717
 31
0.0
  0
LINE
  5
118C
  8
0
 10
847.01367372584389
 20
325.4506143022171
 30
0.0
 11
847.47555472584372
 21
326.25061430221717
 31
0.0
  0
ARC
  5
118D
  8
0
 10
847.12914472584384
 20
326.4506143022171
 30
0.0
 40
0.4
 50
330.00000000000171
 51
90.0
  0
LINE
  5
118E
  8
0
 10
864.1136737258438
 20
319.85061430221708
 30
0.0
 11
865.1136737258438
 21
320.85061430221708
 31
0.0
  0
LINE
  5
118F
  8
0
 10
848.01367372584389
 20
319.85061430221708
 30
0.0
 11
847.01367372584389
 21
320.85061430221708
 31
0.0
  0
LINE
  5
1190
  8
0
 10
847.01367372584389
 20
320.85061430221708
 30
0.0
 11
847.01367372584389
 21
325.4506143022171
 31
0.0
  0
LINE
  5
1191
  8
0
 10
865.1136737258438
 20
320.85061430221708
 30
0.0
 11
865.1136737258438
 21
325.4506143022171
 31
0.0
  0
LINE
  5
1192
  8
0
 10
848.01367372584389
 20
319.85061430221708
 30
0.0
 11
864.1136737258438
 21
319.85061430221708
 31
0.0
  0
LINE
  5
1193
  8
0
 10
847.01367372584389
 20
320.85061430221708
 30
0.0
 11
865.1136737258438
 21
320.85061430221708
 31
0.0
  0
LINE
  5
1194
  8
2
 10
846.06367372584384
 20
371.85061430221708
 30
0.0
 11
866.06367372584396
 21
371.85061430221708
 31
0.0
  0
LINE
  5
1195
  8
2
 10
850.81367372584373
 20
319.85061430221708
 30
0.0
 11
850.81367372584373
 21
335.5515763022172
 31
0.0
  0
LINE
  5
1196
  8
2
 10
861.31367372584384
 20
319.85061430221708
 30
0.0
 11
861.31367372584384
 21
335.5515763022172
 31
0.0
  0
LINE
  5
1197
  8
2
 10
865.06367372584373
 20
336.85061430221708
 30
0.0
 11
847.06367372584384
 21
336.85061430221708
 31
0.0
  0
LINE
  5
1198
  8
2
 10
862.06367372584384
 20
336.85061430221708
 30
0.0
 11
861.31367372584384
 21
335.5515763022172
 31
0.0
  0
LINE
  5
1199
  8
2
 10
850.06367372584396
 20
336.85061430221708
 30
0.0
 11
850.81367372584373
 21
335.5515763022172
 31
0.0
  0
LINE
  5
119A
  8
2
 10
861.31367372584384
 20
335.5515763022172
 30
0.0
 11
850.81367372584373
 21
335.5515763022172
 31
0.0
  0
LINE
  5
119B
  8
2
 10
847.06367372584384
 20
336.85061430221708
 30
0.0
 11
847.06367372584384
 21
371.85061430221708
 31
0.0
  0
LINE
  5
119C
  8
2
 10
846.06367372584384
 20
371.85061430221708
 30
0.0
 11
846.06367372584384
 21
376.85061430221708
 31
0.0
  0
LINE
  5
119D
  8
2
 10
866.06367372584396
 20
371.85061430221708
 30
0.0
 11
866.06367372584396
 21
376.85061430221708
 31
0.0
  0
LINE
  5
119E
  8
1
 10
805.3200055885801
 20
386.85061430221708
 30
0.0
 11
805.3200055885801
 21
309.8506143022172
 31
0.0
  0
LINE
  5
119F
  8
2
 10
766.06367372584396
 20
371.85061430221708
 30
0.0
 11
766.06367372584396
 21
376.85061430221708
 31
0.0
  0
LINE
  5
11A0
  8
2
 10
746.06367372584396
 20
371.85061430221708
 30
0.0
 11
746.06367372584396
 21
376.85061430221708
 31
0.0
  0
LINE
  5
11A1
  8
2
 10
747.06367372584396
 20
336.85061430221708
 30
0.0
 11
747.06367372584396
 21
371.85061430221708
 31
0.0
  0
LINE
  5
11A2
  8
2
 10
761.31367372584396
 20
335.5515763022172
 30
0.0
 11
750.81367372584396
 21
335.5515763022172
 31
0.0
  0
LINE
  5
11A3
  8
2
 10
750.06367372584396
 20
336.85061430221708
 30
0.0
 11
750.81367372584396
 21
335.5515763022172
 31
0.0
  0
LINE
  5
11A4
  8
2
 10
762.06367372584396
 20
336.85061430221708
 30
0.0
 11
761.31367372584396
 21
335.5515763022172
 31
0.0
  0
LINE
  5
11A5
  8
2
 10
765.06367372584396
 20
336.85061430221708
 30
0.0
 11
747.06367372584396
 21
336.85061430221708
 31
0.0
  0
LINE
  5
11A6
  8
2
 10
761.31367372584396
 20
319.85061430221708
 30
0.0
 11
761.31367372584396
 21
335.5515763022172
 31
0.0
  0
LINE
  5
11A7
  8
2
 10
750.81367372584396
 20
319.85061430221708
 30
0.0
 11
750.81367372584396
 21
335.5515763022172
 31
0.0
  0
LINE
  5
11A8
  8
2
 10
746.06367372584396
 20
371.85061430221708
 30
0.0
 11
766.06367372584396
 21
371.85061430221708
 31
0.0
  0
LINE
  5
11A9
  8
2
 10
765.06367372584396
 20
336.85061430221708
 30
0.0
 11
765.06367372584396
 21
371.85061430221708
 31
0.0
  0
LINE
  5
11AA
  8
1
 10
756.06367372584396
 20
381.85061430221708
 30
0.0
 11
756.06367372584396
 21
314.85061430221708
 31
0.0
  0
LINE
  5
11AB
  8
0
 10
732.06367372584384
 20
326.85061430221708
 30
0.0
 11
880.06367372584407
 21
326.8506143022172
 31
0.0
  0
LINE
  5
11AC
  8
0
 10
732.06367372584373
 20
376.85061430221708
 30
0.0
 11
880.06367372584407
 21
376.85061430221708
 31
0.0
  0
LINE
  5
11AD
  8
0
 10
880.06367372584407
 20
376.85061430221708
 30
0.0
 11
880.06367372584407
 21
326.85061430221708
 31
0.0
  0
LINE
  5
11AE
  8
0
 10
732.06367372584373
 20
376.85061430221708
 30
0.0
 11
732.06367372584373
 21
326.85061430221702
 31
0.0
  0
CIRCLE
  5
11B3
  8
0
 10
602.06367372584373
 20
580.85061430221697
 30
0.0
 40
5.2500000000002274
  0
CIRCLE
  5
11B4
  8
0
 10
602.06367372584373
 20
580.85061430221697
 30
0.0
 40
9.0000000000001137
  0
CIRCLE
  5
11B5
  8
0
 10
602.06367372584373
 20
580.85061430221697
 30
0.0
 40
10.0
  0
LINE
  5
11B6
  8
1
 10
587.06367372584373
 20
580.85061430221697
 30
0.0
 11
617.06367372584373
 21
580.85061430221697
 31
0.0
  0
LINE
  5
11B7
  8
1
 10
587.06367372584373
 20
480.85061430221702
 30
0.0
 11
617.06367372584373
 21
480.85061430221702
 31
0.0
  0
CIRCLE
  5
11B8
  8
0
 10
602.06367372584373
 20
480.85061430221702
 30
0.0
 40
10.0
  0
CIRCLE
  5
11B9
  8
0
 10
602.06367372584373
 20
480.85061430221702
 30
0.0
 40
9.0000000000001137
  0
CIRCLE
  5
11BA
  8
0
 10
602.06367372584373
 20
480.85061430221702
 30
0.0
 40
5.2500000000002274
  0
LINE
  5
11BB
  8
1
 10
662.06367372584361
 20
530.85061430221697
 30
0.0
 11
542.06367372584373
 21
530.8506143022172
 31
0.0
  0
LINE
  5
11BC
  8
1
 10
602.06367372584373
 20
614.85061430221731
 30
0.0
 11
602.06367372584373
 21
446.85061430221702
 31
0.0
  0
LINE
  5
11BD
  8
1
 10
602.06367372584373
 20
386.85061430221708
 30
0.0
 11
602.06367372584373
 21
309.8506143022172
 31
0.0
  0
LINE
  5
11BE
  8
0
 10
552.06367372584373
 20
326.85061430221708
 30
0.0
 11
652.06367372584373
 21
326.85061430221708
 31
0.0
  0
LINE
  5
11BF
  8
0
 10
552.06367372584373
 20
376.85061430221708
 30
0.0
 11
652.06367372584373
 21
376.85061430221708
 31
0.0
  0
LINE
  5
11C0
  8
0
 10
552.06367372584373
 20
456.85061430221708
 30
0.0
 11
552.06367372584373
 21
604.85061430221731
 31
0.0
  0
LINE
  5
11C1
  8
0
 10
652.06367372584373
 20
456.85061430221708
 30
0.0
 11
552.06367372584373
 21
456.85061430221708
 31
0.0
  0
LINE
  5
11C2
  8
0
 10
552.06367372584373
 20
604.85061430221731
 30
0.0
 11
652.06367372584373
 21
604.85061430221731
 31
0.0
  0
LINE
  5
11C3
  8
5
 10
592.06367372584373
 20
346.85061430221708
 30
0.0
 11
612.06367372584373
 21
346.85061430221708
 31
0.0
  0
LINE
  5
11C6
  8
2
 10
611.06367372584373
 20
336.85061430221708
 30
0.0
 11
611.06367372584373
 21
371.85061430221708
 31
0.0
  0
ARC
  5
11C7
  8
0
 10
610.99820372584372
 20
326.4506143022171
 30
0.0
 40
0.4
 50
90.0
 51
209.99999999999969
  0
LINE
  5
11C8
  8
0
 10
611.11367372584357
 20
325.4506143022171
 30
0.0
 11
610.65179372584385
 21
326.25061430221717
 31
0.0
  0
LINE
  5
11C9
  8
0
 10
593.01367372584366
 20
325.4506143022171
 30
0.0
 11
593.47555472584372
 21
326.25061430221717
 31
0.0
  0
ARC
  5
11CA
  8
0
 10
593.12914472584384
 20
326.4506143022171
 30
0.0
 40
0.4
 50
330.00000000000171
 51
90.0
  0
LINE
  5
11CB
  8
0
 10
610.11367372584357
 20
319.85061430221708
 30
0.0
 11
611.11367372584357
 21
320.85061430221708
 31
0.0
  0
ARC
  5
11CC
  8
0
 10
601.06367372584373
 20
338.35061430221708
 30
0.0
 40
9.5
 50
90.0
 51
270.0
  0
ARC
  5
11CD
  8
0
 10
603.06367372584373
 20
338.35061430221708
 30
0.0
 40
9.5
 50
270.0
 51
90.0
  0
LINE
  5
11CE
  8
0
 10
601.06367372584373
 20
328.85061430221708
 30
0.0
 11
603.06367372584373
 21
328.85061430221708
 31
0.0
  0
LINE
  5
11CF
  8
0
 10
594.01367372584377
 20
319.85061430221708
 30
0.0
 11
593.01367372584366
 21
320.85061430221708
 31
0.0
  0
LINE
  5
11D0
  8
0
 10
593.01367372584366
 20
320.85061430221708
 30
0.0
 11
593.01367372584366
 21
325.4506143022171
 31
0.0
  0
LINE
  5
11D1
  8
0
 10
611.11367372584357
 20
320.85061430221708
 30
0.0
 11
611.11367372584357
 21
325.4506143022171
 31
0.0
  0
LINE
  5
11D2
  8
0
 10
594.01367372584377
 20
319.85061430221708
 30
0.0
 11
610.11367372584357
 21
319.85061430221708
 31
0.0
  0
LINE
  5
11D3
  8
0
 10
593.01367372584366
 20
320.85061430221708
 30
0.0
 11
611.11367372584357
 21
320.85061430221708
 31
0.0
  0
LINE
  5
11D4
  8
0
 10
652.06367372584373
 20
326.85061430221708
 30
0.0
 11
652.06367372584373
 21
376.85061430221708
 31
0.0
  0
LINE
  5
11D5
  8
2
 10
592.06367372584373
 20
371.85061430221708
 30
0.0
 11
612.06367372584373
 21
371.85061430221708
 31
0.0
  0
LINE
  5
11D6
  8
0
 10
601.06367372584373
 20
347.85061430221708
 30
0.0
 11
603.06367372584373
 21
347.85061430221708
 31
0.0
  0
LINE
  5
11D7
  8
2
 10
596.81367372584373
 20
319.85061430221708
 30
0.0
 11
596.81367372584373
 21
335.5515763022172
 31
0.0
  0
LINE
  5
11D8
  8
2
 10
607.31367372584373
 20
319.85061430221708
 30
0.0
 11
607.31367372584373
 21
335.5515763022172
 31
0.0
  0
LINE
  5
11D9
  8
2
 10
611.06367372584373
 20
336.85061430221708
 30
0.0
 11
593.06367372584373
 21
336.85061430221708
 31
0.0
  0
LINE
  5
11DA
  8
2
 10
608.06367372584373
 20
336.85061430221708
 30
0.0
 11
607.31367372584373
 21
335.5515763022172
 31
0.0
  0
LINE
  5
11DB
  8
2
 10
596.06367372584373
 20
336.85061430221708
 30
0.0
 11
596.81367372584373
 21
335.5515763022172
 31
0.0
  0
LINE
  5
11DC
  8
2
 10
607.31367372584373
 20
335.5515763022172
 30
0.0
 11
596.81367372584373
 21
335.5515763022172
 31
0.0
  0
LINE
  5
11DD
  8
2
 10
593.06367372584373
 20
336.85061430221708
 30
0.0
 11
593.06367372584373
 21
371.85061430221708
 31
0.0
  0
LINE
  5
11DE
  8
2
 10
592.06367372584373
 20
371.85061430221708
 30
0.0
 11
592.06367372584373
 21
376.85061430221708
 31
0.0
  0
LINE
  5
11DF
  8
2
 10
612.06367372584373
 20
371.85061430221708
 30
0.0
 11
612.06367372584373
 21
376.85061430221708
 31
0.0
  0
LINE
  5
11E0
  8
2
 10
601.06367472584384
 20
601.70051630221724
 30
0.0
 11
603.06367372584373
 21
601.70051630221724
 31
0.0
  0
ARC
  5
11E5
  8
2
 10
601.06367372584373
 20
617.60051630221699
 30
0.0
 40
15.9
 50
233.3100659999985
 51
270.00000200000278
  0
ARC
  5
11E6
  8
2
 10
603.06367372584373
 20
617.60051630221699
 30
0.0
 40
15.9
 50
269.99999799999722
 51
306.68993400000159
  0
ARC
  5
11E7
  8
2
 10
603.06367372584373
 20
444.10071230221712
 30
0.0
 40
15.9
 50
53.310065999998443
 51
90.000002000002809
  0
ARC
  5
11E8
  8
2
 10
601.06367372584373
 20
444.10071230221712
 30
0.0
 40
15.9
 50
89.999997999997177
 51
126.6899340000015
  0
LINE
  5
11E9
  8
2
 10
601.06367472584384
 20
460.0007123022171
 30
0.0
 11
603.06367372584373
 21
460.0007123022171
 31
0.0
  0
LINE
  5
11EA
  8
0
 10
652.06367372584373
 20
604.85061430221731
 30
0.0
 11
652.06367372584373
 21
456.85061430221708
 31
0.0
  0
LINE
  5
11EB
  8
0
 10
552.06367372584373
 20
376.85061430221708
 30
0.0
 11
552.06367372584373
 21
326.85061430221708
 31
0.0
  0
LINE
  5
11EC
  8
1
 10
384.56367372584378
 20
386.85061430221708
 30
0.0
 11
384.56367372584373
 21
316.85061430221708
 31
0.0
  0
LINE
  5
11ED
  8
1
 10
462.06367372584373
 20
530.8506143022172
 30
0.0
 11
307.06367372584373
 21
530.8506143022172
 31
0.0
  0
LINE
  5
11EE
  8
1
 10
163.06367372584381
 20
386.85061430221708
 30
0.0
 11
163.06367372584381
 21
316.85061430221708
 31
0.0
  0
LINE
  5
11EF
  8
1
 10
384.56367372584373
 20
614.85061430221731
 30
0.0
 11
384.56367372584373
 21
446.85061430221702
 31
0.0
  0
LINE
  5
11F0
  8
0
 10
452.06367372584373
 20
376.85061430221708
 30
0.0
 11
452.06367372584373
 21
326.85061430221708
 31
0.0
  0
LINE
  5
11F1
  8
0
 10
452.06367372584373
 20
376.85061430221708
 30
0.0
 11
452.06367372584373
 21
326.85061430221708
 31
0.0
  0
LINE
  5
11F2
  8
0
 10
434.06367372584373
 20
344.85061430221708
 30
0.0
 11
335.06367172584368
 21
344.85061430221708
 31
0.0
  0
ARC
  5
11F3
  8
0
 10
335.06367372584373
 20
336.85061430221708
 30
0.0
 40
8.0
 50
90.000019000000606
 51
270.0000150000015
  0
LINE
  5
11F4
  8
0
 10
434.06367372584373
 20
328.85061430221708
 30
0.0
 11
335.06367672584361
 21
328.85061430221708
 31
0.0
  0
LINE
  5
11F5
  8
0
 10
452.06367372584373
 20
326.85061430221708
 30
0.0
 11
317.06367372584373
 21
326.85061430221708
 31
0.0
  0
LINE
  5
11F6
  8
0
 10
317.06367372584373
 20
376.85061430221708
 30
0.0
 11
452.06367372584373
 21
376.85061430221708
 31
0.0
  0
LINE
  5
11F7
  8
0
 10
317.06367372584373
 20
326.85061430221708
 30
0.0
 11
317.06367372584373
 21
376.85061430221708
 31
0.0
  0
LINE
  5
11F8
  8
0
 10
317.06367372584373
 20
326.85061430221708
 30
0.0
 11
317.06367372584373
 21
376.85061430221708
 31
0.0
  0
ARC
  5
11F9
  8
0
 10
434.06367372584373
 20
336.85061430221708
 30
0.0
 40
8.0
 50
270.0
 51
90.0
  0
ARC
  5
11FA
  8
2
 10
250.8044887258439
 20
336.85061430221708
 30
0.0
 40
15.9
 50
149.79173199999991
 51
210.20826800000009
  0
LINE
  5
11FB
  8
0
 10
237.06367372584381
 20
376.85061430221708
 30
0.0
 11
237.06367372584381
 21
326.85061430221708
 31
0.0
  0
ARC
  5
11FC
  8
2
 10
434.06367372584361
 20
443.1097993022172
 30
0.0
 40
15.9
 50
59.791731999999918
 51
90.000005000000485
  0
LINE
  5
11FD
  8
2
 10
335.06367572584372
 20
459.009799302217
 30
0.0
 11
434.06367572584361
 21
459.009799302217
 31
0.0
  0
ARC
  5
11FE
  8
2
 10
335.06367372584373
 20
443.1097993022172
 30
0.0
 40
15.9
 50
89.999996000000905
 51
120.2082680000001
  0
ARC
  5
11FF
  8
2
 10
335.06367372584373
 20
618.59142930221685
 30
0.0
 40
15.9
 50
239.79173199999991
 51
270.00000399999908
  0
LINE
  5
1200
  8
2
 10
335.06367572584372
 20
602.6914293022171
 30
0.0
 11
434.06367572584361
 21
602.6914293022171
 31
0.0
  0
ARC
  5
1201
  8
2
 10
434.06367372584361
 20
618.59142930221685
 30
0.0
 40
15.9
 50
269.9999949999995
 51
300.20826800000009
  0
LINE
  5
1202
  8
0
 10
452.06367372584373
 20
456.85061430221708
 30
0.0
 11
452.06367372584373
 21
604.85061430221731
 31
0.0
  0
LINE
  5
1203
  8
0
 10
317.06367372584373
 20
604.85061430221731
 30
0.0
 11
317.06367372584373
 21
456.85061430221708
 31
0.0
  0
LINE
  5
1204
  8
0
 10
317.06367372584373
 20
456.85061430221708
 30
0.0
 11
452.06367372584373
 21
456.85061430221708
 31
0.0
  0
LINE
  5
1205
  8
0
 10
452.06367372584373
 20
604.85061430221731
 30
0.0
 11
317.06367372584373
 21
604.85061430221731
 31
0.0
  0
LINE
  5
1206
  8
0
 10
237.06367372584381
 20
326.85061430221708
 30
0.0
 11
89.063673725843955
 21
326.85061430221708
 31
0.0
  0
LINE
  5
1207
  8
0
 10
89.063673725843955
 20
376.85061430221708
 30
0.0
 11
237.06367372584381
 21
376.85061430221708
 31
0.0
  0
ARC
  5
1208
  8
2
 10
75.322858725843844
 20
336.85061430221708
 30
0.0
 40
15.9
 50
329.79173200000349
 51
30.208267999996451
  0
LINE
  5
1209
  8
0
 10
89.063673725843955
 20
326.85061430221708
 30
0.0
 11
89.063673725843955
 21
376.85061430221708
 31
0.0
  0
LINE
  5
124F
  8
5
 10
429.56367372584361
 20
558.85061430221708
 30
0.0
 11
339.56367372584373
 21
558.85061430221708
 31
0.0
  0
LINE
  5
1250
  8
5
 10
429.56367372584361
 20
502.85061430221708
 30
0.0
 11
339.56367372584373
 21
502.85061430221708
 31
0.0
  0
LINE
  5
1251
  8
5
 10
191.0636737258439
 20
347.85061430221702
 30
0.0
 11
191.0636737258439
 21
326.85061430221708
 31
0.0
  0
LINE
  5
1252
  8
5
 10
135.06367372584381
 20
347.8506143022172
 30
0.0
 11
135.06367372584381
 21
326.85061430221708
 31
0.0
  0
LINE
  5
1253
  8
5
 10
1092.563673725844
 20
502.85061430221708
 30
0.0
 11
1002.563673725844
 21
502.85061430221708
 31
0.0
  0
LINE
  5
1254
  8
5
 10
1092.563673725844
 20
558.85061430221708
 30
0.0
 11
1092.563673725844
 21
502.85061430221708
 31
0.0
  0
LINE
  5
1255
  8
5
 10
1092.563673725844
 20
558.85061430221708
 30
0.0
 11
1002.563673725844
 21
558.85061430221708
 31
0.0
  0
LINE
  5
1256
  8
5
 10
1002.563673725844
 20
558.85061430221708
 30
0.0
 11
1002.563673725844
 21
502.85061430221708
 31
0.0
  0
LINE
  5
1257
  8
5
 10
1002.563673725844
 20
347.85061430221708
 30
0.0
 11
1002.563673725844
 21
326.85061430221708
 31
0.0
  0
LINE
  5
1258
  8
5
 10
1092.563673725844
 20
347.85061430221708
 30
0.0
 11
1002.563673725844
 21
347.85061430221702
 31
0.0
  0
LINE
  5
1259
  8
5
 10
1092.563673725844
 20
347.85061430221708
 30
0.0
 11
1092.563673725844
 21
326.85061430221702
 31
0.0
  0
LINE
  5
125A
  8
5
 10
1241.063673725844
 20
347.8506143022172
 30
0.0
 11
1241.063673725844
 21
326.85061430221708
 31
0.0
  0
LINE
  5
125B
  8
5
 10
1297.063673725844
 20
347.85061430221702
 30
0.0
 11
1241.063673725844
 21
347.85061430221708
 31
0.0
  0
LINE
  5
125C
  8
5
 10
1297.063673725844
 20
347.85061430221702
 30
0.0
 11
1297.063673725844
 21
326.85061430221708
 31
0.0
  0
CIRCLE
  5
125E
  8
5
 10
602.06367372584373
 20
580.85061430221697
 30
0.0
 40
10.0
  0
CIRCLE
  5
1260
  8
5
 10
602.06367372584373
 20
480.85061430221702
 30
0.0
 40
10.0
  0
LINE
  5
1261
  8
5
 10
612.06367372584384
 20
346.85061430221708
 30
0.0
 11
612.06367372584373
 21
326.85061430221702
 31
0.0
  0
LINE
  5
1262
  8
5
 10
592.06367372584384
 20
346.85061430221708
 30
0.0
 11
592.06367372584384
 21
326.85061430221702
 31
0.0
  0
LINE
  5
1263
  8
5
 10
746.06367372584396
 20
346.85061430221708
 30
0.0
 11
766.06367372584396
 21
346.85061430221708
 31
0.0
  0
LINE
  5
1264
  8
5
 10
746.06367372584407
 20
346.85061430221708
 30
0.0
 11
746.06367372584407
 21
326.85061430221702
 31
0.0
  0
LINE
  5
1265
  8
5
 10
766.06367372584407
 20
346.85061430221708
 30
0.0
 11
766.06367372584396
 21
326.85061430221702
 31
0.0
  0
LINE
  5
1266
  8
5
 10
846.06367372584384
 20
346.8506143022172
 30
0.0
 11
866.06367372584396
 21
346.8506143022172
 31
0.0
  0
LINE
  5
1267
  8
5
 10
846.06367372584396
 20
346.8506143022172
 30
0.0
 11
846.06367372584396
 21
326.85061430221708
 31
0.0
  0
LINE
  5
1268
  8
5
 10
866.06367372584396
 20
346.8506143022172
 30
0.0
 11
866.06367372584396
 21
326.85061430221708
 31
0.0
  0
TEXT
  5
130D
  8
0
 62
     3
 10
0.0
 20
0.0
 30
0.0
 40
10.0
  1
SQL1540-DS15
  7
STANDARD1
  0
ENDSEC
  0
EOF
