  0
SECTION
  2
HEADER
  9
$ACADVER
  1
AC1009
  9
$INSBASE
 10
0.0
 20
0.0
 30
0.0
  9
$EXTMIN
 10
0.0
 20
-2.960436562073669
 30
0.0
  9
$EXTMAX
 10
653.30184846501038
 20
366.62771791047828
 30
0.0
  9
$LIMMIN
 10
0.0
 20
0.0
  9
$LIMMAX
 10
770.0
 20
540.0
  9
$ORTHOMODE
 70
     0
  9
$REGENMODE
 70
     1
  9
$FILLMODE
 70
     1
  9
$QTEXTMODE
 70
     0
  9
$MIRRTEXT
 70
     0
  9
$DRAGMODE
 70
     2
  9
$LTSCALE
 40
20.0
  9
$OSMODE
 70
    55
  9
$ATTMODE
 70
     1
  9
$TEXTSIZE
 40
4.0000000000000471
  9
$TRACEWID
 40
0.05
  9
$TEXTSTYLE
  7
STANDARD
  9
$CLAYER
  8
0
  9
$CELTYPE
  6
BYLAYER
  9
$CECOLOR
 62
   256
  9
$DIMSCALE
 40
2.0
  9
$DIMASZ
 40
3.0
  9
$DIMEXO
 40
2.0
  9
$DIMDLI
 40
0.38
  9
$DIMRND
 40
0.0
  9
$DIMDLE
 40
0.0
  9
$DIMEXE
 40
2.0
  9
$DIMTP
 40
0.0
  9
$DIMTM
 40
0.0
  9
$DIMTXT
 40
3.0
  9
$DIMCEN
 40
0.0
  9
$DIMTSZ
 40
0.0
  9
$DIMTOL
 70
     0
  9
$DIMLIM
 70
     0
  9
$DIMTIH
 70
     0
  9
$DIMTOH
 70
     0
  9
$DIMSE1
 70
     0
  9
$DIMSE2
 70
     0
  9
$DIMTAD
 70
     1
  9
$DIMZIN
 70
     0
  9
$DIMBLK
  1

  9
$DIMASO
 70
     0
  9
$DIMSHO
 70
     0
  9
$DIMPOST
  1

  9
$DIMAPOST
  1

  9
$DIMALT
 70
     0
  9
$DIMALTD
 70
     2
  9
$DIMALTF
 40
25.399999999999999
  9
$DIMLFAC
 40
1.0
  9
$DIMTOFL
 70
     0
  9
$DIMTVP
 40
1.6000000000000001
  9
$DIMTIX
 70
     1
  9
$DIMSOXD
 70
     0
  9
$DIMSAH
 70
     0
  9
$DIMBLK1
  1

  9
$DIMBLK2
  1

  9
$DIMSTYLE
  2
STANDARD
  9
$DIMCLRD
 70
     4
  9
$DIMCLRE
 70
     4
  9
$DIMCLRT
 70
     4
  9
$DIMTFAC
 40
1.0
  9
$DIMGAP
 40
0.09
  9
$LUNITS
 70
     2
  9
$LUPREC
 70
     1
  9
$SKETCHINC
 40
0.1
  9
$FILLETRAD
 40
0.0
  9
$AUNITS
 70
     0
  9
$AUPREC
 70
     0
  9
$MENU
  1
E:\r13\win\SUPPORT\ACAD
  9
$ELEVATION
 40
0.0
  9
$PELEVATION
 40
0.0
  9
$THICKNESS
 40
0.0
  9
$LIMCHECK
 70
     0
  9
$BLIPMODE
 70
     0
  9
$CHAMFERA
 40
1.1999999999999991
  9
$CHAMFERB
 40
1.1999999999999991
  9
$SKPOLY
 70
     0
  9
$TDCREATE
 40
2450158.583426042
  9
$TDUPDATE
 40
2456598.5553569798
  9
$TDINDWG
 40
0.2010100579
  9
$TDUSRTIMER
 40
0.2010100579
  9
$USRTIMER
 70
     1
  9
$ANGBASE
 50
0.0
  9
$ANGDIR
 70
     0
  9
$PDMODE
 70
     0
  9
$PDSIZE
 40
0.0
  9
$PLINEWID
 40
0.0
  9
$COORDS
 70
     1
  9
$SPLFRAME
 70
     0
  9
$SPLINETYPE
 70
     6
  9
$SPLINESEGS
 70
     8
  9
$ATTDIA
 70
     0
  9
$ATTREQ
 70
     1
  9
$HANDLING
 70
     1
  9
$HANDSEED
  5
10BF
  9
$SURFTAB1
 70
     6
  9
$SURFTAB2
 70
     6
  9
$SURFTYPE
 70
     6
  9
$SURFU
 70
     6
  9
$SURFV
 70
     6
  9
$UCSNAME
  2

  9
$UCSORG
 10
0.0
 20
0.0
 30
0.0
  9
$UCSXDIR
 10
1.0
 20
0.0
 30
0.0
  9
$UCSYDIR
 10
0.0
 20
1.0
 30
0.0
  9
$PUCSNAME
  2

  9
$PUCSORG
 10
0.0
 20
0.0
 30
0.0
  9
$PUCSXDIR
 10
1.0
 20
0.0
 30
0.0
  9
$PUCSYDIR
 10
0.0
 20
1.0
 30
0.0
  9
$USERI1
 70
     3
  9
$USERI2
 70
     1
  9
$USERI3
 70
     0
  9
$USERI4
 70
     0
  9
$USERI5
 70
     0
  9
$USERR1
 40
2.0
  9
$USERR2
 40
3.0
  9
$USERR3
 40
3.0
  9
$USERR4
 40
3.0
  9
$USERR5
 40
10.0
  9
$WORLDVIEW
 70
     1
  9
$SHADEDGE
 70
     3
  9
$SHADEDIF
 70
    70
  9
$TILEMODE
 70
     1
  9
$MAXACTVP
 70
    16
  9
$PLIMCHECK
 70
     0
  9
$PEXTMIN
 10
1.0000000000000000E+020
 20
1.0000000000000000E+020
 30
1.0000000000000000E+020
  9
$PEXTMAX
 10
-1.0000000000000000E+020
 20
-1.0000000000000000E+020
 30
-1.0000000000000000E+020
  9
$PLIMMIN
 10
0.0
 20
0.0
  9
$PLIMMAX
 10
12.0
 20
9.0
  9
$UNITMODE
 70
     0
  9
$VISRETAIN
 70
     0
  9
$PLINEGEN
 70
     0
  9
$PSLTSCALE
 70
     0
  0
ENDSEC
  0
SECTION
  2
TABLES
  0
TABLE
  2
VPORT
 70
     1
  0
VPORT
  2
*ACTIVE
 70
     0
 10
0.0
 20
0.0
 11
1.0
 21
1.0
 12
384.98825162880621
 22
394.89452070385119
 13
0.0
 23
0.0
 14
10.0
 24
10.0
 15
10.0
 25
10.0
 16
0.0
 26
0.0
 36
1.0
 17
0.0
 27
0.0
 37
0.0
 40
802.76084457946263
 41
1.7807262569832401
 42
50.0
 43
0.0
 44
0.0
 50
0.0
 51
0.0
 71
     0
 72
   500
 73
     1
 74
     0
 75
     0
 76
     0
 77
     0
 78
     2
  0
ENDTAB
  0
TABLE
  2
LTYPE
 70
     4
  0
LTYPE
  2
CONTINUOUS
 70
     0
  3
Solid Line
 72
    65
 73
     0
 40
0.0
  0
LTYPE
  2
CENTER
 70
     0
  3
____ _ ____ _ ____ _ ____ _ ____ _ ____ _ ____
 72
    65
 73
     4
 40
2.0
 49
1.25
 49
-0.25
 49
0.25
 49
-0.25
  0
LTYPE
  2
HIDDEN
 70
     0
  3
_ _ _ _ _ _ _ _ _ _ _ _ _ _ _ _ _ _ _ _ _ _ _
 72
    65
 73
     2
 40
0.375
 49
0.25
 49
-0.125
  0
LTYPE
  2
PHANTOM2
 70
     0
  3
Phantom (.5x) ___ _ _ ___ _ _ ___ _ _ ___ _ _
 72
    65
 73
     6
 40
1.25
 49
0.625
 49
-0.125
 49
0.125
 49
-0.125
 49
0.125
 49
-0.125
  0
ENDTAB
  0
TABLE
  2
LAYER
 70
     4
  0
LAYER
  2
0
 70
     0
 62
     7
  6
CONTINUOUS
  0
LAYER
  2
1
 70
     0
 62
     1
  6
CENTER
  0
LAYER
  2
2
 70
     0
 62
     2
  6
HIDDEN
  0
LAYER
  2
5
 70
     0
 62
     3
  6
PHANTOM2
  0
ENDTAB
  0
TABLE
  2
STYLE
 70
     2
  0
STYLE
  2
STANDARD
 70
     0
 40
0.0
 41
1.0
 50
0.0
 71
     0
 42
4.0000000000000471
  3
SIMPLEX
  4
BIGFONT
  0
STYLE
  2
STANDARD1
 70
     0
 40
0.0
 41
1.0
 50
0.0
 71
     0
 42
3.0
  3
txt
  4

  0
ENDTAB
  0
TABLE
  2
VIEW
 70
     1
  0
VIEW
  2
ALL
 70
     0
 40
179.5384664489153
 10
146.94997169852391
 20
89.769233224457665
 41
0.0
 11
0.0
 21
0.0
 31
1.0
 12
0.0
 22
0.0
 32
0.0
 42
50.0
 43
0.0
 44
0.0
 50
0.0
 71
     0
  0
ENDTAB
  0
TABLE
  2
UCS
 70
     0
  0
ENDTAB
  0
TABLE
  2
APPID
 70
     3
  0
APPID
  2
ACAD
 70
     0
  0
APPID
  2
ACAD_MLEADERVER
 70
     0
  0
APPID
  2
ACAD_NAV_VCDISPLAY
 70
     0
  0
ENDTAB
  0
TABLE
  2
DIMSTYLE
 70
     1
  0
DIMSTYLE
  2
STANDARD
 70
     0
  3

  4

  5

  6

  7

 40
1.0
 41
0.18
 42
0.0625
 43
0.38
 44
0.18
 45
0.0
 46
0.0
 47
0.0
 48
0.0
140
0.18
141
0.09
142
0.0
143
25.399999999999999
144
1.0
145
0.0
146
1.0
147
0.09
 71
     0
 72
     0
 73
     1
 74
     1
 75
     0
 76
     0
 77
     0
 78
     0
170
     0
171
     2
172
     0
173
     0
174
     0
175
     0
176
     0
177
     0
178
     0
  0
ENDTAB
  0
ENDSEC
  0
SECTION
  2
BLOCKS
  0
BLOCK
  8
0
  2
$MODEL_SPACE
 70
     0
 10
0.0
 20
0.0
 30
0.0
  3
$MODEL_SPACE
  1

  0
ENDBLK
  5
EAA
  8
0
  0
BLOCK
 67
     1
  8
0
  2
$PAPER_SPACE
 70
     0
 10
0.0
 20
0.0
 30
0.0
  3
$PAPER_SPACE
  1

  0
ENDBLK
  5
EA6
 67
     1
  8
0
  0
ENDSEC
  0
SECTION
  2
ENTITIES
  0
LINE
  5
CE9
  8
0
 10
184.30184846501041
 20
356.62771791047828
 30
0.0
 11
184.30184846501041
 21
257.6277179104784
 31
0.0
  0
LINE
  5
CEA
  8
0
 10
314.30184846501038
 20
356.62771791047828
 30
0.0
 11
314.30184846501038
 21
257.6277179104784
 31
0.0
  0
LINE
  5
CEB
  8
0
 10
184.30184846501041
 20
257.6277179104784
 30
0.0
 11
314.30184846501038
 21
257.6277179104784
 31
0.0
  0
LINE
  5
CEC
  8
0
 10
184.30184846501041
 20
356.62771791047828
 30
0.0
 11
314.30184846501038
 21
356.62771791047828
 31
0.0
  0
LINE
  5
CED
  8
1
 10
84.408437369817875
 20
197.6177179104784
 30
0.0
 11
84.408437369817875
 21
137.6227179104784
 31
0.0
  0
ARC
  5
CEE
  8
2
 10
546.11893940719494
 20
157.1227179104784
 30
0.0
 40
11.1
 50
317.4933579999983
 51
42.506642000001563
  0
ARC
  5
CEF
  8
2
 10
661.48475752282582
 20
157.1227179104784
 30
0.0
 40
11.1
 50
137.49335799999841
 51
222.50664200000159
  0
LINE
  5
CF0
  8
1
 10
439.30184846501032
 20
197.61271791047841
 30
0.0
 11
439.30184846501032
 21
137.6177179104784
 31
0.0
  0
LINE
  5
CF1
  8
1
 10
439.30184846501032
 20
366.6227179104784
 30
0.0
 11
439.30184846501032
 21
247.6227179104784
 31
0.0
  0
LINE
  5
CF2
  8
1
 10
364.30184846501021
 20
307.12271791047829
 30
0.0
 11
514.30184846501015
 21
307.12271791047829
 31
0.0
  0
LINE
  5
CF3
  8
1
 10
49.801848465009932
 20
192.6227179104784
 30
0.0
 11
49.801848465009932
 21
137.6227179104784
 31
0.0
  0
LINE
  5
CF4
  8
2
 10
54.001848465009957
 20
142.6227179104784
 30
0.0
 11
54.001848465009957
 21
154.2370779104784
 31
0.0
  0
LINE
  5
CF5
  8
2
 10
45.601848465009873
 20
142.6227179104784
 30
0.0
 11
45.601848465009873
 21
154.2370779104784
 31
0.0
  0
LINE
  5
CF6
  8
2
 10
57.801848465009932
 20
184.1227179104784
 30
0.0
 11
57.801848465009932
 21
187.6227179104784
 31
0.0
  0
LINE
  5
CF7
  8
2
 10
57.801848465009932
 20
184.1227179104784
 30
0.0
 11
41.801848465009918
 21
184.1227179104784
 31
0.0
  0
LINE
  5
CF8
  8
2
 10
41.801848465009918
 20
184.1227179104784
 30
0.0
 11
41.801848465009918
 21
187.6227179104784
 31
0.0
  0
LINE
  5
CF9
  8
2
 10
42.801848465009932
 20
155.6227179104784
 30
0.0
 11
42.801848465009932
 21
184.1227179104784
 31
0.0
  0
LINE
  5
CFA
  8
2
 10
56.801848465009918
 20
155.6227179104784
 30
0.0
 11
56.801848465009918
 21
184.1227179104784
 31
0.0
  0
LINE
  5
CFE
  8
2
 10
42.801848465009932
 20
155.6227179104784
 30
0.0
 11
56.801848465009918
 21
155.6227179104784
 31
0.0
  0
LINE
  5
CFF
  8
2
 10
45.601848465009873
 20
154.2370779104784
 30
0.0
 11
54.001848465009957
 21
154.2370779104784
 31
0.0
  0
LINE
  5
D00
  8
2
 10
44.801848465009918
 20
155.6227179104784
 30
0.0
 11
45.601848465009873
 21
154.2370779104784
 31
0.0
  0
LINE
  5
D01
  8
2
 10
54.801848465009932
 20
155.6227179104784
 30
0.0
 11
54.001848465009957
 21
154.2370779104784
 31
0.0
  0
LINE
  5
D02
  8
2
 10
115.60184846501051
 20
142.6227179104784
 30
0.0
 11
115.60184846501051
 21
154.2370779104784
 31
0.0
  0
LINE
  5
D03
  8
2
 10
124.0018484650106
 20
142.6227179104784
 30
0.0
 11
124.0018484650106
 21
154.2370779104784
 31
0.0
  0
LINE
  5
D04
  8
2
 10
114.80184846501059
 20
155.6227179104784
 30
0.0
 11
115.60184846501051
 21
154.2370779104784
 31
0.0
  0
LINE
  5
D05
  8
2
 10
124.80184846501059
 20
155.6227179104784
 30
0.0
 11
124.0018484650106
 21
154.2370779104784
 31
0.0
  0
LINE
  5
D06
  8
2
 10
124.0018484650106
 20
154.2370779104784
 30
0.0
 11
115.60184846501051
 21
154.2370779104784
 31
0.0
  0
LINE
  5
D07
  8
2
 10
126.80184846501059
 20
155.6227179104784
 30
0.0
 11
112.80184846501059
 21
155.6227179104784
 31
0.0
  0
LINE
  5
D0B
  8
2
 10
112.80184846501059
 20
155.6227179104784
 30
0.0
 11
112.80184846501059
 21
184.1227179104784
 31
0.0
  0
LINE
  5
D0C
  8
2
 10
126.80184846501059
 20
155.6227179104784
 30
0.0
 11
126.80184846501059
 21
184.1227179104784
 31
0.0
  0
LINE
  5
D0D
  8
2
 10
127.80184846501059
 20
184.1227179104784
 30
0.0
 11
127.80184846501059
 21
187.6227179104784
 31
0.0
  0
LINE
  5
D0E
  8
2
 10
111.80184846501059
 20
184.1227179104784
 30
0.0
 11
127.80184846501059
 21
184.1227179104784
 31
0.0
  0
LINE
  5
D0F
  8
2
 10
111.80184846501059
 20
184.1227179104784
 30
0.0
 11
111.80184846501059
 21
187.6227179104784
 31
0.0
  0
LINE
  5
D10
  8
1
 10
119.80184846501059
 20
192.6227179104784
 30
0.0
 11
119.80184846501059
 21
137.6227179104784
 31
0.0
  0
LINE
  5
D14
  8
1
 10
234.30184846501041
 20
192.6227179104784
 30
0.0
 11
234.30184846501041
 21
137.6227179104784
 31
0.0
  0
LINE
  5
D16
  8
1
 10
234.30184846501041
 20
355.12771791047828
 30
0.0
 11
234.30184846501041
 21
329.12771791047828
 31
0.0
  0
LINE
  5
D17
  8
1
 10
221.30184846501041
 20
342.12771791047828
 30
0.0
 11
247.30184846501041
 21
342.12771791047828
 31
0.0
  0
LINE
  5
D1F
  8
1
 10
221.30184846501041
 20
272.1277179104784
 30
0.0
 11
247.30184846501041
 21
272.1277179104784
 31
0.0
  0
LINE
  5
D20
  8
1
 10
234.30184846501041
 20
259.1277179104784
 30
0.0
 11
234.30184846501041
 21
285.12771791047828
 31
0.0
  0
LINE
  5
D21
  8
1
 10
249.30184846501041
 20
197.6177179104784
 30
0.0
 11
249.30184846501041
 21
137.6227179104784
 31
0.0
  0
LINE
  5
D22
  8
1
 10
249.30184846501041
 20
366.62771791047828
 30
0.0
 11
249.30184846501041
 21
247.6277179104784
 31
0.0
  0
LINE
  5
D23
  8
1
 10
174.3018484650101
 20
307.12771791047828
 30
0.0
 11
324.30184846501038
 21
307.12771791047828
 31
0.0
  0
LINE
  5
D24
  8
0
 10
478.80184846501038
 20
164.6227179104784
 30
0.0
 11
399.80184846501049
 21
164.6227179104784
 31
0.0
  0
ARC
  5
D25
  8
0
 10
477.30184846501032
 20
157.1227179104784
 30
0.0
 40
7.648528999999999
 50
281.30993199999602
 51
78.690068000003976
  0
ARC
  5
D26
  8
0
 10
401.30184846501032
 20
157.1227179104784
 30
0.0
 40
7.648528999999999
 50
101.309931999996
 51
258.69006800000398
  0
ARC
  5
D27
  8
0
 10
283.74282646501052
 20
157.1227179104784
 30
0.0
 40
7.5
 50
270.0
 51
90.0
  0
LINE
  5
D28
  8
2
 10
223.74282646501041
 20
353.71562691047842
 30
0.0
 11
283.74282646501052
 21
353.71562691047842
 31
0.0
  0
ARC
  5
D29
  8
2
 10
283.74282646501052
 20
249.43980891047829
 30
0.0
 40
11.1
 50
47.493357999998437
 51
90.00000299999769
  0
ARC
  5
D2A
  8
2
 10
223.74282646501041
 20
249.43980891047829
 30
0.0
 40
11.1
 50
89.999999000005104
 51
132.50664200000151
  0
LINE
  5
D2B
  8
2
 10
223.74282646501041
 20
260.53980891047843
 30
0.0
 11
283.74282646501052
 21
260.53980891047843
 31
0.0
  0
LINE
  5
D2C
  8
0
 10
223.74282646501041
 20
164.6227179104784
 30
0.0
 11
283.74282646501052
 21
164.6227179104784
 31
0.0
  0
LINE
  5
D2D
  8
0
 10
223.74282646501041
 20
149.6227179104784
 30
0.0
 11
283.74282646501052
 21
149.6227179104784
 31
0.0
  0
ARC
  5
D2E
  8
0
 10
223.74282646501041
 20
157.1227179104784
 30
0.0
 40
7.5
 50
90.0
 51
270.0
  0
ARC
  5
D2F
  8
2
 10
223.74282646501041
 20
364.81562691047839
 30
0.0
 40
11.1
 50
227.4933579999973
 51
270.00000099999488
  0
ARC
  5
D30
  8
2
 10
283.74282646501052
 20
364.81562691047839
 30
0.0
 40
11.1
 50
269.99999700000228
 51
312.50664200000159
  0
LINE
  5
D31
  8
0
 10
35.30184846501038
 20
147.6227179104784
 30
0.0
 11
35.30184846501038
 21
187.6227179104784
 31
0.0
  0
LINE
  5
D32
  8
0
 10
113.7018484650105
 20
142.6227179104784
 30
0.0
 11
113.7018484650105
 21
147.6227179104784
 31
0.0
  0
LINE
  5
D33
  8
0
 10
117.4773614650103
 20
143.6227179104784
 30
0.0
 11
122.1263364650103
 21
143.6227179104784
 31
0.0
  0
LINE
  5
D34
  8
0
 10
125.9018484650105
 20
142.6227179104784
 30
0.0
 11
113.7018484650105
 21
142.6227179104784
 31
0.0
  0
LINE
  5
D35
  8
0
 10
125.9018484650105
 20
142.6227179104784
 30
0.0
 11
125.9018484650105
 21
147.6227179104784
 31
0.0
  0
LINE
  5
D36
  8
0
 10
117.4773614650103
 20
142.6227179104784
 30
0.0
 11
117.4773614650103
 21
147.6227179104784
 31
0.0
  0
LINE
  5
D37
  8
0
 10
122.1263364650103
 20
142.6227179104784
 30
0.0
 11
122.1263364650103
 21
147.6227179104784
 31
0.0
  0
LINE
  5
D38
  8
0
 10
56.851848465010349
 20
145.6227179104784
 30
0.0
 11
56.043558465010392
 21
147.02271791047841
 31
0.0
  0
ARC
  5
D39
  8
0
 10
56.389968465010497
 20
147.22271791047839
 30
0.0
 40
0.4
 50
90.0
 51
209.99999999999719
  0
LINE
  5
D3A
  8
0
 10
478.80184846501038
 20
149.6227179104784
 30
0.0
 11
399.80184846501049
 21
149.6227179104784
 31
0.0
  0
LINE
  5
D3B
  8
2
 10
478.80184846501038
 20
354.86134791047829
 30
0.0
 11
399.80184846501049
 21
354.86134791047829
 31
0.0
  0
ARC
  5
D3C
  8
2
 10
399.80184846501049
 20
365.96134791047842
 30
0.0
 40
11.1
 50
237.2795570000014
 51
270.00000400000562
  0
LINE
  5
D3D
  8
0
 10
374.30184846501038
 20
147.6227179104784
 30
0.0
 11
374.30184846501038
 21
187.6227179104784
 31
0.0
  0
LINE
  5
D3E
  8
0
 10
504.30184846501038
 20
147.6227179104784
 30
0.0
 11
374.30184846501038
 21
147.6227179104784
 31
0.0
  0
ARC
  5
D3F
  8
0
 10
43.21372946501036
 20
147.22271791047839
 30
0.0
 40
0.4
 50
330.0000000000029
 51
90.0
  0
LINE
  5
D40
  8
0
 10
42.751848465010411
 20
145.6227179104784
 30
0.0
 11
43.560139465010479
 21
147.02271791047841
 31
0.0
  0
LINE
  5
D41
  8
0
 10
42.751848465010411
 20
143.6227179104784
 30
0.0
 11
56.851848465010349
 21
143.6227179104784
 31
0.0
  0
LINE
  5
D42
  8
0
 10
42.751848465010411
 20
143.6227179104784
 30
0.0
 11
42.751848465010411
 21
145.6227179104784
 31
0.0
  0
LINE
  5
D43
  8
0
 10
56.851848465010349
 20
143.6227179104784
 30
0.0
 11
56.851848465010349
 21
145.6227179104784
 31
0.0
  0
LINE
  5
D44
  8
0
 10
56.851848465010349
 20
143.6227179104784
 30
0.0
 11
55.85184846501032
 21
142.6227179104784
 31
0.0
  0
CIRCLE
  5
D45
  8
0
 10
234.30184846501041
 20
272.1277179104784
 30
0.0
 40
7.0
  0
CIRCLE
  5
D46
  8
0
 10
234.30184846501041
 20
272.1277179104784
 30
0.0
 40
8.0
  0
CIRCLE
  5
D47
  8
0
 10
234.30184846501041
 20
342.1177179104784
 30
0.0
 40
8.0
  0
CIRCLE
  5
D48
  8
0
 10
234.30184846501041
 20
342.1177179104784
 30
0.0
 40
7.0
  0
LINE
  5
D49
  8
0
 10
374.30184846501038
 20
187.6227179104784
 30
0.0
 11
504.30184846501038
 21
187.6227179104784
 31
0.0
  0
LINE
  5
D4A
  8
0
 10
504.30184846501038
 20
187.6227179104784
 30
0.0
 11
504.30184846501038
 21
147.6227179104784
 31
0.0
  0
ARC
  5
D4B
  8
2
 10
478.80184846501038
 20
365.96134791047842
 30
0.0
 40
11.1
 50
269.99999700000228
 51
302.72044299999862
  0
ARC
  5
D4C
  8
2
 10
478.80184846501038
 20
248.2840889104784
 30
0.0
 40
11.1
 50
57.279557000001368
 51
90.00000299999769
  0
ARC
  5
D4D
  8
2
 10
399.80184846501049
 20
248.2840889104784
 30
0.0
 40
11.1
 50
89.999995999994368
 51
122.7204429999986
  0
LINE
  5
D4E
  8
2
 10
478.80184846501038
 20
259.3840889104784
 30
0.0
 11
399.80184846501049
 21
259.3840889104784
 31
0.0
  0
LINE
  5
D4F
  8
0
 10
504.30184846501038
 20
257.6227179104784
 30
0.0
 11
504.30184846501038
 21
356.62271791047829
 31
0.0
  0
LINE
  5
D50
  8
0
 10
504.30184846501038
 20
257.6227179104784
 30
0.0
 11
374.30184846501038
 21
257.6227179104784
 31
0.0
  0
LINE
  5
D51
  8
0
 10
504.30184846501038
 20
356.62271791047829
 30
0.0
 11
374.30184846501038
 21
356.62271791047829
 31
0.0
  0
LINE
  5
D52
  8
0
 10
374.30184846501038
 20
356.62271791047829
 30
0.0
 11
374.30184846501038
 21
257.6227179104784
 31
0.0
  0
ARC
  5
D53
  8
0
 10
240.8899684650105
 20
147.22271791047839
 30
0.0
 40
0.4
 50
90.0
 51
209.99999999999719
  0
LINE
  5
D54
  8
0
 10
241.35184846501031
 20
145.6227179104784
 30
0.0
 11
240.54355846501039
 21
147.02271791047841
 31
0.0
  0
LINE
  5
D55
  8
2
 10
241.30184846501041
 20
155.6227179104784
 30
0.0
 11
227.30184846501041
 21
155.6227179104784
 31
0.0
  0
LINE
  5
D56
  8
0
 10
42.751848465010411
 20
143.6227179104784
 30
0.0
 11
43.751848465010411
 21
142.6227179104784
 31
0.0
  0
LINE
  5
D57
  8
0
 10
55.85184846501032
 20
142.6227179104784
 30
0.0
 11
43.751848465010411
 21
142.6227179104784
 31
0.0
  0
LINE
  5
D58
  8
0
 10
134.30184846501041
 20
187.6227179104784
 30
0.0
 11
134.30184846501041
 21
147.6227179104784
 31
0.0
  0
LINE
  5
D59
  8
0
 10
35.30184846501038
 20
187.6227179104784
 30
0.0
 11
134.30184846501041
 21
187.6227179104784
 31
0.0
  0
ARC
  5
D5A
  8
2
 10
142.4847574650104
 20
157.1227179104784
 30
0.0
 40
11.1
 50
137.49335799999841
 51
222.50664200000159
  0
ARC
  5
D5B
  8
2
 10
27.118939465010499
 20
157.1227179104784
 30
0.0
 40
11.1
 50
317.4933579999983
 51
42.506642000001563
  0
LINE
  5
D5C
  8
0
 10
134.30184846501041
 20
147.6227179104784
 30
0.0
 11
35.30184846501038
 21
147.6227179104784
 31
0.0
  0
LINE
  5
D5D
  8
0
 10
314.30184846501038
 20
187.6227179104784
 30
0.0
 11
184.30184846501041
 21
187.6227179104784
 31
0.0
  0
LINE
  5
D5E
  8
0
 10
184.30184846501041
 20
147.6227179104784
 30
0.0
 11
314.30184846501038
 21
147.6227179104784
 31
0.0
  0
LINE
  5
D5F
  8
0
 10
314.30184846501038
 20
187.6227179104784
 30
0.0
 11
314.30184846501038
 21
147.6227179104784
 31
0.0
  0
CIRCLE
  5
D60
  8
0
 10
234.30184846501041
 20
272.1277179104784
 30
0.0
 40
4.2000000000000002
  0
CIRCLE
  5
D61
  8
0
 10
234.30184846501041
 20
342.1177179104784
 30
0.0
 40
4.2000000000000002
  0
LINE
  5
D62
  8
0
 10
184.30184846501041
 20
187.6227179104784
 30
0.0
 11
184.30184846501041
 21
147.6227179104784
 31
0.0
  0
LINE
  5
D63
  8
0
 10
227.2518484650104
 20
143.6227179104784
 30
0.0
 11
241.35184846501031
 21
143.6227179104784
 31
0.0
  0
LINE
  5
D64
  8
0
 10
240.35184846501031
 20
142.6227179104784
 30
0.0
 11
228.2518484650104
 21
142.6227179104784
 31
0.0
  0
LINE
  5
D65
  8
0
 10
227.2518484650104
 20
143.6227179104784
 30
0.0
 11
227.2518484650104
 21
145.6227179104784
 31
0.0
  0
LINE
  5
D66
  8
0
 10
227.2518484650104
 20
143.6227179104784
 30
0.0
 11
228.2518484650104
 21
142.6227179104784
 31
0.0
  0
LINE
  5
D67
  8
0
 10
241.35184846501031
 20
143.6227179104784
 30
0.0
 11
241.35184846501031
 21
145.6227179104784
 31
0.0
  0
LINE
  5
D68
  8
0
 10
241.35184846501031
 20
143.6227179104784
 30
0.0
 11
240.35184846501031
 21
142.6227179104784
 31
0.0
  0
LINE
  5
D69
  8
2
 10
238.5018484650104
 20
142.6227179104784
 30
0.0
 11
238.5018484650104
 21
154.2370779104784
 31
0.0
  0
LINE
  5
D6A
  8
2
 10
230.10184846501039
 20
142.6227179104784
 30
0.0
 11
230.10184846501039
 21
154.2370779104784
 31
0.0
  0
LINE
  5
D6B
  8
2
 10
226.30184846501041
 20
184.1227179104784
 30
0.0
 11
226.30184846501041
 21
187.6227179104784
 31
0.0
  0
LINE
  5
D6C
  8
2
 10
226.30184846501041
 20
184.1227179104784
 30
0.0
 11
242.30184846501041
 21
184.1227179104784
 31
0.0
  0
LINE
  5
D6D
  8
2
 10
242.30184846501041
 20
184.1227179104784
 30
0.0
 11
242.30184846501041
 21
187.6227179104784
 31
0.0
  0
LINE
  5
D6E
  8
2
 10
241.30184846501041
 20
155.6227179104784
 30
0.0
 11
241.30184846501041
 21
184.1227179104784
 31
0.0
  0
LINE
  5
D6F
  8
2
 10
227.30184846501041
 20
155.6227179104784
 30
0.0
 11
227.30184846501041
 21
184.1227179104784
 31
0.0
  0
LINE
  5
D70
  8
2
 10
238.5018484650104
 20
154.2370779104784
 30
0.0
 11
230.10184846501039
 21
154.2370779104784
 31
0.0
  0
LINE
  5
D71
  8
2
 10
239.30184846501041
 20
155.6227179104784
 30
0.0
 11
238.5018484650104
 21
154.2370779104784
 31
0.0
  0
LINE
  5
D72
  8
2
 10
229.30184846501041
 20
155.6227179104784
 30
0.0
 11
230.10184846501039
 21
154.2370779104784
 31
0.0
  0
LINE
  5
D73
  8
0
 10
227.2518484650104
 20
145.6227179104784
 30
0.0
 11
228.0601384650104
 21
147.02271791047841
 31
0.0
  0
ARC
  5
D74
  8
0
 10
227.71372846501029
 20
147.22271791047839
 30
0.0
 40
0.4
 50
330.0000000000029
 51
90.0
  0
LINE
  5
D75
  8
0
 10
653.30184846501038
 20
147.6227179104784
 30
0.0
 11
653.30184846501038
 21
187.6227179104784
 31
0.0
  0
LINE
  5
D76
  8
0
 10
653.30184846501038
 20
187.6227179104784
 30
0.0
 11
554.30184846501038
 21
187.6227179104784
 31
0.0
  0
LINE
  5
D77
  8
0
 10
554.30184846501038
 20
147.6227179104784
 30
0.0
 11
653.30184846501038
 21
147.6227179104784
 31
0.0
  0
LINE
  5
D78
  8
0
 10
554.30184846501038
 20
187.6227179104784
 30
0.0
 11
554.30184846501038
 21
147.6227179104784
 31
0.0
  0
LINE
  5
D79
  8
1
 10
603.80184846501038
 20
197.6227179104784
 30
0.0
 11
603.80184846501038
 21
137.6227179104784
 31
0.0
  0
LINE
  5
F60
  8
5
 10
404.30184846501032
 20
286.12271791047829
 30
0.0
 11
474.30184846501021
 21
286.12271791047829
 31
0.0
  0
LINE
  5
F61
  8
5
 10
474.30184846501021
 20
328.12271791047829
 30
0.0
 11
474.30184846501021
 21
286.12271791047829
 31
0.0
  0
LINE
  5
F62
  8
5
 10
404.30184846501032
 20
328.12271791047829
 30
0.0
 11
474.30184846501049
 21
328.12271791047829
 31
0.0
  0
LINE
  5
F63
  8
5
 10
404.30184846501032
 20
328.12271791047829
 30
0.0
 11
404.30184846501032
 21
286.12271791047829
 31
0.0
  0
LINE
  5
F64
  8
5
 10
404.3018484650101
 20
164.6227179104784
 30
0.0
 11
474.3018484650101
 21
164.6227179104784
 31
0.0
  0
LINE
  5
F65
  8
5
 10
404.3018484650101
 20
164.6227179104784
 30
0.0
 11
404.3018484650101
 21
147.6227179104784
 31
0.0
  0
LINE
  5
F66
  8
5
 10
474.3018484650101
 20
164.6227179104784
 30
0.0
 11
474.3018484650101
 21
147.6227179104784
 31
0.0
  0
LINE
  5
F67
  8
5
 10
624.80184846501038
 20
164.6227179104784
 30
0.0
 11
624.80184846501038
 21
147.6227179104784
 31
0.0
  0
LINE
  5
F68
  8
5
 10
624.80184846501038
 20
164.6227179104784
 30
0.0
 11
582.80184846501038
 21
164.6227179104784
 31
0.0
  0
LINE
  5
F69
  8
5
 10
582.80184846501038
 20
164.6227179104784
 30
0.0
 11
582.80184846501038
 21
147.6227179104784
 31
0.0
  0
LINE
  5
F6A
  8
5
 10
225.30184846501041
 20
286.1277179104784
 30
0.0
 11
290.30184846501038
 21
286.1277179104784
 31
0.0
  0
LINE
  5
F6B
  8
5
 10
225.30184846501041
 20
328.1277179104784
 30
0.0
 11
290.30184846501038
 21
328.1277179104784
 31
0.0
  0
LINE
  5
F6C
  8
5
 10
290.30184846501038
 20
328.1277179104784
 30
0.0
 11
290.30184846501038
 21
286.1277179104784
 31
0.0
  0
CIRCLE
  5
F6D
  8
5
 10
234.30184846501041
 20
342.1177179104784
 30
0.0
 40
9.0
  0
LINE
  5
F6E
  8
5
 10
225.30184846501041
 20
328.1277179104784
 30
0.0
 11
225.30184846501041
 21
286.1277179104784
 31
0.0
  0
CIRCLE
  5
F6F
  8
5
 10
234.30184846501041
 20
272.1177179104784
 30
0.0
 40
9.0
  0
LINE
  5
F70
  8
5
 10
290.30184846501038
 20
164.6227179104784
 30
0.0
 11
290.30184846501038
 21
147.6227179104784
 31
0.0
  0
LINE
  5
F71
  8
5
 10
225.30184846501041
 20
164.6227179104784
 30
0.0
 11
225.30184846501041
 21
147.6227179104784
 31
0.0
  0
LINE
  5
F72
  8
5
 10
225.30184846501041
 20
164.6227179104784
 30
0.0
 11
290.30184846501038
 21
164.6227179104784
 31
0.0
  0
LINE
  5
F73
  8
5
 10
105.80184846501029
 20
164.6227179104784
 30
0.0
 11
105.80184846501029
 21
147.6227179104784
 31
0.0
  0
LINE
  5
F74
  8
5
 10
105.80184846501029
 20
164.6227179104784
 30
0.0
 11
63.80184846501038
 21
164.6227179104784
 31
0.0
  0
LINE
  5
F75
  8
5
 10
63.80184846501038
 20
164.6227179104784
 30
0.0
 11
63.80184846501038
 21
147.6227179104784
 31
0.0
  0
LINE
  5
F76
  8
5
 10
40.801848465010039
 20
163.62271791047931
 30
0.0
 11
58.801848465010039
 21
163.62271791047931
 31
0.0
  0
LINE
  5
F77
  8
5
 10
58.801848465010153
 20
163.62271791047931
 30
0.0
 11
58.801848465010039
 21
147.6227179104792
 31
0.0
  0
LINE
  5
F78
  8
5
 10
40.801848465010039
 20
163.62271791047931
 30
0.0
 11
40.801848465010039
 21
147.6227179104792
 31
0.0
  0
LINE
  5
F79
  8
5
 10
128.80184846501081
 20
163.6227179104784
 30
0.0
 11
128.80184846501069
 21
147.6227179104784
 31
0.0
  0
LINE
  5
F7A
  8
5
 10
110.80184846501071
 20
163.6227179104784
 30
0.0
 11
128.80184846501069
 21
163.6227179104784
 31
0.0
  0
LINE
  5
F7B
  8
5
 10
110.80184846501071
 20
163.6227179104784
 30
0.0
 11
110.80184846501071
 21
147.6227179104784
 31
0.0
  0
LINE
  5
F7F
  8
5
 10
225.30184846501049
 20
163.6227179104784
 30
0.0
 11
243.30184846501049
 21
163.6227179104784
 31
0.0
  0
LINE
  5
F80
  8
5
 10
225.30184846501049
 20
163.6227179104784
 30
0.0
 11
225.30184846501049
 21
147.6227179104784
 31
0.0
  0
LINE
  5
F81
  8
5
 10
243.30184846501069
 20
163.6227179104784
 30
0.0
 11
243.30184846501049
 21
147.6227179104784
 31
0.0
  0
TEXT
  5
1028
  8
0
 62
     3
 10
0.0
 20
0.0
 30
0.0
 40
10.0
  1
SQL1040-SS10
  7
STANDARD1
  0
ENDSEC
  0
EOF
