  0
SECTION
  2
HEADER
  9
$ACADVER
  1
AC1009
  9
$INSBASE
 10
0.0
 20
0.0
 30
0.0
  9
$EXTMIN
 10
0.0
 20
-2.960436562073669
 30
0.0
  9
$EXTMAX
 10
318.40047440080667
 20
250.41616494113561
 30
0.0
  9
$LIMMIN
 10
0.0
 20
0.0
  9
$LIMMAX
 10
275.0
 20
175.0
  9
$ORTHOMODE
 70
     0
  9
$REGENMODE
 70
     1
  9
$FILLMODE
 70
     1
  9
$QTEXTMODE
 70
     0
  9
$MIRRTEXT
 70
     0
  9
$DRAGMODE
 70
     2
  9
$LTSCALE
 40
10.0
  9
$OSMODE
 70
    55
  9
$ATTMODE
 70
     1
  9
$TEXTSIZE
 40
0.2
  9
$TRACEWID
 40
0.05
  9
$TEXTSTYLE
  7
STANDARD
  9
$CLAYER
  8
0
  9
$CELTYPE
  6
BYLAYER
  9
$CECOLOR
 62
   256
  9
$DIMSCALE
 40
1.0
  9
$DIMASZ
 40
3.0
  9
$DIMEXO
 40
1.0
  9
$DIMDLI
 40
6.0
  9
$DIMRND
 40
0.0
  9
$DIMDLE
 40
0.0
  9
$DIMEXE
 40
1.0
  9
$DIMTP
 40
495.0
  9
$DIMTM
 40
0.0
  9
$DIMTXT
 40
3.0
  9
$DIMCEN
 40
0.0
  9
$DIMTSZ
 40
0.0
  9
$DIMTOL
 70
     0
  9
$DIMLIM
 70
     0
  9
$DIMTIH
 70
     0
  9
$DIMTOH
 70
     0
  9
$DIMSE1
 70
     0
  9
$DIMSE2
 70
     0
  9
$DIMTAD
 70
     1
  9
$DIMZIN
 70
     0
  9
$DIMBLK
  1

  9
$DIMASO
 70
     0
  9
$DIMSHO
 70
     0
  9
$DIMPOST
  1

  9
$DIMAPOST
  1

  9
$DIMALT
 70
     0
  9
$DIMALTD
 70
     2
  9
$DIMALTF
 40
25.399999999999999
  9
$DIMLFAC
 40
1.0
  9
$DIMTOFL
 70
     1
  9
$DIMTVP
 40
0.0
  9
$DIMTIX
 70
     1
  9
$DIMSOXD
 70
     0
  9
$DIMSAH
 70
     0
  9
$DIMBLK1
  1

  9
$DIMBLK2
  1

  9
$DIMSTYLE
  2
STANDARD
  9
$DIMCLRD
 70
     0
  9
$DIMCLRE
 70
     0
  9
$DIMCLRT
 70
     4
  9
$DIMTFAC
 40
1.0
  9
$DIMGAP
 40
1.0
  9
$LUNITS
 70
     2
  9
$LUPREC
 70
     4
  9
$SKETCHINC
 40
0.1
  9
$FILLETRAD
 40
0.0
  9
$AUNITS
 70
     0
  9
$AUPREC
 70
     0
  9
$MENU
  1
E:\r13\win\SUPPORT\ACAD
  9
$ELEVATION
 40
0.0
  9
$PELEVATION
 40
0.0
  9
$THICKNESS
 40
0.0
  9
$LIMCHECK
 70
     0
  9
$BLIPMODE
 70
     0
  9
$CHAMFERA
 40
0.0
  9
$CHAMFERB
 40
0.0
  9
$SKPOLY
 70
     0
  9
$TDCREATE
 40
2450653.5278402781
  9
$TDUPDATE
 40
2456598.5508947219
  9
$TDINDWG
 40
0.0933661111
  9
$TDUSRTIMER
 40
0.0933661111
  9
$USRTIMER
 70
     1
  9
$ANGBASE
 50
0.0
  9
$ANGDIR
 70
     0
  9
$PDMODE
 70
     0
  9
$PDSIZE
 40
0.0
  9
$PLINEWID
 40
0.0
  9
$COORDS
 70
     1
  9
$SPLFRAME
 70
     0
  9
$SPLINETYPE
 70
     6
  9
$SPLINESEGS
 70
     8
  9
$ATTDIA
 70
     0
  9
$ATTREQ
 70
     1
  9
$HANDLING
 70
     1
  9
$HANDSEED
  5
D56
  9
$SURFTAB1
 70
     6
  9
$SURFTAB2
 70
     6
  9
$SURFTYPE
 70
     6
  9
$SURFU
 70
     6
  9
$SURFV
 70
     6
  9
$UCSNAME
  2

  9
$UCSORG
 10
0.0
 20
0.0
 30
0.0
  9
$UCSXDIR
 10
1.0
 20
0.0
 30
0.0
  9
$UCSYDIR
 10
0.0
 20
1.0
 30
0.0
  9
$PUCSNAME
  2

  9
$PUCSORG
 10
0.0
 20
0.0
 30
0.0
  9
$PUCSXDIR
 10
1.0
 20
0.0
 30
0.0
  9
$PUCSYDIR
 10
0.0
 20
1.0
 30
0.0
  9
$USERI1
 70
     4
  9
$USERI2
 70
     1
  9
$USERI3
 70
     0
  9
$USERI4
 70
     0
  9
$USERI5
 70
     0
  9
$USERR1
 40
1.0
  9
$USERR2
 40
3.0
  9
$USERR3
 40
3.0
  9
$USERR4
 40
3.0
  9
$USERR5
 40
10.0
  9
$WORLDVIEW
 70
     1
  9
$SHADEDGE
 70
     3
  9
$SHADEDIF
 70
    70
  9
$TILEMODE
 70
     1
  9
$MAXACTVP
 70
    16
  9
$PLIMCHECK
 70
     0
  9
$PEXTMIN
 10
1.0000000000000000E+020
 20
1.0000000000000000E+020
 30
1.0000000000000000E+020
  9
$PEXTMAX
 10
-1.0000000000000000E+020
 20
-1.0000000000000000E+020
 30
-1.0000000000000000E+020
  9
$PLIMMIN
 10
0.0
 20
0.0
  9
$PLIMMAX
 10
12.0
 20
9.0
  9
$UNITMODE
 70
     0
  9
$VISRETAIN
 70
     0
  9
$PLINEGEN
 70
     0
  9
$PSLTSCALE
 70
     0
  0
ENDSEC
  0
SECTION
  2
TABLES
  0
TABLE
  2
VPORT
 70
     1
  0
VPORT
  2
*ACTIVE
 70
     0
 10
0.0
 20
0.0
 11
1.0
 21
1.0
 12
159.2002379417371
 22
162.16136072744729
 13
0.0
 23
0.0
 14
5.0
 24
5.0
 15
10.0
 25
10.0
 16
0.0
 26
0.0
 36
1.0
 17
0.0
 27
0.0
 37
0.0
 40
333.17318848552742
 41
1.7807262569832401
 42
50.0
 43
0.0
 44
0.0
 50
0.0
 51
0.0
 71
     0
 72
   100
 73
     1
 74
     0
 75
     0
 76
     0
 77
     0
 78
     0
  0
ENDTAB
  0
TABLE
  2
LTYPE
 70
     3
  0
LTYPE
  2
CONTINUOUS
 70
     0
  3
Solid Line
 72
    65
 73
     0
 40
0.0
  0
LTYPE
  2
CENTER
 70
     0
  3
____ _ ____ _ ____ _ ____ _ ____ _ ____ _ ____
 72
    65
 73
     4
 40
2.0
 49
1.25
 49
-0.25
 49
0.25
 49
-0.25
  0
LTYPE
  2
PHANTOM2
 70
     0
  3
___ _ _ ___ _ _ ___ _ _ ___ _ _
 72
    65
 73
     6
 40
1.25
 49
0.625
 49
-0.125
 49
0.125
 49
-0.125
 49
0.125
 49
-0.125
  0
ENDTAB
  0
TABLE
  2
LAYER
 70
     2
  0
LAYER
  2
0
 70
     0
 62
     7
  6
CONTINUOUS
  0
LAYER
  2
1
 70
     0
 62
     1
  6
CENTER
  0
ENDTAB
  0
TABLE
  2
STYLE
 70
     2
  0
STYLE
  2
STANDARD
 70
     0
 40
0.0
 41
1.0
 50
0.0
 71
     0
 42
0.2
  3
simplex
  4
bigfont
  0
STYLE
  2
STANDARD1
 70
     0
 40
0.0
 41
1.0
 50
0.0
 71
     0
 42
3.0
  3
txt
  4

  0
ENDTAB
  0
TABLE
  2
VIEW
 70
     0
  0
ENDTAB
  0
TABLE
  2
UCS
 70
     0
  0
ENDTAB
  0
TABLE
  2
APPID
 70
    45
  0
APPID
  2
ACAD
 70
     0
  0
APPID
  2
GENIUS_GENODEF_13
 70
     0
  0
APPID
  2
GENIUS_GENOBJ-N-FIL_13
 70
     0
  0
APPID
  2
GENIUS_GENOENT_13
 70
     0
  0
APPID
  2
GENIUS_GENOBJ_13
 70
     0
  0
APPID
  2
GENIUS_GENOLIS_13
 70
     0
  0
APPID
  2
GENIUS_GENOREF_13
 70
     0
  0
APPID
  2
GENIUS_GENOBJ-N-SEC_13
 70
     0
  0
APPID
  2
GENIUS_GENOBJ-N-CRS_13
 70
     0
  0
APPID
  2
GENIUS_GENBH_13
 70
     0
  0
APPID
  2
GENIUS_GENOBJ-NBEHI-BHF_13
 70
     0
  0
APPID
  2
GENIUS_GENOBJ-NBEHI-BHB_13
 70
     0
  0
APPID
  2
GENIUS_GENOBJ-F-PART_13
 70
     0
  0
APPID
  2
GENIUS_GEFSTDP_13
 70
     0
  0
APPID
  2
GENIUS_GENOBJ-N-RSSYM_13
 70
     0
  0
APPID
  2
GENIUS_GENSYMENT_13
 70
     0
  0
APPID
  2
GENIUS_GEFINERT_13
 70
     0
  0
APPID
  2
GENIUS_GENOBJ-F-INER_13
 70
     0
  0
APPID
  2
GENIUS_GENOBJ-N-TIT_13
 70
     0
  0
APPID
  2
GENIUS_GENTITLE_13
 70
     0
  0
APPID
  2
GENIUS_GENZVEED_13
 70
     0
  0
APPID
  2
GENIUS_GENOBJ-N-LEADER_13
 70
     0
  0
APPID
  2
GENIUS_GENOBJ-N-ZOO_13
 70
     0
  0
APPID
  2
GENIUS_GENZOO_13
 70
     0
  0
APPID
  2
GENIUS_GENOBJ-F-TOL_13
 70
     0
  0
APPID
  2
GENIUS_GENOBJ-N-REV_13
 70
     0
  0
APPID
  2
GENIUS_GENOBJ-F-ROD_13
 70
     0
  0
APPID
  2
GENIUS_GENOBJ-F-SPR_13
 70
     0
  0
APPID
  2
GENIUS_GEFSPRING_13
 70
     0
  0
APPID
  2
GENIUS_GENCFG_13
 70
     0
  0
APPID
  2
GENIUS_GENCFG0_13
 70
     0
  0
APPID
  2
GENIUS_GENCFG1_13
 70
     0
  0
APPID
  2
GENIUS_GENCFG2_13
 70
     0
  0
APPID
  2
GENIUS_GENCFG3_13
 70
     0
  0
APPID
  2
GENIUS_GENCFG4_13
 70
     0
  0
APPID
  2
GENIUS_GEVCFG0_13
 70
     0
  0
APPID
  2
GENIUS_GENOBJ-N-REC_13
 70
     0
  0
APPID
  2
GENIUS_GENFIL_13
 70
     0
  0
APPID
  2
GENIUS_GENOBJ-N-CHA_13
 70
     0
  0
APPID
  2
GENIUS_GENREC_13
 70
     0
  0
APPID
  2
GENIUS_GENOBJ-F-FEM_13
 70
     0
  0
APPID
  2
GENIUS_GEFFEM_13
 70
     0
  0
APPID
  2
GENIUS_GENOBJ-N-CEN_13
 70
     0
  0
APPID
  2
ACAD_MLEADERVER
 70
     0
  0
APPID
  2
ACAD_NAV_VCDISPLAY
 70
     0
  0
ENDTAB
  0
TABLE
  2
DIMSTYLE
 70
     1
  0
DIMSTYLE
  2
STANDARD
 70
     0
  3

  4

  5

  6

  7

 40
1.0
 41
0.18
 42
0.0625
 43
0.38
 44
0.18
 45
0.0
 46
0.0
 47
0.0
 48
0.0
140
0.18
141
0.09
142
0.0
143
25.399999999999999
144
1.0
145
0.0
146
1.0
147
0.09
 71
     0
 72
     0
 73
     1
 74
     1
 75
     0
 76
     0
 77
     0
 78
     0
170
     0
171
     2
172
     0
173
     0
174
     0
175
     0
176
     0
177
     0
178
     0
  0
ENDTAB
  0
ENDSEC
  0
SECTION
  2
BLOCKS
  0
BLOCK
  8
0
  2
$MODEL_SPACE
 70
     0
 10
0.0
 20
0.0
 30
0.0
  3
$MODEL_SPACE
  1

  0
ENDBLK
  5
C19
  8
0
  0
BLOCK
 67
     1
  8
0
  2
$PAPER_SPACE
 70
     0
 10
0.0
 20
0.0
 30
0.0
  3
$PAPER_SPACE
  1

  0
ENDBLK
  5
C17
 67
     1
  8
0
  0
ENDSEC
  0
SECTION
  2
ENTITIES
  0
LINE
  5
A35
  8
0
 10
221.47560884779739
 20
195.41616494113629
 30
0.0
 11
141.4756088482676
 21
195.41616494113629
 31
0.0
  0
LINE
  5
A36
  8
0
 10
141.4756088482676
 20
245.41616494113569
 30
0.0
 11
221.47560884779739
 21
245.41616494113569
 31
0.0
  0
LINE
  5
A37
  8
1
 10
137.47560884802931
 20
94.742101144687595
 30
0.0
 11
225.47560884779651
 21
94.742101143148844
 31
0.0
  0
LINE
  5
A38
  8
1
 10
137.47560884802931
 20
134.7421011427146
 30
0.0
 11
185.47560884802951
 21
134.7421011427146
 31
0.0
  0
LINE
  5
A3B
  8
0
 10
195.9756088465177
 20
74.742101143183788
 30
0.0
 11
166.975608849401
 21
74.742101143183845
 31
0.0
  0
ARC
  5
A3C
  8
0
 10
177.47560884803019
 20
150.7421011427148
 30
0.0
 40
4.0
 50
359.99999999999841
 51
90.000000000012619
1001
GENIUS_GENODEF_13
1002
{
1000
HIER
1070
     0
1002
}
1002
{
1000
MANEDIT
1070
     0
1002
}
1002
{
1000
NOSEL
1070
     0
1002
}
1002
{
1000
BEHIND
1070
     0
1002
}
1002
{
1000
REACTOR
1002
}
1001
GENIUS_GENOBJ-N-FIL_13
1002
{
1000
OWNER
1000
GEN
1002
}
  0
ARC
  5
A3D
  8
0
 10
177.4753227138302
 20
150.74184502694911
 30
0.0
 40
2.2000000000000002
 50
359.99999999999193
 51
89.999999999983586
1001
GENIUS_GENODEF_13
1002
{
1000
HIER
1070
     0
1002
}
1002
{
1000
MANEDIT
1070
     0
1002
}
1002
{
1000
NOSEL
1070
     0
1002
}
1002
{
1000
BEHIND
1070
     0
1002
}
1002
{
1000
REACTOR
1002
}
1001
GENIUS_GENOBJ-N-FIL_13
1002
{
1000
OWNER
1000
GEN
1002
}
  0
LINE
  5
A3E
  8
0
 10
177.47560884988829
 20
141.74210114201639
 30
0.0
 11
178.97560884988829
 21
141.74210114201639
 31
0.0
  0
LINE
  5
A3F
  8
0
 10
173.7756088487279
 20
146.54210114201641
 30
0.0
 11
179.17532271383089
 21
146.54210114201641
 31
0.0
  0
ARC
  5
A40
  8
0
 10
176.97560884988829
 20
142.24210114201639
 30
0.0
 40
2.5
 50
0.0
 51
90.0
1001
GENIUS_GENODEF_13
1002
{
1000
HIER
1070
     0
1002
}
1002
{
1000
MANEDIT
1070
     0
1002
}
1002
{
1000
NOSEL
1070
     0
1002
}
1002
{
1000
BEHIND
1070
     0
1002
}
1002
{
1000
REACTOR
1002
}
1001
GENIUS_GENOBJ-N-FIL_13
1002
{
1000
OWNER
1000
GEN
1002
}
  0
LINE
  5
A41
  8
0
 10
179.97560884802951
 20
138.74210114275849
 30
0.0
 11
177.97560884988829
 21
138.74210114275849
 31
0.0
  0
LINE
  5
A42
  8
0
 10
179.97560884802999
 20
130.74210114127419
 30
0.0
 11
177.97560884988829
 21
130.7421011412751
 31
0.0
  0
LINE
  5
A43
  8
0
 10
177.47560884988829
 20
127.74210114201639
 30
0.0
 11
178.97560884988829
 21
127.74210114201639
 31
0.0
  0
ARC
  5
A44
  8
0
 10
176.97560884988829
 20
127.24210114201639
 30
0.0
 40
2.5
 50
270.0
 51
0.0
1001
GENIUS_GENODEF_13
1002
{
1000
HIER
1070
     0
1002
}
1002
{
1000
MANEDIT
1070
     0
1002
}
1002
{
1000
NOSEL
1070
     0
1002
}
1002
{
1000
BEHIND
1070
     0
1002
}
1002
{
1000
REACTOR
1002
}
1001
GENIUS_GENOBJ-N-FIL_13
1002
{
1000
OWNER
1000
GEN
1002
}
  0
LINE
  5
A45
  8
0
 10
170.69007494274811
 20
101.8352468938611
 30
0.0
 11
178.86469614524441
 21
110.0098680965904
 31
0.0
  0
LINE
  5
A46
  8
0
 10
185.9756088472835
 20
78.74210114271466
 30
0.0
 11
176.97560884868321
 21
78.74210114271466
 31
0.0
  0
LINE
  5
A47
  8
1
 10
161.4756088480311
 20
158.74210114271469
 30
0.0
 11
161.4756088479549
 21
70.742101143183845
 31
0.0
  0
LINE
  5
A4C
  8
0
 10
98.042826704114887
 20
74.742101143183788
 30
0.0
 11
98.042826704114887
 21
154.74210114271349
 31
0.0
  0
LINE
  5
A4D
  8
0
 10
48.042826704115562
 20
154.74210114271349
 30
0.0
 11
48.042826704115562
 21
74.742101143183788
 31
0.0
  0
LINE
  5
A4E
  8
0
 10
48.042826704115562
 20
74.742101143183788
 30
0.0
 11
98.042826704114887
 21
74.742101143183788
 31
0.0
  0
LINE
  5
A4F
  8
0
 10
98.042826704114887
 20
154.74210114271349
 30
0.0
 11
48.042826704115562
 21
154.74210114271349
 31
0.0
  0
LINE
  5
A50
  8
0
 10
48.042826704115562
 20
130.7421011412747
 30
0.0
 11
98.042826704115555
 21
130.7421011412747
 31
0.0
  0
LINE
  5
A51
  8
0
 10
48.042826704114873
 20
138.742101142759
 30
0.0
 11
98.042826704115555
 21
138.74210114275849
 31
0.0
  0
LINE
  5
A52
  8
0
 10
48.042826704114873
 20
90.742101141274702
 30
0.0
 11
98.042826704114887
 21
90.742101141274702
 31
0.0
  0
LINE
  5
A53
  8
0
 10
48.042826704117367
 20
98.742101142758543
 30
0.0
 11
98.04282670411375
 21
98.742101142758543
 31
0.0
  0
LINE
  5
A54
  8
1
 10
43.042826704115548
 20
134.7421011427146
 30
0.0
 11
103.0428267041148
 21
134.7421011427146
 31
0.0
  0
LINE
  5
A55
  8
1
 10
43.042826704115548
 20
94.742101143148815
 30
0.0
 11
103.0428267041148
 21
94.742101143148844
 31
0.0
  0
LINE
  5
A57
  8
0
 10
141.47560884802931
 20
89.24210114267305
 30
0.0
 11
141.47560884802931
 21
78.742101143183788
 31
0.0
  0
LINE
  5
A58
  8
0
 10
174.475608848685
 20
81.792353674608307
 30
0.0
 11
174.47560884868321
 21
81.242101142728018
 31
0.0
  0
LINE
  5
A59
  8
0
 10
143.2758649644924
 20
82.442101143412984
 30
0.0
 11
143.27586496449331
 21
78.74238727830982
 31
0.0
  0
LINE
  5
A5A
  8
0
 10
149.67560884942611
 20
82.442101143412984
 30
0.0
 11
149.67560884942611
 21
77.042387278310002
 31
0.0
  0
ARC
  5
A5B
  8
0
 10
156.4756088486796
 20
80.549712985532835
 30
0.0
 40
5.0
 50
135.00000001055329
 51
179.9999999997205
1001
GENIUS_GENODEF_13
1002
{
1000
HIER
1070
     0
1002
}
1002
{
1000
MANEDIT
1070
     0
1002
}
1002
{
1000
NOSEL
1070
     0
1002
}
1002
{
1000
BEHIND
1070
     0
1002
}
1002
{
1000
REACTOR
1002
}
1001
GENIUS_GENOBJ-N-FIL_13
1002
{
1000
OWNER
1000
GEN
1002
}
  0
ARC
  5
A5C
  8
0
 10
166.4756088486796
 20
80.549712987544979
 30
0.0
 40
5.0
 50
359.9999999997205
 51
44.999999999223498
1001
GENIUS_GENODEF_13
1002
{
1000
HIER
1070
     0
1002
}
1002
{
1000
MANEDIT
1070
     0
1002
}
1002
{
1000
NOSEL
1070
     0
1002
}
1002
{
1000
BEHIND
1070
     0
1002
}
1002
{
1000
REACTOR
1002
}
1001
GENIUS_GENOBJ-N-FIL_13
1002
{
1000
OWNER
1000
GEN
1002
}
  0
ARC
  5
A5D
  8
0
 10
145.47560884802951
 20
78.742101143184584
 30
0.0
 40
4.0
 50
180.0000000000114
 51
269.99999999999778
1001
GENIUS_GENODEF_13
1002
{
1000
HIER
1070
     0
1002
}
1002
{
1000
MANEDIT
1070
     0
1002
}
1002
{
1000
NOSEL
1070
     0
1002
}
1002
{
1000
BEHIND
1070
     0
1002
}
1002
{
1000
REACTOR
1002
}
1001
GENIUS_GENOBJ-N-FIL_13
1002
{
1000
OWNER
1000
GEN
1002
}
  0
ARC
  5
A5E
  8
0
 10
145.47586496449401
 20
78.74238727831073
 30
0.0
 40
2.2000000000000002
 50
180.0000000000164
 51
270.00000000000807
1001
GENIUS_GENODEF_13
1002
{
1000
HIER
1070
     0
1002
}
1002
{
1000
MANEDIT
1070
     0
1002
}
1002
{
1000
NOSEL
1070
     0
1002
}
1002
{
1000
BEHIND
1070
     0
1002
}
1002
{
1000
REACTOR
1002
}
1001
GENIUS_GENOBJ-N-FIL_13
1002
{
1000
OWNER
1000
GEN
1002
}
  0
ARC
  5
A5F
  8
0
 10
155.9756088479165
 20
76.242101143183788
 30
0.0
 40
1.5
 50
270.0
 51
359.99999999973937
1001
GENIUS_GENODEF_13
1002
{
1000
HIER
1070
     0
1002
}
1002
{
1000
MANEDIT
1070
     0
1002
}
1002
{
1000
NOSEL
1070
     0
1002
}
1002
{
1000
BEHIND
1070
     0
1002
}
1002
{
1000
REACTOR
1002
}
1001
GENIUS_GENOBJ-N-FIL_13
1002
{
1000
OWNER
1000
GEN
1002
}
  0
ARC
  5
A60
  8
0
 10
166.975608849401
 20
76.242101143183845
 30
0.0
 40
1.5
 50
179.99999999976839
 51
270.0
1001
GENIUS_GENODEF_13
1002
{
1000
HIER
1070
     0
1002
}
1002
{
1000
MANEDIT
1070
     0
1002
}
1002
{
1000
NOSEL
1070
     0
1002
}
1002
{
1000
BEHIND
1070
     0
1002
}
1002
{
1000
REACTOR
1002
}
1001
GENIUS_GENOBJ-N-FIL_13
1002
{
1000
OWNER
1000
GEN
1002
}
  0
LINE
  5
A61
  8
0
 10
155.9756088479165
 20
74.742101143183788
 30
0.0
 11
145.47560884802931
 21
74.742101143183788
 31
0.0
  0
LINE
  5
A62
  8
0
 10
171.4756088486796
 20
80.549712987521048
 30
0.0
 11
171.4756088486732
 21
79.242101142183742
 31
0.0
  0
ARC
  5
A63
  8
0
 10
176.97560884868321
 20
81.24210114271466
 30
0.0
 40
2.5
 50
179.99999999969469
 51
270.0
1001
GENIUS_GENODEF_13
1002
{
1000
HIER
1070
     0
1002
}
1002
{
1000
MANEDIT
1070
     0
1002
}
1002
{
1000
NOSEL
1070
     0
1002
}
1002
{
1000
BEHIND
1070
     0
1002
}
1002
{
1000
REACTOR
1002
}
1001
GENIUS_GENOBJ-N-FIL_13
1002
{
1000
OWNER
1000
GEN
1002
}
  0
ARC
  5
A64
  8
0
 10
167.9756088486705
 20
78.74210114220034
 30
0.0
 40
0.5
 50
359.9999999997205
 51
89.999999999720515
1001
GENIUS_GENODEF_13
1002
{
1000
HIER
1070
     0
1002
}
1002
{
1000
MANEDIT
1070
     0
1002
}
1002
{
1000
NOSEL
1070
     0
1002
}
1002
{
1000
BEHIND
1070
     0
1002
}
1002
{
1000
REACTOR
1002
}
1001
GENIUS_GENOBJ-N-FIL_13
1002
{
1000
OWNER
1000
GEN
1002
}
  0
LINE
  5
A65
  8
0
 10
167.9756088486732
 20
79.242101142201022
 30
0.0
 11
166.4756088494145
 21
79.242101142208298
 31
0.0
  0
ARC
  5
A66
  8
0
 10
166.47560884940989
 20
78.242101142207673
 30
0.0
 40
1.0
 50
89.999999999720515
 51
179.9999999997205
1001
GENIUS_GENODEF_13
1002
{
1000
HIER
1070
     0
1002
}
1002
{
1000
MANEDIT
1070
     0
1002
}
1002
{
1000
NOSEL
1070
     0
1002
}
1002
{
1000
BEHIND
1070
     0
1002
}
1002
{
1000
REACTOR
1002
}
1001
GENIUS_GENOBJ-N-FIL_13
1002
{
1000
OWNER
1000
GEN
1002
}
  0
ARC
  5
A67
  8
0
 10
154.9756088486705
 20
78.742101142263778
 30
0.0
 40
0.5
 50
89.999999999720515
 51
179.9999999997205
1001
GENIUS_GENODEF_13
1002
{
1000
HIER
1070
     0
1002
}
1002
{
1000
MANEDIT
1070
     0
1002
}
1002
{
1000
NOSEL
1070
     0
1002
}
1002
{
1000
BEHIND
1070
     0
1002
}
1002
{
1000
REACTOR
1002
}
1001
GENIUS_GENOBJ-N-FIL_13
1002
{
1000
OWNER
1000
GEN
1002
}
  0
ARC
  5
A68
  8
0
 10
156.47560884792651
 20
78.242101142256445
 30
0.0
 40
1.0
 50
359.9999999997205
 51
89.999999999720515
1001
GENIUS_GENODEF_13
1002
{
1000
HIER
1070
     0
1002
}
1002
{
1000
MANEDIT
1070
     0
1002
}
1002
{
1000
NOSEL
1070
     0
1002
}
1002
{
1000
BEHIND
1070
     0
1002
}
1002
{
1000
REACTOR
1002
}
1001
GENIUS_GENOBJ-N-FIL_13
1002
{
1000
OWNER
1000
GEN
1002
}
  0
LINE
  5
A69
  8
0
 10
154.9756088486732
 20
79.242101142263778
 30
0.0
 11
156.47560884793111
 21
79.242101142256502
 31
0.0
  0
ARC
  5
A6A
  8
0
 10
168.9756088486632
 20
77.242101142195452
 30
0.0
 40
0.5
 50
179.9999999997205
 51
269.99999999971891
1001
GENIUS_GENODEF_13
1002
{
1000
HIER
1070
     0
1002
}
1002
{
1000
MANEDIT
1070
     0
1002
}
1002
{
1000
NOSEL
1070
     0
1002
}
1002
{
1000
BEHIND
1070
     0
1002
}
1002
{
1000
REACTOR
1002
}
1001
GENIUS_GENOBJ-N-FIL_13
1002
{
1000
OWNER
1000
GEN
1002
}
  0
LINE
  5
A6B
  8
0
 10
165.475608849401
 20
76.242101143189871
 30
0.0
 11
165.47560884940901
 21
78.242101142212846
 31
0.0
  0
LINE
  5
A6C
  8
0
 10
168.4756088486705
 20
78.742101142198294
 30
0.0
 11
168.4756088486632
 21
77.242101142198294
 31
0.0
  0
LINE
  5
A6D
  8
0
 10
154.4756088486705
 20
78.742101142266506
 30
0.0
 11
154.4756088486632
 21
77.242101142266506
 31
0.0
  0
LINE
  5
A6E
  8
0
 10
157.4756088479165
 20
76.242101143176967
 30
0.0
 11
157.4756088479256
 21
78.242101142251954
 31
0.0
  0
LINE
  5
A6F
  8
0
 10
151.4756088486796
 20
80.549712985557449
 30
0.0
 11
151.4756088486732
 21
79.242101142281058
 31
0.0
  0
ARC
  5
A70
  8
0
 10
149.17560884942611
 20
77.042387278310002
 30
0.0
 40
0.5
 50
269.99999999998761
 51
0.0
1001
GENIUS_GENODEF_13
1002
{
1000
HIER
1070
     0
1002
}
1002
{
1000
MANEDIT
1070
     0
1002
}
1002
{
1000
NOSEL
1070
     0
1002
}
1002
{
1000
BEHIND
1070
     0
1002
}
1002
{
1000
REACTOR
1002
}
1001
GENIUS_GENOBJ-N-FIL_13
1002
{
1000
OWNER
1000
GEN
1002
}
  0
LINE
  5
A71
  8
0
 10
145.47586496449401
 20
76.542387278310912
 30
0.0
 11
149.17560884942611
 21
76.542387278310002
 31
0.0
  0
ARC
  5
A72
  8
0
 10
153.9756088486732
 20
79.242101142268666
 30
0.0
 40
2.5
 50
179.9999999997205
 51
269.9999999997205
1001
GENIUS_GENODEF_13
1002
{
1000
HIER
1070
     0
1002
}
1002
{
1000
MANEDIT
1070
     0
1002
}
1002
{
1000
NOSEL
1070
     0
1002
}
1002
{
1000
BEHIND
1070
     0
1002
}
1002
{
1000
REACTOR
1002
}
1001
GENIUS_GENOBJ-N-FIL_13
1002
{
1000
OWNER
1000
GEN
1002
}
  0
ARC
  5
A73
  8
0
 10
153.9756088486632
 20
77.242101142268666
 30
0.0
 40
0.5
 50
269.9999999997205
 51
359.9999999997205
1001
GENIUS_GENODEF_13
1002
{
1000
HIER
1070
     0
1002
}
1002
{
1000
MANEDIT
1070
     0
1002
}
1002
{
1000
NOSEL
1070
     0
1002
}
1002
{
1000
BEHIND
1070
     0
1002
}
1002
{
1000
REACTOR
1002
}
1001
GENIUS_GENOBJ-N-FIL_13
1002
{
1000
OWNER
1000
GEN
1002
}
  0
ARC
  5
A74
  8
0
 10
168.9756088486732
 20
79.242101142195452
 30
0.0
 40
2.5
 50
269.9999999997205
 51
359.9999999997205
1001
GENIUS_GENODEF_13
1002
{
1000
HIER
1070
     0
1002
}
1002
{
1000
MANEDIT
1070
     0
1002
}
1002
{
1000
NOSEL
1070
     0
1002
}
1002
{
1000
BEHIND
1070
     0
1002
}
1002
{
1000
REACTOR
1002
}
1001
GENIUS_GENOBJ-N-FIL_13
1002
{
1000
OWNER
1000
GEN
1002
}
  0
ARC
  5
A75
  8
0
 10
145.47560884802789
 20
150.74210114271631
 30
0.0
 40
4.0
 50
89.999999999979224
 51
180.00000000002319
1001
GENIUS_GENODEF_13
1002
{
1000
HIER
1070
     0
1002
}
1002
{
1000
MANEDIT
1070
     0
1002
}
1002
{
1000
NOSEL
1070
     0
1002
}
1002
{
1000
BEHIND
1070
     0
1002
}
1002
{
1000
REACTOR
1002
}
1001
GENIUS_GENOBJ-N-FIL_13
1002
{
1000
OWNER
1000
GEN
1002
}
  0
ARC
  5
A76
  8
0
 10
145.47589498362541
 20
150.74184502694911
 30
0.0
 40
2.2000000000000002
 50
90.000000000016414
 51
180.0000000000081
1001
GENIUS_GENODEF_13
1002
{
1000
HIER
1070
     0
1002
}
1002
{
1000
MANEDIT
1070
     0
1002
}
1002
{
1000
NOSEL
1070
     0
1002
}
1002
{
1000
BEHIND
1070
     0
1002
}
1002
{
1000
REACTOR
1002
}
1001
GENIUS_GENOBJ-N-FIL_13
1002
{
1000
OWNER
1000
GEN
1002
}
  0
ARC
  5
A77
  8
0
 10
143.97560884756729
 20
142.24210114201639
 30
0.0
 40
0.5
 50
180.0
 51
270.0
1001
GENIUS_GENODEF_13
1002
{
1000
HIER
1070
     0
1002
}
1002
{
1000
MANEDIT
1070
     0
1002
}
1002
{
1000
NOSEL
1070
     0
1002
}
1002
{
1000
BEHIND
1070
     0
1002
}
1002
{
1000
REACTOR
1002
}
1001
GENIUS_GENOBJ-N-FIL_13
1002
{
1000
OWNER
1000
GEN
1002
}
  0
ARC
  5
A78
  8
0
 10
143.7758949836246
 20
147.04210114201641
 30
0.0
 40
0.5
 50
179.99999999998761
 51
270.0
1001
GENIUS_GENODEF_13
1002
{
1000
HIER
1070
     0
1002
}
1002
{
1000
MANEDIT
1070
     0
1002
}
1002
{
1000
NOSEL
1070
     0
1002
}
1002
{
1000
BEHIND
1070
     0
1002
}
1002
{
1000
REACTOR
1002
}
1001
GENIUS_GENOBJ-N-FIL_13
1002
{
1000
OWNER
1000
GEN
1002
}
  0
ARC
  5
A79
  8
0
 10
145.97560884756729
 20
142.24210114201639
 30
0.0
 40
2.5
 50
90.0
 51
180.0
1001
GENIUS_GENODEF_13
1002
{
1000
HIER
1070
     0
1002
}
1002
{
1000
MANEDIT
1070
     0
1002
}
1002
{
1000
NOSEL
1070
     0
1002
}
1002
{
1000
BEHIND
1070
     0
1002
}
1002
{
1000
REACTOR
1002
}
1001
GENIUS_GENOBJ-N-FIL_13
1002
{
1000
OWNER
1000
GEN
1002
}
  0
LINE
  5
A7A
  8
0
 10
142.97560884802931
 20
138.74210114275849
 30
0.0
 11
144.97560884756729
 21
138.74210114275849
 31
0.0
  0
LINE
  5
A7B
  8
0
 10
142.9756088480286
 20
130.74210114127411
 30
0.0
 11
144.97560884756729
 21
130.7421011412751
 31
0.0
  0
ARC
  5
A7C
  8
0
 10
143.97560884756729
 20
127.24210114201639
 30
0.0
 40
0.5
 50
90.0
 51
179.99999999999841
1001
GENIUS_GENODEF_13
1002
{
1000
HIER
1070
     0
1002
}
1002
{
1000
MANEDIT
1070
     0
1002
}
1002
{
1000
NOSEL
1070
     0
1002
}
1002
{
1000
BEHIND
1070
     0
1002
}
1002
{
1000
REACTOR
1002
}
1001
GENIUS_GENOBJ-N-FIL_13
1002
{
1000
OWNER
1000
GEN
1002
}
  0
ARC
  5
A7D
  8
0
 10
145.97560884756729
 20
127.24210114201639
 30
0.0
 40
2.5
 50
180.0
 51
270.0
1001
GENIUS_GENODEF_13
1002
{
1000
HIER
1070
     0
1002
}
1002
{
1000
MANEDIT
1070
     0
1002
}
1002
{
1000
NOSEL
1070
     0
1002
}
1002
{
1000
BEHIND
1070
     0
1002
}
1002
{
1000
REACTOR
1002
}
1001
GENIUS_GENOBJ-N-FIL_13
1002
{
1000
OWNER
1000
GEN
1002
}
  0
ARC
  5
A7E
  8
0
 10
143.97560884756729
 20
102.2421011434152
 30
0.0
 40
0.5
 50
180.00000000000159
 51
270.0
1001
GENIUS_GENODEF_13
1002
{
1000
HIER
1070
     0
1002
}
1002
{
1000
MANEDIT
1070
     0
1002
}
1002
{
1000
NOSEL
1070
     0
1002
}
1002
{
1000
BEHIND
1070
     0
1002
}
1002
{
1000
REACTOR
1002
}
1001
GENIUS_GENOBJ-N-FIL_13
1002
{
1000
OWNER
1000
GEN
1002
}
  0
LINE
  5
A7F
  8
0
 10
142.9756088480286
 20
98.742101144157445
 30
0.0
 11
144.97560884756729
 21
98.742101144156436
 31
0.0
  0
ARC
  5
A80
  8
0
 10
145.97560884756729
 20
102.2421011434152
 30
0.0
 40
2.5
 50
90.0
 51
180.0
1001
GENIUS_GENODEF_13
1002
{
1000
HIER
1070
     0
1002
}
1002
{
1000
MANEDIT
1070
     0
1002
}
1002
{
1000
NOSEL
1070
     0
1002
}
1002
{
1000
BEHIND
1070
     0
1002
}
1002
{
1000
REACTOR
1002
}
1001
GENIUS_GENOBJ-N-FIL_13
1002
{
1000
OWNER
1000
GEN
1002
}
  0
LINE
  5
A81
  8
0
 10
142.97560884802931
 20
90.74210114267305
 30
0.0
 11
144.97560884756729
 21
90.74210114267305
 31
0.0
  0
ARC
  5
A82
  8
0
 10
143.97560884756729
 20
87.242101143415198
 30
0.0
 40
0.5
 50
90.0
 51
180.0
1001
GENIUS_GENODEF_13
1002
{
1000
HIER
1070
     0
1002
}
1002
{
1000
MANEDIT
1070
     0
1002
}
1002
{
1000
NOSEL
1070
     0
1002
}
1002
{
1000
BEHIND
1070
     0
1002
}
1002
{
1000
REACTOR
1002
}
1001
GENIUS_GENOBJ-N-FIL_13
1002
{
1000
OWNER
1000
GEN
1002
}
  0
ARC
  5
A83
  8
0
 10
145.97560884756729
 20
87.242101143415198
 30
0.0
 40
2.5
 50
180.0
 51
270.0
1001
GENIUS_GENODEF_13
1002
{
1000
HIER
1070
     0
1002
}
1002
{
1000
MANEDIT
1070
     0
1002
}
1002
{
1000
NOSEL
1070
     0
1002
}
1002
{
1000
BEHIND
1070
     0
1002
}
1002
{
1000
REACTOR
1002
}
1001
GENIUS_GENOBJ-N-FIL_13
1002
{
1000
OWNER
1000
GEN
1002
}
  0
ARC
  5
A84
  8
0
 10
143.77586496449231
 20
82.442101143412984
 30
0.0
 40
0.5
 50
89.999999999991843
 51
180.00000000001651
1001
GENIUS_GENODEF_13
1002
{
1000
HIER
1070
     0
1002
}
1002
{
1000
MANEDIT
1070
     0
1002
}
1002
{
1000
NOSEL
1070
     0
1002
}
1002
{
1000
BEHIND
1070
     0
1002
}
1002
{
1000
REACTOR
1002
}
1001
GENIUS_GENOBJ-N-FIL_13
1002
{
1000
OWNER
1000
GEN
1002
}
  0
ARC
  5
A85
  8
0
 10
142.97560884802931
 20
140.24210114275849
 30
0.0
 40
1.5
 50
180.0
 51
270.0
1001
GENIUS_GENODEF_13
1002
{
1000
HIER
1070
     0
1002
}
1002
{
1000
MANEDIT
1070
     0
1002
}
1002
{
1000
NOSEL
1070
     0
1002
}
1002
{
1000
BEHIND
1070
     0
1002
}
1002
{
1000
REACTOR
1002
}
1001
GENIUS_GENOBJ-N-FIL_13
1002
{
1000
OWNER
1000
GEN
1002
}
  0
ARC
  5
A86
  8
0
 10
142.97560884802931
 20
129.24210114127411
 30
0.0
 40
1.5
 50
90.000000000028038
 51
180.0
1001
GENIUS_GENODEF_13
1002
{
1000
HIER
1070
     0
1002
}
1002
{
1000
MANEDIT
1070
     0
1002
}
1002
{
1000
NOSEL
1070
     0
1002
}
1002
{
1000
BEHIND
1070
     0
1002
}
1002
{
1000
REACTOR
1002
}
1001
GENIUS_GENOBJ-N-FIL_13
1002
{
1000
OWNER
1000
GEN
1002
}
  0
ARC
  5
A87
  8
0
 10
142.97560884802931
 20
100.2421011441574
 30
0.0
 40
1.5
 50
180.0
 51
269.99999999997198
1001
GENIUS_GENODEF_13
1002
{
1000
HIER
1070
     0
1002
}
1002
{
1000
MANEDIT
1070
     0
1002
}
1002
{
1000
NOSEL
1070
     0
1002
}
1002
{
1000
BEHIND
1070
     0
1002
}
1002
{
1000
REACTOR
1002
}
1001
GENIUS_GENOBJ-N-FIL_13
1002
{
1000
OWNER
1000
GEN
1002
}
  0
ARC
  5
A88
  8
0
 10
142.97560884802931
 20
89.24210114267305
 30
0.0
 40
1.5
 50
90.0
 51
180.0
1001
GENIUS_GENODEF_13
1002
{
1000
HIER
1070
     0
1002
}
1002
{
1000
MANEDIT
1070
     0
1002
}
1002
{
1000
NOSEL
1070
     0
1002
}
1002
{
1000
BEHIND
1070
     0
1002
}
1002
{
1000
REACTOR
1002
}
1001
GENIUS_GENOBJ-N-FIL_13
1002
{
1000
OWNER
1000
GEN
1002
}
  0
LINE
  5
A89
  8
0
 10
141.47560884802931
 20
129.24210114127411
 30
0.0
 11
141.47560884802931
 21
100.2421011441574
 31
0.0
  0
LINE
  5
A8A
  8
0
 10
141.47560884802931
 20
150.74210114271469
 30
0.0
 11
141.47560884802931
 21
140.24210114275849
 31
0.0
  0
LINE
  5
A8B
  8
0
 10
143.27589498362551
 20
150.74184502694879
 30
0.0
 11
143.2758949836246
 21
147.04210114201649
 31
0.0
  0
ARC
  5
A8C
  8
0
 10
166.97560884947009
 20
153.24210114271469
 30
0.0
 40
1.5
 50
90.0
 51
179.99999999997101
1001
GENIUS_GENODEF_13
1002
{
1000
HIER
1070
     0
1002
}
1002
{
1000
MANEDIT
1070
     0
1002
}
1002
{
1000
NOSEL
1070
     0
1002
}
1002
{
1000
BEHIND
1070
     0
1002
}
1002
{
1000
REACTOR
1002
}
1001
GENIUS_GENOBJ-N-FIL_13
1002
{
1000
OWNER
1000
GEN
1002
}
  0
ARC
  5
A8D
  8
0
 10
155.9756088479877
 20
153.24210114271469
 30
0.0
 40
1.5
 50
359.99999999994208
 51
90.0
1001
GENIUS_GENODEF_13
1002
{
1000
HIER
1070
     0
1002
}
1002
{
1000
MANEDIT
1070
     0
1002
}
1002
{
1000
NOSEL
1070
     0
1002
}
1002
{
1000
BEHIND
1070
     0
1002
}
1002
{
1000
REACTOR
1002
}
1001
GENIUS_GENOBJ-N-FIL_13
1002
{
1000
OWNER
1000
GEN
1002
}
  0
LINE
  5
A8E
  8
0
 10
166.97560884947009
 20
154.74210114271469
 30
0.0
 11
177.47560884802931
 21
154.74210114271469
 31
0.0
  0
LINE
  5
A8F
  8
0
 10
145.47560884802931
 20
154.74210114271469
 30
0.0
 11
155.9756088479877
 21
154.74210114271469
 31
0.0
  0
LINE
  5
A90
  8
0
 10
171.4756088487278
 20
148.93448929783941
 30
0.0
 11
171.4756088487278
 21
150.24210114317691
 31
0.0
  0
LINE
  5
A91
  8
0
 10
173.7756088487279
 20
152.9418450269502
 30
0.0
 11
177.4753227138311
 21
152.9418450269491
 31
0.0
  0
ARC
  5
A92
  8
0
 10
173.7756088487279
 20
152.4418450269502
 30
0.0
 40
0.5
 50
89.999999999983515
 51
180.0000000000081
1001
GENIUS_GENODEF_13
1002
{
1000
HIER
1070
     0
1002
}
1002
{
1000
MANEDIT
1070
     0
1002
}
1002
{
1000
NOSEL
1070
     0
1002
}
1002
{
1000
BEHIND
1070
     0
1002
}
1002
{
1000
REACTOR
1002
}
1001
GENIUS_GENOBJ-N-FIL_13
1002
{
1000
OWNER
1000
GEN
1002
}
  0
LINE
  5
A93
  8
0
 10
167.9756088487278
 20
150.24210114317691
 30
0.0
 11
166.47560884946901
 21
150.24210114317691
 31
0.0
  0
LINE
  5
A94
  8
0
 10
168.4756088487278
 20
150.74210114317691
 30
0.0
 11
168.4756088487278
 21
152.24210114317691
 31
0.0
  0
LINE
  5
A95
  8
0
 10
165.47560884947021
 20
153.2421011427154
 30
0.0
 11
165.47560884946901
 21
151.24210114317691
 31
0.0
  0
ARC
  5
A96
  8
0
 10
167.9756088487278
 20
150.74210114317691
 30
0.0
 40
0.5
 50
270.0
 51
0.0
1001
GENIUS_GENODEF_13
1002
{
1000
HIER
1070
     0
1002
}
1002
{
1000
MANEDIT
1070
     0
1002
}
1002
{
1000
NOSEL
1070
     0
1002
}
1002
{
1000
BEHIND
1070
     0
1002
}
1002
{
1000
REACTOR
1002
}
1001
GENIUS_GENOBJ-N-FIL_13
1002
{
1000
OWNER
1000
GEN
1002
}
  0
ARC
  5
A97
  8
0
 10
166.47560884946901
 20
151.24210114317691
 30
0.0
 40
1.0
 50
180.0
 51
270.0
1001
GENIUS_GENODEF_13
1002
{
1000
HIER
1070
     0
1002
}
1002
{
1000
MANEDIT
1070
     0
1002
}
1002
{
1000
NOSEL
1070
     0
1002
}
1002
{
1000
BEHIND
1070
     0
1002
}
1002
{
1000
REACTOR
1002
}
1001
GENIUS_GENOBJ-N-FIL_13
1002
{
1000
OWNER
1000
GEN
1002
}
  0
ARC
  5
A98
  8
0
 10
168.9756088487278
 20
152.24210114317691
 30
0.0
 40
0.5
 50
90.000000000001606
 51
180.0
1001
GENIUS_GENODEF_13
1002
{
1000
HIER
1070
     0
1002
}
1002
{
1000
MANEDIT
1070
     0
1002
}
1002
{
1000
NOSEL
1070
     0
1002
}
1002
{
1000
BEHIND
1070
     0
1002
}
1002
{
1000
REACTOR
1002
}
1001
GENIUS_GENOBJ-N-FIL_13
1002
{
1000
OWNER
1000
GEN
1002
}
  0
LINE
  5
A99
  8
0
 10
154.9756088487278
 20
150.24210114317691
 30
0.0
 11
156.4756088479856
 21
150.24210114317691
 31
0.0
  0
LINE
  5
A9A
  8
0
 10
157.4756088479877
 20
153.24210114271321
 30
0.0
 11
157.4756088479856
 21
151.24210114317691
 31
0.0
  0
LINE
  5
A9B
  8
0
 10
154.4756088487278
 20
150.74210114317691
 30
0.0
 11
154.4756088487278
 21
152.24210114317691
 31
0.0
  0
ARC
  5
A9C
  8
0
 10
154.9756088487278
 20
150.74210114317691
 30
0.0
 40
0.5
 50
180.0
 51
270.0
1001
GENIUS_GENODEF_13
1002
{
1000
HIER
1070
     0
1002
}
1002
{
1000
MANEDIT
1070
     0
1002
}
1002
{
1000
NOSEL
1070
     0
1002
}
1002
{
1000
BEHIND
1070
     0
1002
}
1002
{
1000
REACTOR
1002
}
1001
GENIUS_GENOBJ-N-FIL_13
1002
{
1000
OWNER
1000
GEN
1002
}
  0
ARC
  5
A9D
  8
0
 10
156.4756088479856
 20
151.24210114317691
 30
0.0
 40
1.0
 50
270.0
 51
0.0
1001
GENIUS_GENODEF_13
1002
{
1000
HIER
1070
     0
1002
}
1002
{
1000
MANEDIT
1070
     0
1002
}
1002
{
1000
NOSEL
1070
     0
1002
}
1002
{
1000
BEHIND
1070
     0
1002
}
1002
{
1000
REACTOR
1002
}
1001
GENIUS_GENOBJ-N-FIL_13
1002
{
1000
OWNER
1000
GEN
1002
}
  0
LINE
  5
A9E
  8
0
 10
151.4756088487278
 20
148.93448929990021
 30
0.0
 11
151.4756088487278
 21
150.24210114317691
 31
0.0
  0
ARC
  5
A9F
  8
0
 10
153.9756088487278
 20
150.24210114317691
 30
0.0
 40
2.5
 50
90.0
 51
180.0
1001
GENIUS_GENODEF_13
1002
{
1000
HIER
1070
     0
1002
}
1002
{
1000
MANEDIT
1070
     0
1002
}
1002
{
1000
NOSEL
1070
     0
1002
}
1002
{
1000
BEHIND
1070
     0
1002
}
1002
{
1000
REACTOR
1002
}
1001
GENIUS_GENOBJ-N-FIL_13
1002
{
1000
OWNER
1000
GEN
1002
}
  0
ARC
  5
AA0
  8
0
 10
149.17560884872759
 20
152.4418450269502
 30
0.0
 40
0.5
 50
359.99999999999193
 51
90.000000000016485
1001
GENIUS_GENODEF_13
1002
{
1000
HIER
1070
     0
1002
}
1002
{
1000
MANEDIT
1070
     0
1002
}
1002
{
1000
NOSEL
1070
     0
1002
}
1002
{
1000
BEHIND
1070
     0
1002
}
1002
{
1000
REACTOR
1002
}
1001
GENIUS_GENOBJ-N-FIL_13
1002
{
1000
OWNER
1000
GEN
1002
}
  0
LINE
  5
AA1
  8
0
 10
149.17560884872759
 20
152.9418450269502
 30
0.0
 11
145.4758949836245
 21
152.9418450269491
 31
0.0
  0
ARC
  5
AA2
  8
0
 10
153.9756088487278
 20
152.24210114317691
 30
0.0
 40
0.5
 50
0.0
 51
90.0
1001
GENIUS_GENODEF_13
1002
{
1000
HIER
1070
     0
1002
}
1002
{
1000
MANEDIT
1070
     0
1002
}
1002
{
1000
NOSEL
1070
     0
1002
}
1002
{
1000
BEHIND
1070
     0
1002
}
1002
{
1000
REACTOR
1002
}
1001
GENIUS_GENOBJ-N-FIL_13
1002
{
1000
OWNER
1000
GEN
1002
}
  0
ARC
  5
AA3
  8
0
 10
168.9756088487278
 20
150.24210114317691
 30
0.0
 40
2.5
 50
0.0
 51
90.0
1001
GENIUS_GENODEF_13
1002
{
1000
HIER
1070
     0
1002
}
1002
{
1000
MANEDIT
1070
     0
1002
}
1002
{
1000
NOSEL
1070
     0
1002
}
1002
{
1000
BEHIND
1070
     0
1002
}
1002
{
1000
REACTOR
1002
}
1001
GENIUS_GENOBJ-N-FIL_13
1002
{
1000
OWNER
1000
GEN
1002
}
  0
ARC
  5
AA4
  8
0
 10
175.6679970066119
 20
139.74210114201639
 30
0.0
 40
5.0
 50
90.0
 51
134.99999998916721
1001
GENIUS_GENODEF_13
1002
{
1000
HIER
1070
     0
1002
}
1002
{
1000
MANEDIT
1070
     0
1002
}
1002
{
1000
NOSEL
1070
     0
1002
}
1002
{
1000
BEHIND
1070
     0
1002
}
1002
{
1000
REACTOR
1002
}
1001
GENIUS_GENOBJ-N-FIL_13
1002
{
1000
OWNER
1000
GEN
1002
}
  0
LINE
  5
AA5
  8
0
 10
175.6679970066119
 20
144.74210114201639
 30
0.0
 11
176.97560884988829
 21
144.74210114201639
 31
0.0
  0
ARC
  5
AA6
  8
0
 10
173.7756088487279
 20
147.04210114201641
 30
0.0
 40
0.5
 50
180.00000000000881
 51
270.0
1001
GENIUS_GENODEF_13
1002
{
1000
HIER
1070
     0
1002
}
1002
{
1000
MANEDIT
1070
     0
1002
}
1002
{
1000
NOSEL
1070
     0
1002
}
1002
{
1000
BEHIND
1070
     0
1002
}
1002
{
1000
REACTOR
1002
}
1001
GENIUS_GENOBJ-N-FIL_13
1002
{
1000
OWNER
1000
GEN
1002
}
  0
ARC
  5
AA7
  8
0
 10
177.97560884988829
 20
139.74210114275849
 30
0.0
 40
1.0
 50
180.0
 51
270.0
1001
GENIUS_GENODEF_13
1002
{
1000
HIER
1070
     0
1002
}
1002
{
1000
MANEDIT
1070
     0
1002
}
1002
{
1000
NOSEL
1070
     0
1002
}
1002
{
1000
BEHIND
1070
     0
1002
}
1002
{
1000
REACTOR
1002
}
1001
GENIUS_GENOBJ-N-FIL_13
1002
{
1000
OWNER
1000
GEN
1002
}
  0
LINE
  5
AA8
  8
0
 10
176.97560884988829
 20
141.24210114201639
 30
0.0
 11
176.97560884988829
 21
139.74210114275849
 31
0.0
  0
ARC
  5
AA9
  8
0
 10
177.47560884988829
 20
141.24210114201639
 30
0.0
 40
0.5
 50
90.0
 51
180.0
1001
GENIUS_GENODEF_13
1002
{
1000
HIER
1070
     0
1002
}
1002
{
1000
MANEDIT
1070
     0
1002
}
1002
{
1000
NOSEL
1070
     0
1002
}
1002
{
1000
BEHIND
1070
     0
1002
}
1002
{
1000
REACTOR
1002
}
1001
GENIUS_GENOBJ-N-FIL_13
1002
{
1000
OWNER
1000
GEN
1002
}
  0
ARC
  5
AAA
  8
0
 10
177.97560884988829
 20
129.7421011412751
 30
0.0
 40
1.0
 50
90.0
 51
180.0
1001
GENIUS_GENODEF_13
1002
{
1000
HIER
1070
     0
1002
}
1002
{
1000
MANEDIT
1070
     0
1002
}
1002
{
1000
NOSEL
1070
     0
1002
}
1002
{
1000
BEHIND
1070
     0
1002
}
1002
{
1000
REACTOR
1002
}
1001
GENIUS_GENOBJ-N-FIL_13
1002
{
1000
OWNER
1000
GEN
1002
}
  0
ARC
  5
AAB
  8
0
 10
175.66799700455101
 20
129.74210114201639
 30
0.0
 40
5.0
 50
225.00000000049701
 51
270.0
1001
GENIUS_GENODEF_13
1002
{
1000
HIER
1070
     0
1002
}
1002
{
1000
MANEDIT
1070
     0
1002
}
1002
{
1000
NOSEL
1070
     0
1002
}
1002
{
1000
BEHIND
1070
     0
1002
}
1002
{
1000
REACTOR
1002
}
1001
GENIUS_GENOBJ-N-FIL_13
1002
{
1000
OWNER
1000
GEN
1002
}
  0
LINE
  5
AAC
  8
0
 10
175.66799700455101
 20
124.74210114201639
 30
0.0
 11
176.97560884988829
 21
124.74210114201639
 31
0.0
  0
ARC
  5
AAD
  8
0
 10
177.47560884988829
 20
128.24210114201639
 30
0.0
 40
0.5
 50
180.0
 51
270.0
1001
GENIUS_GENODEF_13
1002
{
1000
HIER
1070
     0
1002
}
1002
{
1000
MANEDIT
1070
     0
1002
}
1002
{
1000
NOSEL
1070
     0
1002
}
1002
{
1000
BEHIND
1070
     0
1002
}
1002
{
1000
REACTOR
1002
}
1001
GENIUS_GENOBJ-N-FIL_13
1002
{
1000
OWNER
1000
GEN
1002
}
  0
LINE
  5
AAE
  8
0
 10
176.97560884988829
 20
128.24210114201639
 30
0.0
 11
176.97560884988829
 21
129.7421011412751
 31
0.0
  0
LINE
  5
AAF
  8
0
 10
168.5687545995919
 20
143.95656723681279
 30
0.0
 11
170.01114275469109
 21
145.39895539193731
 31
0.0
  0
ARC
  5
AB0
  8
0
 10
165.03322069362849
 20
147.49210114271469
 30
0.0
 40
5.0
 50
270.0
 51
315.00000000050147
1001
GENIUS_GENODEF_13
1002
{
1000
HIER
1070
     0
1002
}
1002
{
1000
MANEDIT
1070
     0
1002
}
1002
{
1000
NOSEL
1070
     0
1002
}
1002
{
1000
BEHIND
1070
     0
1002
}
1002
{
1000
REACTOR
1002
}
1001
GENIUS_GENOBJ-N-FIL_13
1002
{
1000
OWNER
1000
GEN
1002
}
  0
LINE
  5
AB1
  8
0
 10
165.03322069362849
 20
142.49210114271469
 30
0.0
 11
157.91799700536859
 21
142.49210114271469
 31
0.0
  0
ARC
  5
AB2
  8
0
 10
174.22560884942629
 20
138.29971298537549
 30
0.0
 40
5.0
 50
134.99999998916959
 51
180.0
1001
GENIUS_GENODEF_13
1002
{
1000
HIER
1070
     0
1002
}
1002
{
1000
MANEDIT
1070
     0
1002
}
1002
{
1000
NOSEL
1070
     0
1002
}
1002
{
1000
BEHIND
1070
     0
1002
}
1002
{
1000
REACTOR
1002
}
1001
GENIUS_GENOBJ-N-FIL_13
1002
{
1000
OWNER
1000
GEN
1002
}
  0
ARC
  5
AB3
  8
0
 10
147.28322069084359
 20
139.74210114201639
 30
0.0
 40
5.0
 50
45.000000010832743
 51
90.0
1001
GENIUS_GENODEF_13
1002
{
1000
HIER
1070
     0
1002
}
1002
{
1000
MANEDIT
1070
     0
1002
}
1002
{
1000
NOSEL
1070
     0
1002
}
1002
{
1000
BEHIND
1070
     0
1002
}
1002
{
1000
REACTOR
1002
}
1001
GENIUS_GENOBJ-N-FIL_13
1002
{
1000
OWNER
1000
GEN
1002
}
  0
LINE
  5
AB4
  8
0
 10
147.28322069084359
 20
144.74210114201639
 30
0.0
 11
145.97560884756729
 21
144.74210114201639
 31
0.0
  0
LINE
  5
AB5
  8
0
 10
152.26114275329411
 20
141.8352468919764
 30
0.0
 11
150.8187545961085
 21
143.2776350486173
 31
0.0
  0
ARC
  5
AB6
  8
0
 10
149.17560884872759
 20
147.04210114201641
 30
0.0
 40
0.5
 50
270.0
 51
359.99999999999108
1001
GENIUS_GENODEF_13
1002
{
1000
HIER
1070
     0
1002
}
1002
{
1000
MANEDIT
1070
     0
1002
}
1002
{
1000
NOSEL
1070
     0
1002
}
1002
{
1000
BEHIND
1070
     0
1002
}
1002
{
1000
REACTOR
1002
}
1001
GENIUS_GENOBJ-N-FIL_13
1002
{
1000
OWNER
1000
GEN
1002
}
  0
LINE
  5
AB7
  8
0
 10
145.47560884756729
 20
141.74210114201639
 30
0.0
 11
143.97560884756729
 21
141.74210114201639
 31
0.0
  0
LINE
  5
AB8
  8
0
 10
149.17560884872759
 20
146.54210114201641
 30
0.0
 11
143.7758949836246
 21
146.54210114201641
 31
0.0
  0
LINE
  5
AB9
  8
0
 10
145.97560884756729
 20
141.24210114201639
 30
0.0
 11
145.97560884756729
 21
139.74210114275849
 31
0.0
  0
ARC
  5
ABA
  8
0
 10
144.97560884756729
 20
139.74210114275849
 30
0.0
 40
1.0
 50
270.0
 51
0.0
1001
GENIUS_GENODEF_13
1002
{
1000
HIER
1070
     0
1002
}
1002
{
1000
MANEDIT
1070
     0
1002
}
1002
{
1000
NOSEL
1070
     0
1002
}
1002
{
1000
BEHIND
1070
     0
1002
}
1002
{
1000
REACTOR
1002
}
1001
GENIUS_GENOBJ-N-FIL_13
1002
{
1000
OWNER
1000
GEN
1002
}
  0
ARC
  5
ABB
  8
0
 10
145.47560884756729
 20
141.24210114201639
 30
0.0
 40
0.5
 50
0.0
 51
90.0
1001
GENIUS_GENODEF_13
1002
{
1000
HIER
1070
     0
1002
}
1002
{
1000
MANEDIT
1070
     0
1002
}
1002
{
1000
NOSEL
1070
     0
1002
}
1002
{
1000
BEHIND
1070
     0
1002
}
1002
{
1000
REACTOR
1002
}
1001
GENIUS_GENOBJ-N-FIL_13
1002
{
1000
OWNER
1000
GEN
1002
}
  0
ARC
  5
ABC
  8
0
 10
148.72560884802931
 20
138.29971298537549
 30
0.0
 40
5.0
 50
0.0
 51
45.000000010830341
1001
GENIUS_GENODEF_13
1002
{
1000
HIER
1070
     0
1002
}
1002
{
1000
MANEDIT
1070
     0
1002
}
1002
{
1000
NOSEL
1070
     0
1002
}
1002
{
1000
BEHIND
1070
     0
1002
}
1002
{
1000
REACTOR
1002
}
1001
GENIUS_GENOBJ-N-FIL_13
1002
{
1000
OWNER
1000
GEN
1002
}
  0
LINE
  5
ABD
  8
0
 10
154.38246309876769
 20
143.9565672374502
 30
0.0
 11
152.9400749421269
 21
145.39895539463589
 31
0.0
  0
ARC
  5
ABE
  8
0
 10
157.91799700536859
 20
147.49210114271469
 30
0.0
 40
5.0
 50
224.99999998916959
 51
270.0
1001
GENIUS_GENODEF_13
1002
{
1000
HIER
1070
     0
1002
}
1002
{
1000
MANEDIT
1070
     0
1002
}
1002
{
1000
NOSEL
1070
     0
1002
}
1002
{
1000
BEHIND
1070
     0
1002
}
1002
{
1000
REACTOR
1002
}
1001
GENIUS_GENOBJ-N-FIL_13
1002
{
1000
OWNER
1000
GEN
1002
}
  0
LINE
  5
ABF
  8
0
 10
168.5687545974809
 20
125.52763504867831
 30
0.0
 11
170.88982241014801
 21
123.20656723605261
 31
0.0
  0
ARC
  5
AC0
  8
0
 10
165.0332206915794
 20
121.9921011427146
 30
0.0
 40
5.0
 50
45.000000000501053
 51
90.0
1001
GENIUS_GENODEF_13
1002
{
1000
HIER
1070
     0
1002
}
1002
{
1000
MANEDIT
1070
     0
1002
}
1002
{
1000
NOSEL
1070
     0
1002
}
1002
{
1000
BEHIND
1070
     0
1002
}
1002
{
1000
REACTOR
1002
}
1001
GENIUS_GENOBJ-N-FIL_13
1002
{
1000
OWNER
1000
GEN
1002
}
  0
LINE
  5
AC1
  8
0
 10
157.9179970044791
 20
126.9921011427146
 30
0.0
 11
165.0332206915794
 21
126.9921011427146
 31
0.0
  0
ARC
  5
AC2
  8
0
 10
174.22560884942629
 20
131.18448929711559
 30
0.0
 40
5.0
 50
180.0
 51
225.0000000005015
1001
GENIUS_GENODEF_13
1002
{
1000
HIER
1070
     0
1002
}
1002
{
1000
MANEDIT
1070
     0
1002
}
1002
{
1000
NOSEL
1070
     0
1002
}
1002
{
1000
BEHIND
1070
     0
1002
}
1002
{
1000
REACTOR
1002
}
1001
GENIUS_GENOBJ-N-FIL_13
1002
{
1000
OWNER
1000
GEN
1002
}
  0
ARC
  5
AC3
  8
0
 10
144.97560884756729
 20
129.7421011412751
 30
0.0
 40
1.0
 50
0.0
 51
90.0
1001
GENIUS_GENODEF_13
1002
{
1000
HIER
1070
     0
1002
}
1002
{
1000
MANEDIT
1070
     0
1002
}
1002
{
1000
NOSEL
1070
     0
1002
}
1002
{
1000
BEHIND
1070
     0
1002
}
1002
{
1000
REACTOR
1002
}
1001
GENIUS_GENOBJ-N-FIL_13
1002
{
1000
OWNER
1000
GEN
1002
}
  0
LINE
  5
AC4
  8
0
 10
152.26114275393169
 20
127.6489553911523
 30
0.0
 11
150.818754598807
 21
126.206567236053
 31
0.0
  0
ARC
  5
AC5
  8
0
 10
147.28322069290459
 20
129.74210114201639
 30
0.0
 40
5.0
 50
270.0
 51
314.99999999950302
1001
GENIUS_GENODEF_13
1002
{
1000
HIER
1070
     0
1002
}
1002
{
1000
MANEDIT
1070
     0
1002
}
1002
{
1000
NOSEL
1070
     0
1002
}
1002
{
1000
BEHIND
1070
     0
1002
}
1002
{
1000
REACTOR
1002
}
1001
GENIUS_GENOBJ-N-FIL_13
1002
{
1000
OWNER
1000
GEN
1002
}
  0
LINE
  5
AC6
  8
0
 10
147.28322069290459
 20
124.74210114201639
 30
0.0
 11
145.97560884756729
 21
124.74210114201639
 31
0.0
  0
LINE
  5
AC7
  8
0
 10
145.47560884756729
 20
127.74210114201639
 30
0.0
 11
143.97560884756729
 21
127.74210114201639
 31
0.0
  0
ARC
  5
AC8
  8
0
 10
145.47560884756729
 20
128.24210114201639
 30
0.0
 40
0.5
 50
270.0
 51
0.0
1001
GENIUS_GENODEF_13
1002
{
1000
HIER
1070
     0
1002
}
1002
{
1000
MANEDIT
1070
     0
1002
}
1002
{
1000
NOSEL
1070
     0
1002
}
1002
{
1000
BEHIND
1070
     0
1002
}
1002
{
1000
REACTOR
1002
}
1001
GENIUS_GENOBJ-N-FIL_13
1002
{
1000
OWNER
1000
GEN
1002
}
  0
ARC
  5
AC9
  8
0
 10
148.72560884802931
 20
131.18448929711559
 30
0.0
 40
5.0
 50
314.99999999949853
 51
0.0
1001
GENIUS_GENODEF_13
1002
{
1000
HIER
1070
     0
1002
}
1002
{
1000
MANEDIT
1070
     0
1002
}
1002
{
1000
NOSEL
1070
     0
1002
}
1002
{
1000
BEHIND
1070
     0
1002
}
1002
{
1000
REACTOR
1002
}
1001
GENIUS_GENOBJ-N-FIL_13
1002
{
1000
OWNER
1000
GEN
1002
}
  0
LINE
  5
ACA
  8
0
 10
145.97560884756729
 20
128.24210114201639
 30
0.0
 11
145.97560884756729
 21
129.7421011412751
 31
0.0
  0
LINE
  5
ACB
  8
0
 10
154.3824630985776
 20
125.52763504867831
 30
0.0
 11
152.06139528591061
 21
123.20656723605261
 31
0.0
  0
ARC
  5
ACC
  8
0
 10
157.9179970044791
 20
121.9921011427146
 30
0.0
 40
5.0
 50
90.0
 51
134.9999999994989
1001
GENIUS_GENODEF_13
1002
{
1000
HIER
1070
     0
1002
}
1002
{
1000
MANEDIT
1070
     0
1002
}
1002
{
1000
NOSEL
1070
     0
1002
}
1002
{
1000
BEHIND
1070
     0
1002
}
1002
{
1000
REACTOR
1002
}
1001
GENIUS_GENOBJ-N-FIL_13
1002
{
1000
OWNER
1000
GEN
1002
}
  0
CIRCLE
  5
ACD
  8
0
 10
161.47560884802931
 20
134.7421011427146
 30
0.0
 40
3.399999999999999
  0
LINE
  5
ACE
  8
0
 10
169.22560884942629
 20
131.18448929711559
 30
0.0
 11
169.22560884942629
 21
138.29971298537549
 31
0.0
  0
LINE
  5
ACF
  8
0
 10
153.72560884802931
 20
131.18448929711559
 30
0.0
 11
153.72560884802931
 21
138.29971298537549
 31
0.0
  0
LINE
  5
AD0
  8
0
 10
170.69007494416141
 20
141.8352468919764
 30
0.0
 11
172.13246310134701
 21
143.2776350486173
 31
0.0
  0
LINE
  5
AD1
  8
0
 10
170.69007494352391
 20
127.6489553911523
 30
0.0
 11
172.1324630986486
 21
126.206567236053
 31
0.0
  0
LINE
  5
AD2
  8
0
 10
174.42535631604949
 20
121.74210114201639
 30
0.0
 11
174.97560884733079
 21
121.74210114201639
 31
0.0
  0
LINE
  5
AD3
  8
0
 10
148.5258613800091
 20
121.74210114201639
 30
0.0
 11
147.9756088487278
 21
121.74210114201639
 31
0.0
  0
ARC
  5
AD4
  8
0
 10
148.5258613800091
 20
126.74210114201639
 30
0.0
 40
5.0
 50
270.0
 51
314.99999999949739
1001
GENIUS_GENODEF_13
1002
{
1000
HIER
1070
     0
1002
}
1002
{
1000
MANEDIT
1070
     0
1002
}
1002
{
1000
NOSEL
1070
     0
1002
}
1002
{
1000
BEHIND
1070
     0
1002
}
1002
{
1000
REACTOR
1002
}
1001
GENIUS_GENOBJ-N-FIL_13
1002
{
1000
OWNER
1000
GEN
1002
}
  0
ARC
  5
AD5
  8
0
 10
147.9756088487278
 20
119.24210114201639
 30
0.0
 40
2.5
 50
90.0
 51
180.0
1001
GENIUS_GENODEF_13
1002
{
1000
HIER
1070
     0
1002
}
1002
{
1000
MANEDIT
1070
     0
1002
}
1002
{
1000
NOSEL
1070
     0
1002
}
1002
{
1000
BEHIND
1070
     0
1002
}
1002
{
1000
REACTOR
1002
}
1001
GENIUS_GENOBJ-N-FIL_13
1002
{
1000
OWNER
1000
GEN
1002
}
  0
ARC
  5
AD6
  8
0
 10
174.97560884733079
 20
119.24210114201639
 30
0.0
 40
2.5
 50
0.0
 51
90.0
1001
GENIUS_GENODEF_13
1002
{
1000
HIER
1070
     0
1002
}
1002
{
1000
MANEDIT
1070
     0
1002
}
1002
{
1000
NOSEL
1070
     0
1002
}
1002
{
1000
BEHIND
1070
     0
1002
}
1002
{
1000
REACTOR
1002
}
1001
GENIUS_GENOBJ-N-FIL_13
1002
{
1000
OWNER
1000
GEN
1002
}
  0
ARC
  5
AD7
  8
0
 10
174.42535631604949
 20
126.74210114201639
 30
0.0
 40
5.0
 50
225.00000000050269
 51
270.0
1001
GENIUS_GENODEF_13
1002
{
1000
HIER
1070
     0
1002
}
1002
{
1000
MANEDIT
1070
     0
1002
}
1002
{
1000
NOSEL
1070
     0
1002
}
1002
{
1000
BEHIND
1070
     0
1002
}
1002
{
1000
REACTOR
1002
}
1001
GENIUS_GENOBJ-N-FIL_13
1002
{
1000
OWNER
1000
GEN
1002
}
  0
ARC
  5
AD8
  8
0
 10
166.4756088487278
 20
148.93448929783941
 30
0.0
 40
5.0
 50
315.0000000004971
 51
0.0
1001
GENIUS_GENODEF_13
1002
{
1000
HIER
1070
     0
1002
}
1002
{
1000
MANEDIT
1070
     0
1002
}
1002
{
1000
NOSEL
1070
     0
1002
}
1002
{
1000
BEHIND
1070
     0
1002
}
1002
{
1000
REACTOR
1002
}
1001
GENIUS_GENOBJ-N-FIL_13
1002
{
1000
OWNER
1000
GEN
1002
}
  0
ARC
  5
AD9
  8
0
 10
156.4756088487278
 20
148.93448929990021
 30
0.0
 40
5.0
 50
180.0
 51
224.99999998916729
1001
GENIUS_GENODEF_13
1002
{
1000
HIER
1070
     0
1002
}
1002
{
1000
MANEDIT
1070
     0
1002
}
1002
{
1000
NOSEL
1070
     0
1002
}
1002
{
1000
BEHIND
1070
     0
1002
}
1002
{
1000
REACTOR
1002
}
1001
GENIUS_GENOBJ-N-FIL_13
1002
{
1000
OWNER
1000
GEN
1002
}
  0
LINE
  5
ADA
  8
0
 10
149.67560884872759
 20
147.04210114201629
 30
0.0
 11
149.67560884872759
 21
152.44184502695009
 31
0.0
  0
LINE
  5
ADB
  8
0
 10
173.27560884872801
 20
147.04210114201629
 30
0.0
 11
173.27560884872801
 21
152.44184502695009
 31
0.0
  0
ARC
  5
ADC
  8
0
 10
174.97560884733079
 20
113.89895539238761
 30
0.0
 40
2.5
 50
314.99999999949449
 51
0.0
1001
GENIUS_GENODEF_13
1002
{
1000
HIER
1070
     0
1002
}
1002
{
1000
MANEDIT
1070
     0
1002
}
1002
{
1000
NOSEL
1070
     0
1002
}
1002
{
1000
BEHIND
1070
     0
1002
}
1002
{
1000
REACTOR
1002
}
1001
GENIUS_GENOBJ-N-FIL_13
1002
{
1000
OWNER
1000
GEN
1002
}
  0
LINE
  5
ADD
  8
0
 10
177.47560884733079
 20
119.24210114201639
 30
0.0
 11
177.47560884733079
 21
113.89895539238761
 31
0.0
  0
LINE
  5
ADE
  8
0
 10
145.4756088487278
 20
119.24210114201639
 30
0.0
 11
145.4756088487278
 21
110.2421011434149
 31
0.0
  0
ARC
  5
ADF
  8
0
 10
174.22560884872871
 20
98.299712987977387
 30
0.0
 40
5.0
 50
135.00000000079311
 51
180.00000000000441
1001
GENIUS_GENODEF_13
1002
{
1000
HIER
1070
     0
1002
}
1002
{
1000
MANEDIT
1070
     0
1002
}
1002
{
1000
NOSEL
1070
     0
1002
}
1002
{
1000
BEHIND
1070
     0
1002
}
1002
{
1000
REACTOR
1002
}
1001
GENIUS_GENOBJ-N-FIL_13
1002
{
1000
OWNER
1000
GEN
1002
}
  0
LINE
  5
AE0
  8
0
 10
157.9179970044782
 20
102.4921011427146
 30
0.0
 11
165.4413376006745
 21
102.4921011427146
 31
0.0
  0
ARC
  5
AE1
  8
0
 10
165.0332206915804
 20
107.4921011427146
 30
0.0
 40
5.0
 50
270.00000000000011
 51
314.9999999994921
1001
GENIUS_GENODEF_13
1002
{
1000
HIER
1070
     0
1002
}
1002
{
1000
MANEDIT
1070
     0
1002
}
1002
{
1000
NOSEL
1070
     0
1002
}
1002
{
1000
BEHIND
1070
     0
1002
}
1002
{
1000
REACTOR
1002
}
1001
GENIUS_GENOBJ-N-FIL_13
1002
{
1000
OWNER
1000
GEN
1002
}
  0
ARC
  5
AE2
  8
0
 10
147.28322069290459
 20
99.742101143415198
 30
0.0
 40
5.0
 50
45.000000000497032
 51
90.0
1001
GENIUS_GENODEF_13
1002
{
1000
HIER
1070
     0
1002
}
1002
{
1000
MANEDIT
1070
     0
1002
}
1002
{
1000
NOSEL
1070
     0
1002
}
1002
{
1000
BEHIND
1070
     0
1002
}
1002
{
1000
REACTOR
1002
}
1001
GENIUS_GENOBJ-N-FIL_13
1002
{
1000
OWNER
1000
GEN
1002
}
  0
LINE
  5
AE3
  8
0
 10
147.28322069290459
 20
104.7421011434152
 30
0.0
 11
145.97560884756729
 21
104.7421011434152
 31
0.0
  0
LINE
  5
AE4
  8
0
 10
148.52586138000549
 20
107.7421011434152
 30
0.0
 11
147.9756088487278
 21
107.7421011434152
 31
0.0
  0
ARC
  5
AE5
  8
0
 10
148.52586138000549
 20
102.7421011434152
 30
0.0
 40
5.0
 50
45.000000000509957
 51
90.0
1001
GENIUS_GENODEF_13
1002
{
1000
HIER
1070
     0
1002
}
1002
{
1000
MANEDIT
1070
     0
1002
}
1002
{
1000
NOSEL
1070
     0
1002
}
1002
{
1000
BEHIND
1070
     0
1002
}
1002
{
1000
REACTOR
1002
}
1001
GENIUS_GENOBJ-N-FIL_13
1002
{
1000
OWNER
1000
GEN
1002
}
  0
ARC
  5
AE6
  8
0
 10
148.72560884802931
 20
98.299712988315946
 30
0.0
 40
5.0
 50
0.0
 51
45.000000000501501
1001
GENIUS_GENODEF_13
1002
{
1000
HIER
1070
     0
1002
}
1002
{
1000
MANEDIT
1070
     0
1002
}
1002
{
1000
NOSEL
1070
     0
1002
}
1002
{
1000
BEHIND
1070
     0
1002
}
1002
{
1000
REACTOR
1002
}
1001
GENIUS_GENOBJ-N-FIL_13
1002
{
1000
OWNER
1000
GEN
1002
}
  0
LINE
  5
AE7
  8
0
 10
145.97560884756729
 20
101.2421011434152
 30
0.0
 11
145.97560884756729
 21
99.742101144156436
 31
0.0
  0
LINE
  5
AE8
  8
0
 10
145.47560884756729
 20
101.7421011434152
 30
0.0
 11
143.97560884756729
 21
101.7421011434152
 31
0.0
  0
ARC
  5
AE9
  8
0
 10
144.97560884756729
 20
99.742101144156436
 30
0.0
 40
1.0
 50
270.0
 51
0.0
1001
GENIUS_GENODEF_13
1002
{
1000
HIER
1070
     0
1002
}
1002
{
1000
MANEDIT
1070
     0
1002
}
1002
{
1000
NOSEL
1070
     0
1002
}
1002
{
1000
BEHIND
1070
     0
1002
}
1002
{
1000
REACTOR
1002
}
1001
GENIUS_GENOBJ-N-FIL_13
1002
{
1000
OWNER
1000
GEN
1002
}
  0
ARC
  5
AEA
  8
0
 10
145.47560884756729
 20
101.2421011434152
 30
0.0
 40
0.5
 50
0.0
 51
90.0
1001
GENIUS_GENODEF_13
1002
{
1000
HIER
1070
     0
1002
}
1002
{
1000
MANEDIT
1070
     0
1002
}
1002
{
1000
NOSEL
1070
     0
1002
}
1002
{
1000
BEHIND
1070
     0
1002
}
1002
{
1000
REACTOR
1002
}
1001
GENIUS_GENOBJ-N-FIL_13
1002
{
1000
OWNER
1000
GEN
1002
}
  0
LINE
  5
AEB
  8
0
 10
152.26114275393169
 20
101.83524689427929
 30
0.0
 11
150.818754598807
 21
103.2776350493785
 31
0.0
  0
LINE
  5
AEC
  8
0
 10
154.38246309857669
 20
103.9565672367505
 30
0.0
 11
152.061395285907
 21
106.2776350493794
 31
0.0
  0
ARC
  5
AED
  8
0
 10
157.9179970044782
 20
107.4921011427146
 30
0.0
 40
5.0
 50
225.0000000005079
 51
269.99999999999989
1001
GENIUS_GENODEF_13
1002
{
1000
HIER
1070
     0
1002
}
1002
{
1000
MANEDIT
1070
     0
1002
}
1002
{
1000
NOSEL
1070
     0
1002
}
1002
{
1000
BEHIND
1070
     0
1002
}
1002
{
1000
REACTOR
1002
}
1001
GENIUS_GENOBJ-N-FIL_13
1002
{
1000
OWNER
1000
GEN
1002
}
  0
ARC
  5
AEE
  8
0
 10
147.9756088487278
 20
110.2421011434152
 30
0.0
 40
2.5
 50
180.00000000000571
 51
270.00000000000023
1001
GENIUS_GENODEF_13
1002
{
1000
HIER
1070
     0
1002
}
1002
{
1000
MANEDIT
1070
     0
1002
}
1002
{
1000
NOSEL
1070
     0
1002
}
1002
{
1000
BEHIND
1070
     0
1002
}
1002
{
1000
REACTOR
1002
}
1001
GENIUS_GENOBJ-N-FIL_13
1002
{
1000
OWNER
1000
GEN
1002
}
  0
LINE
  5
AEF
  8
0
 10
168.5687545974819
 20
103.9565672367505
 30
0.0
 11
176.743375800282
 21
112.13118843940561
 31
0.0
  0
ARC
  5
AF0
  8
0
 10
169.475608848685
 20
81.792353674634342
 30
0.0
 40
5.0
 50
359.9999999997018
 51
44.999999999211603
1001
GENIUS_GENODEF_13
1002
{
1000
HIER
1070
     0
1002
}
1002
{
1000
MANEDIT
1070
     0
1002
}
1002
{
1000
NOSEL
1070
     0
1002
}
1002
{
1000
BEHIND
1070
     0
1002
}
1002
{
1000
REACTOR
1002
}
1001
GENIUS_GENOBJ-N-FIL_13
1002
{
1000
OWNER
1000
GEN
1002
}
  0
ARC
  5
AF1
  8
0
 10
165.03322069358759
 20
81.992101142676688
 30
0.0
 40
5.0
 50
44.999999999219028
 51
89.999999999720515
1001
GENIUS_GENODEF_13
1002
{
1000
HIER
1070
     0
1002
}
1002
{
1000
MANEDIT
1070
     0
1002
}
1002
{
1000
NOSEL
1070
     0
1002
}
1002
{
1000
BEHIND
1070
     0
1002
}
1002
{
1000
REACTOR
1002
}
1001
GENIUS_GENOBJ-N-FIL_13
1002
{
1000
OWNER
1000
GEN
1002
}
  0
LINE
  5
AF2
  8
0
 10
168.56875459956731
 20
85.527635048562715
 30
0.0
 11
170.0111427546602
 21
84.085246893430735
 31
0.0
  0
LINE
  5
AF3
  8
0
 10
165.0332206936113
 20
86.992101142677598
 30
0.0
 11
157.91799700535131
 21
86.992101142712144
 31
0.0
  0
ARC
  5
AF4
  8
0
 10
174.22560884872959
 20
91.184489298385529
 30
0.0
 40
5.0
 50
180.0000000000054
 51
224.99999999921681
1001
GENIUS_GENODEF_13
1002
{
1000
HIER
1070
     0
1002
}
1002
{
1000
MANEDIT
1070
     0
1002
}
1002
{
1000
NOSEL
1070
     0
1002
}
1002
{
1000
BEHIND
1070
     0
1002
}
1002
{
1000
REACTOR
1002
}
1001
GENIUS_GENOBJ-N-FIL_13
1002
{
1000
OWNER
1000
GEN
1002
}
  0
LINE
  5
AF5
  8
0
 10
145.97560884756729
 20
88.242101143415198
 30
0.0
 11
145.97560884756729
 21
89.742101142673064
 31
0.0
  0
LINE
  5
AF6
  8
0
 10
147.28322069084359
 20
84.742101143415198
 30
0.0
 11
145.97560884756729
 21
84.742101143415198
 31
0.0
  0
ARC
  5
AF7
  8
0
 10
147.28322069084359
 20
89.742101143415198
 30
0.0
 40
5.0
 50
270.0
 51
314.99999998916718
1001
GENIUS_GENODEF_13
1002
{
1000
HIER
1070
     0
1002
}
1002
{
1000
MANEDIT
1070
     0
1002
}
1002
{
1000
NOSEL
1070
     0
1002
}
1002
{
1000
BEHIND
1070
     0
1002
}
1002
{
1000
REACTOR
1002
}
1001
GENIUS_GENOBJ-N-FIL_13
1002
{
1000
OWNER
1000
GEN
1002
}
  0
LINE
  5
AF8
  8
0
 10
152.26114275329411
 20
87.648955393455154
 30
0.0
 11
150.8187545961085
 21
86.206567236814294
 31
0.0
  0
LINE
  5
AF9
  8
0
 10
145.47560884756729
 20
87.742101143415184
 30
0.0
 11
143.97560884756729
 21
87.742101143415184
 31
0.0
  0
ARC
  5
AFA
  8
0
 10
145.47560884756729
 20
88.242101143415198
 30
0.0
 40
0.5
 50
270.0
 51
0.0
1001
GENIUS_GENODEF_13
1002
{
1000
HIER
1070
     0
1002
}
1002
{
1000
MANEDIT
1070
     0
1002
}
1002
{
1000
NOSEL
1070
     0
1002
}
1002
{
1000
BEHIND
1070
     0
1002
}
1002
{
1000
REACTOR
1002
}
1001
GENIUS_GENOBJ-N-FIL_13
1002
{
1000
OWNER
1000
GEN
1002
}
  0
ARC
  5
AFB
  8
0
 10
144.97560884756729
 20
89.742101142673064
 30
0.0
 40
1.0
 50
0.0
 51
90.0
1001
GENIUS_GENODEF_13
1002
{
1000
HIER
1070
     0
1002
}
1002
{
1000
MANEDIT
1070
     0
1002
}
1002
{
1000
NOSEL
1070
     0
1002
}
1002
{
1000
BEHIND
1070
     0
1002
}
1002
{
1000
REACTOR
1002
}
1001
GENIUS_GENOBJ-N-FIL_13
1002
{
1000
OWNER
1000
GEN
1002
}
  0
ARC
  5
AFC
  8
0
 10
148.72560884802931
 20
91.184489300056029
 30
0.0
 40
5.0
 50
314.99999998916968
 51
0.0
1001
GENIUS_GENODEF_13
1002
{
1000
HIER
1070
     0
1002
}
1002
{
1000
MANEDIT
1070
     0
1002
}
1002
{
1000
NOSEL
1070
     0
1002
}
1002
{
1000
BEHIND
1070
     0
1002
}
1002
{
1000
REACTOR
1002
}
1001
GENIUS_GENOBJ-N-FIL_13
1002
{
1000
OWNER
1000
GEN
1002
}
  0
LINE
  5
AFD
  8
0
 10
154.38246309874319
 20
85.527635047994295
 30
0.0
 11
152.940074942096
 21
84.085246890815014
 31
0.0
  0
ARC
  5
AFE
  8
0
 10
157.91799700532769
 20
81.992101142711419
 30
0.0
 40
5.0
 50
89.999999999720515
 51
135.00000001055091
1001
GENIUS_GENODEF_13
1002
{
1000
HIER
1070
     0
1002
}
1002
{
1000
MANEDIT
1070
     0
1002
}
1002
{
1000
NOSEL
1070
     0
1002
}
1002
{
1000
BEHIND
1070
     0
1002
}
1002
{
1000
REACTOR
1002
}
1001
GENIUS_GENOBJ-N-FIL_13
1002
{
1000
OWNER
1000
GEN
1002
}
  0
ARC
  5
AFF
  8
0
 10
149.17560884942611
 20
82.442101143412984
 30
0.0
 40
0.5
 50
0.0
 51
89.999999999991132
1001
GENIUS_GENODEF_13
1002
{
1000
HIER
1070
     0
1002
}
1002
{
1000
MANEDIT
1070
     0
1002
}
1002
{
1000
NOSEL
1070
     0
1002
}
1002
{
1000
BEHIND
1070
     0
1002
}
1002
{
1000
REACTOR
1002
}
1001
GENIUS_GENOBJ-N-FIL_13
1002
{
1000
OWNER
1000
GEN
1002
}
  0
LINE
  5
B00
  8
0
 10
149.17560884942611
 20
82.942101143412955
 30
0.0
 11
143.77586496449231
 21
82.942101143412955
 31
0.0
  0
LINE
  5
B01
  8
0
 10
170.69007494274899
 20
87.64895539250108
 30
0.0
 11
173.01114275466659
 21
85.32788758051845
 31
0.0
  0
CIRCLE
  5
B02
  8
0
 10
161.47560884802931
 20
94.742101143180307
 30
0.0
 40
3.399999999999999
  0
LINE
  5
B03
  8
0
 10
153.72560884802931
 20
98.299712988315946
 30
0.0
 11
153.72560884802931
 21
91.184489300056029
 31
0.0
  0
LINE
  5
B04
  8
0
 10
169.22560884872871
 20
98.707829894683243
 30
0.0
 11
169.22560884872959
 21
91.184489298385017
 31
0.0
  0
LINE
  5
B05
  8
1
 10
161.4756088479549
 20
250.41616494113561
 30
0.0
 11
161.4756088479549
 21
190.41616494113629
 31
0.0
  0
LINE
  5
B06
  8
0
 10
157.47560884822209
 20
245.41616494113629
 30
0.0
 11
157.47560884822249
 21
195.41616494113561
 31
0.0
  0
LINE
  5
B07
  8
0
 10
165.47560884970639
 20
245.41616494113569
 30
0.0
 11
165.47560884970639
 21
195.41616494113561
 31
0.0
  0
LINE
  5
B08
  8
0
 10
141.4756088482676
 20
195.41616494113629
 30
0.0
 11
141.4756088482676
 21
245.41616494113569
 31
0.0
  0
LINE
  5
B0E
  8
1
 10
201.47560884867849
 20
118.7421011431838
 30
0.0
 11
201.4756088469147
 21
70.742101143183788
 31
0.0
  0
LINE
  5
B0F
  8
0
 10
221.47560884779651
 20
89.242101141274233
 30
0.0
 11
221.47560884779651
 21
78.742101143183788
 31
0.0
  0
LINE
  5
B10
  8
0
 10
219.67535273296329
 20
82.442101142015986
 30
0.0
 11
219.6753527329623
 21
78.742387276912837
 31
0.0
  0
LINE
  5
B11
  8
0
 10
213.27560884802949
 20
82.442101142015986
 30
0.0
 11
213.27560884802949
 21
77.042387276913018
 31
0.0
  0
ARC
  5
B12
  8
0
 10
206.4756088472808
 20
80.54971298528892
 30
0.0
 40
5.0
 50
359.9999999997205
 51
44.999999988887772
1001
GENIUS_GENODEF_13
1002
{
1000
HIER
1070
     0
1002
}
1002
{
1000
MANEDIT
1070
     0
1002
}
1002
{
1000
NOSEL
1070
     0
1002
}
1002
{
1000
BEHIND
1070
     0
1002
}
1002
{
1000
REACTOR
1002
}
1001
GENIUS_GENOBJ-N-FIL_13
1002
{
1000
OWNER
1000
GEN
1002
}
  0
LINE
  5
B13
  8
0
 10
188.47560884728711
 20
81.792353673177104
 30
0.0
 11
188.4756088472835
 21
81.242101142702722
 31
0.0
  0
ARC
  5
B14
  8
0
 10
196.4756088472808
 20
80.549712987398607
 30
0.0
 40
5.0
 50
135.00000000021751
 51
179.9999999997205
1001
GENIUS_GENODEF_13
1002
{
1000
HIER
1070
     0
1002
}
1002
{
1000
MANEDIT
1070
     0
1002
}
1002
{
1000
NOSEL
1070
     0
1002
}
1002
{
1000
BEHIND
1070
     0
1002
}
1002
{
1000
REACTOR
1002
}
1001
GENIUS_GENOBJ-N-FIL_13
1002
{
1000
OWNER
1000
GEN
1002
}
  0
LINE
  5
B15
  8
0
 10
217.47560884779651
 20
74.742101143183788
 30
0.0
 11
206.97560884800129
 21
74.742101143183788
 31
0.0
  0
ARC
  5
B16
  8
0
 10
195.9756088465177
 20
76.242101143183845
 30
0.0
 40
1.5
 50
270.0
 51
359.9999999997105
1001
GENIUS_GENODEF_13
1002
{
1000
HIER
1070
     0
1002
}
1002
{
1000
MANEDIT
1070
     0
1002
}
1002
{
1000
NOSEL
1070
     0
1002
}
1002
{
1000
BEHIND
1070
     0
1002
}
1002
{
1000
REACTOR
1002
}
1001
GENIUS_GENOBJ-N-FIL_13
1002
{
1000
OWNER
1000
GEN
1002
}
  0
ARC
  5
B17
  8
0
 10
206.97560884800129
 20
76.242101143183788
 30
0.0
 40
1.5
 50
179.99999999971999
 51
270.0
1001
GENIUS_GENODEF_13
1002
{
1000
HIER
1070
     0
1002
}
1002
{
1000
MANEDIT
1070
     0
1002
}
1002
{
1000
NOSEL
1070
     0
1002
}
1002
{
1000
BEHIND
1070
     0
1002
}
1002
{
1000
REACTOR
1002
}
1001
GENIUS_GENOBJ-N-FIL_13
1002
{
1000
OWNER
1000
GEN
1002
}
  0
LINE
  5
B18
  8
0
 10
211.4756088472808
 20
80.549712985264577
 30
0.0
 11
211.4756088472744
 21
79.242101141988201
 31
0.0
  0
LINE
  5
B19
  8
0
 10
207.9756088472744
 20
79.242101142005481
 30
0.0
 11
206.47560884801661
 21
79.242101142012757
 31
0.0
  0
ARC
  5
B1A
  8
0
 10
207.9756088472717
 20
78.742101142005254
 30
0.0
 40
0.5
 50
359.9999999997205
 51
89.999999999720515
1001
GENIUS_GENODEF_13
1002
{
1000
HIER
1070
     0
1002
}
1002
{
1000
MANEDIT
1070
     0
1002
}
1002
{
1000
NOSEL
1070
     0
1002
}
1002
{
1000
BEHIND
1070
     0
1002
}
1002
{
1000
REACTOR
1002
}
1001
GENIUS_GENOBJ-N-FIL_13
1002
{
1000
OWNER
1000
GEN
1002
}
  0
ARC
  5
B1B
  8
0
 10
208.9756088472644
 20
77.242101142000365
 30
0.0
 40
0.5
 50
179.9999999997205
 51
269.9999999997205
1001
GENIUS_GENODEF_13
1002
{
1000
HIER
1070
     0
1002
}
1002
{
1000
MANEDIT
1070
     0
1002
}
1002
{
1000
NOSEL
1070
     0
1002
}
1002
{
1000
BEHIND
1070
     0
1002
}
1002
{
1000
REACTOR
1002
}
1001
GENIUS_GENOBJ-N-FIL_13
1002
{
1000
OWNER
1000
GEN
1002
}
  0
ARC
  5
B1C
  8
0
 10
208.9756088472744
 20
79.242101142000365
 30
0.0
 40
2.5
 50
269.9999999997205
 51
359.9999999997205
1001
GENIUS_GENODEF_13
1002
{
1000
HIER
1070
     0
1002
}
1002
{
1000
MANEDIT
1070
     0
1002
}
1002
{
1000
NOSEL
1070
     0
1002
}
1002
{
1000
BEHIND
1070
     0
1002
}
1002
{
1000
REACTOR
1002
}
1001
GENIUS_GENOBJ-N-FIL_13
1002
{
1000
OWNER
1000
GEN
1002
}
  0
LINE
  5
B1D
  8
0
 10
208.4756088472717
 20
78.742101142003662
 30
0.0
 11
208.4756088472644
 21
77.242101142003662
 31
0.0
  0
LINE
  5
B1E
  8
0
 10
194.9756088472744
 20
79.242101142069146
 30
0.0
 11
196.47560884653319
 21
79.24210114206187
 31
0.0
  0
ARC
  5
B1F
  8
0
 10
194.9756088472717
 20
78.742101142068634
 30
0.0
 40
0.5
 50
89.999999999720515
 51
179.9999999997205
1001
GENIUS_GENODEF_13
1002
{
1000
HIER
1070
     0
1002
}
1002
{
1000
MANEDIT
1070
     0
1002
}
1002
{
1000
NOSEL
1070
     0
1002
}
1002
{
1000
BEHIND
1070
     0
1002
}
1002
{
1000
REACTOR
1002
}
1001
GENIUS_GENOBJ-N-FIL_13
1002
{
1000
OWNER
1000
GEN
1002
}
  0
LINE
  5
B20
  8
0
 10
191.4756088472808
 20
80.549712987423732
 30
0.0
 11
191.4756088472744
 21
79.242101142086426
 31
0.0
  0
ARC
  5
B21
  8
0
 10
196.47560884652859
 20
78.242101142061301
 30
0.0
 40
1.0
 50
359.9999999997205
 51
89.999999999720515
1001
GENIUS_GENODEF_13
1002
{
1000
HIER
1070
     0
1002
}
1002
{
1000
MANEDIT
1070
     0
1002
}
1002
{
1000
NOSEL
1070
     0
1002
}
1002
{
1000
BEHIND
1070
     0
1002
}
1002
{
1000
REACTOR
1002
}
1001
GENIUS_GENOBJ-N-FIL_13
1002
{
1000
OWNER
1000
GEN
1002
}
  0
ARC
  5
B22
  8
0
 10
193.9756088472644
 20
77.242101142073523
 30
0.0
 40
0.5
 50
269.99999999972209
 51
359.9999999997205
1001
GENIUS_GENODEF_13
1002
{
1000
HIER
1070
     0
1002
}
1002
{
1000
MANEDIT
1070
     0
1002
}
1002
{
1000
NOSEL
1070
     0
1002
}
1002
{
1000
BEHIND
1070
     0
1002
}
1002
{
1000
REACTOR
1002
}
1001
GENIUS_GENOBJ-N-FIL_13
1002
{
1000
OWNER
1000
GEN
1002
}
  0
ARC
  5
B23
  8
0
 10
193.9756088472744
 20
79.242101142073523
 30
0.0
 40
2.5
 50
179.9999999997205
 51
269.9999999997205
1001
GENIUS_GENODEF_13
1002
{
1000
HIER
1070
     0
1002
}
1002
{
1000
MANEDIT
1070
     0
1002
}
1002
{
1000
NOSEL
1070
     0
1002
}
1002
{
1000
BEHIND
1070
     0
1002
}
1002
{
1000
REACTOR
1002
}
1001
GENIUS_GENOBJ-N-FIL_13
1002
{
1000
OWNER
1000
GEN
1002
}
  0
LINE
  5
B24
  8
0
 10
205.47560884800129
 20
76.242101143191121
 30
0.0
 11
205.47560884801109
 21
78.242101142018214
 31
0.0
  0
LINE
  5
B25
  8
0
 10
194.4756088472717
 20
78.742101142071874
 30
0.0
 11
194.4756088472644
 21
77.242101142071874
 31
0.0
  0
LINE
  5
B26
  8
0
 10
197.4756088465177
 20
76.242101143176228
 30
0.0
 11
197.47560884652771
 21
78.242101142057322
 31
0.0
  0
ARC
  5
B27
  8
0
 10
185.9756088472835
 20
81.24210114271466
 30
0.0
 40
2.5
 50
270.0
 51
359.99999999972528
1001
GENIUS_GENODEF_13
1002
{
1000
HIER
1070
     0
1002
}
1002
{
1000
MANEDIT
1070
     0
1002
}
1002
{
1000
NOSEL
1070
     0
1002
}
1002
{
1000
BEHIND
1070
     0
1002
}
1002
{
1000
REACTOR
1002
}
1001
GENIUS_GENOBJ-N-FIL_13
1002
{
1000
OWNER
1000
GEN
1002
}
  0
ARC
  5
B28
  8
0
 10
206.475608848012
 20
78.24210114201253
 30
0.0
 40
1.0
 50
89.999999999720515
 51
179.9999999997205
1001
GENIUS_GENODEF_13
1002
{
1000
HIER
1070
     0
1002
}
1002
{
1000
MANEDIT
1070
     0
1002
}
1002
{
1000
NOSEL
1070
     0
1002
}
1002
{
1000
BEHIND
1070
     0
1002
}
1002
{
1000
REACTOR
1002
}
1001
GENIUS_GENOBJ-N-FIL_13
1002
{
1000
OWNER
1000
GEN
1002
}
  0
ARC
  5
B29
  8
0
 10
217.47560884779671
 20
78.742101143183959
 30
0.0
 40
4.0
 50
269.99999999999682
 51
359.99999999999761
1001
GENIUS_GENODEF_13
1002
{
1000
HIER
1070
     0
1002
}
1002
{
1000
MANEDIT
1070
     0
1002
}
1002
{
1000
NOSEL
1070
     0
1002
}
1002
{
1000
BEHIND
1070
     0
1002
}
1002
{
1000
REACTOR
1002
}
1001
GENIUS_GENOBJ-N-FIL_13
1002
{
1000
OWNER
1000
GEN
1002
}
  0
ARC
  5
B2A
  8
0
 10
213.77560884802949
 20
77.042387276913018
 30
0.0
 40
0.5
 50
180.0
 51
270.00000000001239
1001
GENIUS_GENODEF_13
1002
{
1000
HIER
1070
     0
1002
}
1002
{
1000
MANEDIT
1070
     0
1002
}
1002
{
1000
NOSEL
1070
     0
1002
}
1002
{
1000
BEHIND
1070
     0
1002
}
1002
{
1000
REACTOR
1002
}
1001
GENIUS_GENOBJ-N-FIL_13
1002
{
1000
OWNER
1000
GEN
1002
}
  0
LINE
  5
B2B
  8
0
 10
217.4753527329616
 20
76.542387276913914
 30
0.0
 11
213.77560884802949
 21
76.542387276913018
 31
0.0
  0
ARC
  5
B2C
  8
0
 10
217.4753527329616
 20
78.742387276913746
 30
0.0
 40
2.2000000000000002
 50
269.99999999999193
 51
359.99999999998357
1001
GENIUS_GENODEF_13
1002
{
1000
HIER
1070
     0
1002
}
1002
{
1000
MANEDIT
1070
     0
1002
}
1002
{
1000
NOSEL
1070
     0
1002
}
1002
{
1000
BEHIND
1070
     0
1002
}
1002
{
1000
REACTOR
1002
}
1001
GENIUS_GENOBJ-N-FIL_13
1002
{
1000
OWNER
1000
GEN
1002
}
  0
LINE
  5
B2D
  8
0
 10
217.47560884779651
 20
114.7421011431838
 30
0.0
 11
206.975608849472
 21
114.7421011431838
 31
0.0
  0
ARC
  5
B2E
  8
0
 10
215.6679970066119
 20
99.742101142016395
 30
0.0
 40
5.0
 50
90.0
 51
134.99999998916721
1001
GENIUS_GENODEF_13
1002
{
1000
HIER
1070
     0
1002
}
1002
{
1000
MANEDIT
1070
     0
1002
}
1002
{
1000
NOSEL
1070
     0
1002
}
1002
{
1000
BEHIND
1070
     0
1002
}
1002
{
1000
REACTOR
1002
}
1001
GENIUS_GENOBJ-N-FIL_13
1002
{
1000
OWNER
1000
GEN
1002
}
  0
ARC
  5
B2F
  8
0
 10
215.66799700455101
 20
89.742101142016395
 30
0.0
 40
5.0
 50
225.00000000049701
 51
270.0
1001
GENIUS_GENODEF_13
1002
{
1000
HIER
1070
     0
1002
}
1002
{
1000
MANEDIT
1070
     0
1002
}
1002
{
1000
NOSEL
1070
     0
1002
}
1002
{
1000
BEHIND
1070
     0
1002
}
1002
{
1000
REACTOR
1002
}
1001
GENIUS_GENOBJ-N-FIL_13
1002
{
1000
OWNER
1000
GEN
1002
}
  0
ARC
  5
B30
  8
0
 10
206.975608849472
 20
113.2421011431838
 30
0.0
 40
1.5
 50
90.0
 51
179.999999999972
1001
GENIUS_GENODEF_13
1002
{
1000
HIER
1070
     0
1002
}
1002
{
1000
MANEDIT
1070
     0
1002
}
1002
{
1000
NOSEL
1070
     0
1002
}
1002
{
1000
BEHIND
1070
     0
1002
}
1002
{
1000
REACTOR
1002
}
1001
GENIUS_GENOBJ-N-FIL_13
1002
{
1000
OWNER
1000
GEN
1002
}
  0
ARC
  5
B31
  8
0
 10
195.97560884798739
 20
113.2421011431838
 30
0.0
 40
1.5
 50
0.0
 51
90.0
1001
GENIUS_GENODEF_13
1002
{
1000
HIER
1070
     0
1002
}
1002
{
1000
MANEDIT
1070
     0
1002
}
1002
{
1000
NOSEL
1070
     0
1002
}
1002
{
1000
BEHIND
1070
     0
1002
}
1002
{
1000
REACTOR
1002
}
1001
GENIUS_GENOBJ-N-FIL_13
1002
{
1000
OWNER
1000
GEN
1002
}
  0
ARC
  5
B32
  8
0
 10
179.97560884802931
 20
129.24210114127419
 30
0.0
 40
1.5
 50
0.0
 51
89.999999999972005
1001
GENIUS_GENODEF_13
1002
{
1000
HIER
1070
     0
1002
}
1002
{
1000
MANEDIT
1070
     0
1002
}
1002
{
1000
NOSEL
1070
     0
1002
}
1002
{
1000
BEHIND
1070
     0
1002
}
1002
{
1000
REACTOR
1002
}
1001
GENIUS_GENOBJ-N-FIL_13
1002
{
1000
OWNER
1000
GEN
1002
}
  0
ARC
  5
B33
  8
0
 10
179.97560884802951
 20
140.24210114275849
 30
0.0
 40
1.5
 50
270.0
 51
0.0
1001
GENIUS_GENODEF_13
1002
{
1000
HIER
1070
     0
1002
}
1002
{
1000
MANEDIT
1070
     0
1002
}
1002
{
1000
NOSEL
1070
     0
1002
}
1002
{
1000
BEHIND
1070
     0
1002
}
1002
{
1000
REACTOR
1002
}
1001
GENIUS_GENOBJ-N-FIL_13
1002
{
1000
OWNER
1000
GEN
1002
}
  0
LINE
  5
B34
  8
0
 10
181.47560884802931
 20
129.24210114127419
 30
0.0
 11
181.47560884802931
 21
114.94210114318371
 31
0.0
  0
LINE
  5
B35
  8
0
 10
195.97560884798739
 20
114.7421011431838
 30
0.0
 11
181.6756088480293
 21
114.7421011431838
 31
0.0
  0
ARC
  5
B36
  8
0
 10
181.6756088480293
 20
114.94210114318371
 30
0.0
 40
0.2
 50
180.0
 51
270.0
1001
GENIUS_GENODEF_13
1002
{
1000
HIER
1070
     0
1002
}
1002
{
1000
MANEDIT
1070
     0
1002
}
1002
{
1000
NOSEL
1070
     0
1002
}
1002
{
1000
BEHIND
1070
     0
1002
}
1002
{
1000
REACTOR
1002
}
1001
GENIUS_GENOBJ-N-FIL_13
1002
{
1000
OWNER
1000
GEN
1002
}
  0
LINE
  5
B37
  8
0
 10
181.47560884802931
 20
150.74210114271469
 30
0.0
 11
181.47560884802951
 21
140.24210114275849
 31
0.0
  0
ARC
  5
B38
  8
0
 10
178.97560884988829
 20
142.24210114201639
 30
0.0
 40
0.5
 50
270.0
 51
0.0
1001
GENIUS_GENODEF_13
1002
{
1000
HIER
1070
     0
1002
}
1002
{
1000
MANEDIT
1070
     0
1002
}
1002
{
1000
NOSEL
1070
     0
1002
}
1002
{
1000
BEHIND
1070
     0
1002
}
1002
{
1000
REACTOR
1002
}
1001
GENIUS_GENOBJ-N-FIL_13
1002
{
1000
OWNER
1000
GEN
1002
}
  0
ARC
  5
B39
  8
0
 10
178.97560884988829
 20
142.24210114201639
 30
0.0
 40
0.5
 50
270.0
 51
0.0
1001
GENIUS_GENODEF_13
1002
{
1000
HIER
1070
     0
1002
}
1002
{
1000
MANEDIT
1070
     0
1002
}
1002
{
1000
NOSEL
1070
     0
1002
}
1002
{
1000
BEHIND
1070
     0
1002
}
1002
{
1000
REACTOR
1002
}
1001
GENIUS_GENOBJ-N-FIL_13
1002
{
1000
OWNER
1000
GEN
1002
}
  0
ARC
  5
B3A
  8
0
 10
179.17532271383089
 20
147.04210114201641
 30
0.0
 40
0.5
 50
270.0
 51
0.0000000000124169
1001
GENIUS_GENODEF_13
1002
{
1000
HIER
1070
     0
1002
}
1002
{
1000
MANEDIT
1070
     0
1002
}
1002
{
1000
NOSEL
1070
     0
1002
}
1002
{
1000
BEHIND
1070
     0
1002
}
1002
{
1000
REACTOR
1002
}
1001
GENIUS_GENOBJ-N-FIL_13
1002
{
1000
OWNER
1000
GEN
1002
}
  0
ARC
  5
B3B
  8
0
 10
178.97560884988829
 20
127.24210114201639
 30
0.0
 40
0.5
 50
0.0000000000016157
 51
90.0
1001
GENIUS_GENODEF_13
1002
{
1000
HIER
1070
     0
1002
}
1002
{
1000
MANEDIT
1070
     0
1002
}
1002
{
1000
NOSEL
1070
     0
1002
}
1002
{
1000
BEHIND
1070
     0
1002
}
1002
{
1000
REACTOR
1002
}
1001
GENIUS_GENOBJ-N-FIL_13
1002
{
1000
OWNER
1000
GEN
1002
}
  0
LINE
  5
B3C
  8
0
 10
179.67532271383001
 20
150.74184502694879
 30
0.0
 11
179.67532271383089
 21
147.04210114201649
 31
0.0
  0
LINE
  5
B3D
  8
0
 10
208.47560884872959
 20
110.7421011431787
 30
0.0
 11
208.47560884872959
 21
112.2421011431787
 31
0.0
  0
ARC
  5
B3E
  8
0
 10
208.97560884872959
 20
110.2421011431787
 30
0.0
 40
2.5
 50
0.0
 51
90.0
1001
GENIUS_GENODEF_13
1002
{
1000
HIER
1070
     0
1002
}
1002
{
1000
MANEDIT
1070
     0
1002
}
1002
{
1000
NOSEL
1070
     0
1002
}
1002
{
1000
BEHIND
1070
     0
1002
}
1002
{
1000
REACTOR
1002
}
1001
GENIUS_GENOBJ-N-FIL_13
1002
{
1000
OWNER
1000
GEN
1002
}
  0
LINE
  5
B3F
  8
0
 10
207.97560884872959
 20
110.2421011431787
 30
0.0
 11
206.4756088494708
 21
110.2421011431787
 31
0.0
  0
ARC
  5
B40
  8
0
 10
207.97560884872959
 20
110.7421011431787
 30
0.0
 40
0.5
 50
270.0
 51
0.0
1001
GENIUS_GENODEF_13
1002
{
1000
HIER
1070
     0
1002
}
1002
{
1000
MANEDIT
1070
     0
1002
}
1002
{
1000
NOSEL
1070
     0
1002
}
1002
{
1000
BEHIND
1070
     0
1002
}
1002
{
1000
REACTOR
1002
}
1001
GENIUS_GENOBJ-N-FIL_13
1002
{
1000
OWNER
1000
GEN
1002
}
  0
ARC
  5
B41
  8
0
 10
208.97560884872959
 20
112.2421011431787
 30
0.0
 40
0.5
 50
90.000000000001606
 51
180.0
1001
GENIUS_GENODEF_13
1002
{
1000
HIER
1070
     0
1002
}
1002
{
1000
MANEDIT
1070
     0
1002
}
1002
{
1000
NOSEL
1070
     0
1002
}
1002
{
1000
BEHIND
1070
     0
1002
}
1002
{
1000
REACTOR
1002
}
1001
GENIUS_GENOBJ-N-FIL_13
1002
{
1000
OWNER
1000
GEN
1002
}
  0
ARC
  5
B42
  8
0
 10
206.47560884872959
 20
108.9344892978412
 30
0.0
 40
5.0
 50
315.0000000004971
 51
0.0
1001
GENIUS_GENODEF_13
1002
{
1000
HIER
1070
     0
1002
}
1002
{
1000
MANEDIT
1070
     0
1002
}
1002
{
1000
NOSEL
1070
     0
1002
}
1002
{
1000
BEHIND
1070
     0
1002
}
1002
{
1000
REACTOR
1002
}
1001
GENIUS_GENOBJ-N-FIL_13
1002
{
1000
OWNER
1000
GEN
1002
}
  0
LINE
  5
B43
  8
0
 10
208.56875459959369
 20
103.95656723681471
 30
0.0
 11
210.011142754693
 21
105.3989553919391
 31
0.0
  0
ARC
  5
B44
  8
0
 10
214.22560884942629
 20
98.299712985375564
 30
0.0
 40
5.0
 50
134.99999998916959
 51
180.0
1001
GENIUS_GENODEF_13
1002
{
1000
HIER
1070
     0
1002
}
1002
{
1000
MANEDIT
1070
     0
1002
}
1002
{
1000
NOSEL
1070
     0
1002
}
1002
{
1000
BEHIND
1070
     0
1002
}
1002
{
1000
REACTOR
1002
}
1001
GENIUS_GENOBJ-N-FIL_13
1002
{
1000
OWNER
1000
GEN
1002
}
  0
LINE
  5
B45
  8
0
 10
210.69007494416141
 20
101.8352468919764
 30
0.0
 11
212.1324631013471
 21
103.2776350486173
 31
0.0
  0
LINE
  5
B46
  8
0
 10
211.47560884872959
 20
108.9344892978412
 30
0.0
 11
211.47560884872959
 21
110.2421011431787
 31
0.0
  0
LINE
  5
B47
  8
0
 10
208.5687545972645
 20
85.527635047729632
 30
0.0
 11
210.01114275389901
 21
84.085246890536723
 31
0.0
  0
LINE
  5
B48
  8
0
 10
210.69007494352391
 20
87.648955391152285
 30
0.0
 11
212.1324630986486
 21
86.206567236053047
 31
0.0
  0
ARC
  5
B49
  8
0
 10
214.22560884942629
 20
91.184489297115647
 30
0.0
 40
5.0
 50
180.0
 51
225.0000000005015
1001
GENIUS_GENODEF_13
1002
{
1000
HIER
1070
     0
1002
}
1002
{
1000
MANEDIT
1070
     0
1002
}
1002
{
1000
NOSEL
1070
     0
1002
}
1002
{
1000
BEHIND
1070
     0
1002
}
1002
{
1000
REACTOR
1002
}
1001
GENIUS_GENOBJ-N-FIL_13
1002
{
1000
OWNER
1000
GEN
1002
}
  0
LINE
  5
B4A
  8
0
 10
209.22560884942629
 20
91.184489297115647
 30
0.0
 11
209.22560884942629
 21
98.299712985375564
 31
0.0
  0
LINE
  5
B4B
  8
0
 10
205.475608849472
 20
113.2421011431845
 30
0.0
 11
205.47560884947089
 21
111.2421011431787
 31
0.0
  0
LINE
  5
B4C
  8
0
 10
197.47560884798739
 20
113.2421011431838
 30
0.0
 11
197.47560884798739
 21
111.2421011431787
 31
0.0
  0
LINE
  5
B4D
  8
0
 10
194.47560884872959
 20
110.7421011431787
 30
0.0
 11
194.47560884872959
 21
112.2421011431787
 31
0.0
  0
ARC
  5
B4E
  8
0
 10
193.97560884872959
 20
110.2421011431787
 30
0.0
 40
2.5
 50
90.0
 51
180.0
1001
GENIUS_GENODEF_13
1002
{
1000
HIER
1070
     0
1002
}
1002
{
1000
MANEDIT
1070
     0
1002
}
1002
{
1000
NOSEL
1070
     0
1002
}
1002
{
1000
BEHIND
1070
     0
1002
}
1002
{
1000
REACTOR
1002
}
1001
GENIUS_GENOBJ-N-FIL_13
1002
{
1000
OWNER
1000
GEN
1002
}
  0
LINE
  5
B4F
  8
0
 10
194.97560884872959
 20
110.2421011431787
 30
0.0
 11
196.4756088479875
 21
110.2421011431787
 31
0.0
  0
ARC
  5
B50
  8
0
 10
194.97560884872959
 20
110.7421011431787
 30
0.0
 40
0.5
 50
180.0
 51
270.0
1001
GENIUS_GENODEF_13
1002
{
1000
HIER
1070
     0
1002
}
1002
{
1000
MANEDIT
1070
     0
1002
}
1002
{
1000
NOSEL
1070
     0
1002
}
1002
{
1000
BEHIND
1070
     0
1002
}
1002
{
1000
REACTOR
1002
}
1001
GENIUS_GENOBJ-N-FIL_13
1002
{
1000
OWNER
1000
GEN
1002
}
  0
ARC
  5
B51
  8
0
 10
193.97560884872959
 20
112.2421011431787
 30
0.0
 40
0.5
 50
0.0
 51
90.0
1001
GENIUS_GENODEF_13
1002
{
1000
HIER
1070
     0
1002
}
1002
{
1000
MANEDIT
1070
     0
1002
}
1002
{
1000
NOSEL
1070
     0
1002
}
1002
{
1000
BEHIND
1070
     0
1002
}
1002
{
1000
REACTOR
1002
}
1001
GENIUS_GENOBJ-N-FIL_13
1002
{
1000
OWNER
1000
GEN
1002
}
  0
ARC
  5
B52
  8
0
 10
196.4756088479875
 20
111.2421011431787
 30
0.0
 40
1.0
 50
270.0
 51
0.0
1001
GENIUS_GENODEF_13
1002
{
1000
HIER
1070
     0
1002
}
1002
{
1000
MANEDIT
1070
     0
1002
}
1002
{
1000
NOSEL
1070
     0
1002
}
1002
{
1000
BEHIND
1070
     0
1002
}
1002
{
1000
REACTOR
1002
}
1001
GENIUS_GENOBJ-N-FIL_13
1002
{
1000
OWNER
1000
GEN
1002
}
  0
LINE
  5
B53
  8
0
 10
185.9756088472808
 20
110.7421011436502
 30
0.0
 11
180.63246309823569
 21
110.74210114364929
 31
0.0
  0
ARC
  5
B54
  8
0
 10
180.63246309823569
 20
108.24210114364919
 30
0.0
 40
2.5
 50
90.000000000009805
 51
135.0000000008188
1001
GENIUS_GENODEF_13
1002
{
1000
HIER
1070
     0
1002
}
1002
{
1000
MANEDIT
1070
     0
1002
}
1002
{
1000
NOSEL
1070
     0
1002
}
1002
{
1000
BEHIND
1070
     0
1002
}
1002
{
1000
REACTOR
1002
}
1001
GENIUS_GENOBJ-N-FIL_13
1002
{
1000
OWNER
1000
GEN
1002
}
  0
ARC
  5
B55
  8
0
 10
196.47560884872959
 20
108.934489299902
 30
0.0
 40
5.0
 50
180.0
 51
224.99999998916729
1001
GENIUS_GENODEF_13
1002
{
1000
HIER
1070
     0
1002
}
1002
{
1000
MANEDIT
1070
     0
1002
}
1002
{
1000
NOSEL
1070
     0
1002
}
1002
{
1000
BEHIND
1070
     0
1002
}
1002
{
1000
REACTOR
1002
}
1001
GENIUS_GENOBJ-N-FIL_13
1002
{
1000
OWNER
1000
GEN
1002
}
  0
LINE
  5
B56
  8
0
 10
194.38246309876951
 20
103.95656723745211
 30
0.0
 11
192.94007494212869
 21
105.3989553946377
 31
0.0
  0
LINE
  5
B57
  8
0
 10
205.0332206936304
 20
102.49210114271639
 30
0.0
 11
197.91799700537041
 21
102.49210114271639
 31
0.0
  0
ARC
  5
B58
  8
0
 10
188.72560884872689
 20
98.299712987979035
 30
0.0
 40
5.0
 50
0.0000000000098521
 51
44.999999999245887
1001
GENIUS_GENODEF_13
1002
{
1000
HIER
1070
     0
1002
}
1002
{
1000
MANEDIT
1070
     0
1002
}
1002
{
1000
NOSEL
1070
     0
1002
}
1002
{
1000
BEHIND
1070
     0
1002
}
1002
{
1000
REACTOR
1002
}
1001
GENIUS_GENOBJ-N-FIL_13
1002
{
1000
OWNER
1000
GEN
1002
}
  0
ARC
  5
B59
  8
0
 10
197.91799700537041
 20
107.49210114271651
 30
0.0
 40
5.0
 50
224.99999998916959
 51
270.0
1001
GENIUS_GENODEF_13
1002
{
1000
HIER
1070
     0
1002
}
1002
{
1000
MANEDIT
1070
     0
1002
}
1002
{
1000
NOSEL
1070
     0
1002
}
1002
{
1000
BEHIND
1070
     0
1002
}
1002
{
1000
REACTOR
1002
}
1001
GENIUS_GENOBJ-N-FIL_13
1002
{
1000
OWNER
1000
GEN
1002
}
  0
LINE
  5
B5A
  8
0
 10
192.26114275470661
 20
101.8352468938652
 30
0.0
 11
189.9400749413056
 21
104.1563147073269
 31
0.0
  0
LINE
  5
B5B
  8
0
 10
188.47560884728529
 20
107.6918486131882
 30
0.0
 11
188.4756088472808
 21
108.24210114366259
 31
0.0
  0
ARC
  5
B5C
  8
0
 10
193.47560884728529
 20
107.69184861321339
 30
0.0
 40
5.0
 50
180.00000000028811
 51
224.99999999924961
1001
GENIUS_GENODEF_13
1002
{
1000
HIER
1070
     0
1002
}
1002
{
1000
MANEDIT
1070
     0
1002
}
1002
{
1000
NOSEL
1070
     0
1002
}
1002
{
1000
BEHIND
1070
     0
1002
}
1002
{
1000
REACTOR
1002
}
1001
GENIUS_GENOBJ-N-FIL_13
1002
{
1000
OWNER
1000
GEN
1002
}
  0
LINE
  5
B5D
  8
0
 10
191.47560884872959
 20
108.934489299902
 30
0.0
 11
191.47560884872959
 21
110.2421011431787
 31
0.0
  0
ARC
  5
B5E
  8
0
 10
185.9756088472808
 20
108.2421011436502
 30
0.0
 40
2.5
 50
0.0000000002845502
 51
90.000000000009848
1001
GENIUS_GENODEF_13
1002
{
1000
HIER
1070
     0
1002
}
1002
{
1000
MANEDIT
1070
     0
1002
}
1002
{
1000
NOSEL
1070
     0
1002
}
1002
{
1000
BEHIND
1070
     0
1002
}
1002
{
1000
REACTOR
1002
}
1001
GENIUS_GENOBJ-N-FIL_13
1002
{
1000
OWNER
1000
GEN
1002
}
  0
LINE
  5
B5F
  8
0
 10
197.91799700241091
 20
86.992101142516617
 30
0.0
 11
205.0332206906709
 21
86.992101142482056
 31
0.0
  0
LINE
  5
B60
  8
0
 10
194.38246309644029
 20
85.527635048436295
 30
0.0
 11
192.9400749413347
 21
84.085246893318867
 31
0.0
  0
LINE
  5
B61
  8
0
 10
192.26114275470749
 20
87.648955392500739
 30
0.0
 11
189.94007494130739
 21
85.327887579038645
 31
0.0
  0
ARC
  5
B62
  8
0
 10
197.9179970023873
 20
81.992101142516319
 30
0.0
 40
5.0
 50
89.999999999720515
 51
135.000000000222
1001
GENIUS_GENODEF_13
1002
{
1000
HIER
1070
     0
1002
}
1002
{
1000
MANEDIT
1070
     0
1002
}
1002
{
1000
NOSEL
1070
     0
1002
}
1002
{
1000
BEHIND
1070
     0
1002
}
1002
{
1000
REACTOR
1002
}
1001
GENIUS_GENOBJ-N-FIL_13
1002
{
1000
OWNER
1000
GEN
1002
}
  0
ARC
  5
B63
  8
0
 10
188.7256088487278
 20
91.184489298386325
 30
0.0
 40
5.0
 50
315.00000000076392
 51
0.0
1001
GENIUS_GENODEF_13
1002
{
1000
HIER
1070
     0
1002
}
1002
{
1000
MANEDIT
1070
     0
1002
}
1002
{
1000
NOSEL
1070
     0
1002
}
1002
{
1000
BEHIND
1070
     0
1002
}
1002
{
1000
REACTOR
1002
}
1001
GENIUS_GENOBJ-N-FIL_13
1002
{
1000
OWNER
1000
GEN
1002
}
  0
ARC
  5
B64
  8
0
 10
193.47560884728711
 20
81.792353673152775
 30
0.0
 40
5.0
 50
135.0000000007602
 51
179.99999999972169
1001
GENIUS_GENODEF_13
1002
{
1000
HIER
1070
     0
1002
}
1002
{
1000
MANEDIT
1070
     0
1002
}
1002
{
1000
NOSEL
1070
     0
1002
}
1002
{
1000
BEHIND
1070
     0
1002
}
1002
{
1000
REACTOR
1002
}
1001
GENIUS_GENOBJ-N-FIL_13
1002
{
1000
OWNER
1000
GEN
1002
}
  0
CIRCLE
  5
B65
  8
0
 10
201.47560884779651
 20
94.742101143183788
 30
0.0
 40
3.399999999999999
  0
LINE
  5
B66
  8
0
 10
193.7256088487278
 20
98.299712987979035
 30
0.0
 11
193.7256088487278
 21
91.184489298386325
 31
0.0
  0
ARC
  5
B67
  8
0
 10
205.0332206936304
 20
107.49210114271651
 30
0.0
 40
5.0
 50
270.0
 51
315.00000000050147
1001
GENIUS_GENODEF_13
1002
{
1000
HIER
1070
     0
1002
}
1002
{
1000
MANEDIT
1070
     0
1002
}
1002
{
1000
NOSEL
1070
     0
1002
}
1002
{
1000
BEHIND
1070
     0
1002
}
1002
{
1000
REACTOR
1002
}
1001
GENIUS_GENOBJ-N-FIL_13
1002
{
1000
OWNER
1000
GEN
1002
}
  0
ARC
  5
B68
  8
0
 10
206.4756088494708
 20
111.2421011431787
 30
0.0
 40
1.0
 50
180.0
 51
270.0
1001
GENIUS_GENODEF_13
1002
{
1000
HIER
1070
     0
1002
}
1002
{
1000
MANEDIT
1070
     0
1002
}
1002
{
1000
NOSEL
1070
     0
1002
}
1002
{
1000
BEHIND
1070
     0
1002
}
1002
{
1000
REACTOR
1002
}
1001
GENIUS_GENOBJ-N-FIL_13
1002
{
1000
OWNER
1000
GEN
1002
}
  0
ARC
  5
B69
  8
0
 10
205.0332206906472
 20
81.992101142481602
 30
0.0
 40
5.0
 50
44.99999998889016
 51
89.999999999720515
1001
GENIUS_GENODEF_13
1002
{
1000
HIER
1070
     0
1002
}
1002
{
1000
MANEDIT
1070
     0
1002
}
1002
{
1000
NOSEL
1070
     0
1002
}
1002
{
1000
BEHIND
1070
     0
1002
}
1002
{
1000
REACTOR
1002
}
1001
GENIUS_GENOBJ-N-FIL_13
1002
{
1000
OWNER
1000
GEN
1002
}
  0
ARC
  5
B6A
  8
0
 10
219.97560884779651
 20
89.242101141274233
 30
0.0
 40
1.5
 50
0.0
 51
89.999999999972005
1001
GENIUS_GENODEF_13
1002
{
1000
HIER
1070
     0
1002
}
1002
{
1000
MANEDIT
1070
     0
1002
}
1002
{
1000
NOSEL
1070
     0
1002
}
1002
{
1000
BEHIND
1070
     0
1002
}
1002
{
1000
REACTOR
1002
}
1001
GENIUS_GENOBJ-N-FIL_13
1002
{
1000
OWNER
1000
GEN
1002
}
  0
ARC
  5
B6B
  8
0
 10
219.97560884779651
 20
100.2421011427585
 30
0.0
 40
1.5
 50
270.0
 51
0.0
1001
GENIUS_GENODEF_13
1002
{
1000
HIER
1070
     0
1002
}
1002
{
1000
MANEDIT
1070
     0
1002
}
1002
{
1000
NOSEL
1070
     0
1002
}
1002
{
1000
BEHIND
1070
     0
1002
}
1002
{
1000
REACTOR
1002
}
1001
GENIUS_GENOBJ-N-FIL_13
1002
{
1000
OWNER
1000
GEN
1002
}
  0
ARC
  5
B6C
  8
0
 10
217.4756088477958
 20
110.74210114318301
 30
0.0
 40
4.0
 50
0.0000000000105849
 51
89.999999999990223
1001
GENIUS_GENODEF_13
1002
{
1000
HIER
1070
     0
1002
}
1002
{
1000
MANEDIT
1070
     0
1002
}
1002
{
1000
NOSEL
1070
     0
1002
}
1002
{
1000
BEHIND
1070
     0
1002
}
1002
{
1000
REACTOR
1002
}
1001
GENIUS_GENOBJ-N-FIL_13
1002
{
1000
OWNER
1000
GEN
1002
}
  0
LINE
  5
B6D
  8
0
 10
221.47560884779651
 20
110.7421011431838
 30
0.0
 11
221.47560884779651
 21
100.2421011427585
 31
0.0
  0
ARC
  5
B6E
  8
0
 10
217.4753527329616
 20
110.7418150071186
 30
0.0
 40
2.2000000000000002
 50
0.0000000000164668
 51
90.000000000008157
1001
GENIUS_GENODEF_13
1002
{
1000
HIER
1070
     0
1002
}
1002
{
1000
MANEDIT
1070
     0
1002
}
1002
{
1000
NOSEL
1070
     0
1002
}
1002
{
1000
BEHIND
1070
     0
1002
}
1002
{
1000
REACTOR
1002
}
1001
GENIUS_GENOBJ-N-FIL_13
1002
{
1000
OWNER
1000
GEN
1002
}
  0
ARC
  5
B6F
  8
0
 10
213.77560884802949
 20
112.4418150071193
 30
0.0
 40
0.5
 50
89.999999999987608
 51
180.0
1001
GENIUS_GENODEF_13
1002
{
1000
HIER
1070
     0
1002
}
1002
{
1000
MANEDIT
1070
     0
1002
}
1002
{
1000
NOSEL
1070
     0
1002
}
1002
{
1000
BEHIND
1070
     0
1002
}
1002
{
1000
REACTOR
1002
}
1001
GENIUS_GENOBJ-N-FIL_13
1002
{
1000
OWNER
1000
GEN
1002
}
  0
LINE
  5
B70
  8
0
 10
217.4753527329616
 20
112.94181500711839
 30
0.0
 11
213.77560884802949
 21
112.9418150071193
 31
0.0
  0
LINE
  5
B71
  8
0
 10
215.6679970066119
 20
104.74210114201639
 30
0.0
 11
216.97560884988829
 21
104.74210114201639
 31
0.0
  0
ARC
  5
B72
  8
0
 10
219.1753527329632
 20
107.04210114201631
 30
0.0
 40
0.5
 50
269.99999999999193
 51
0.0000000000164668
1001
GENIUS_GENODEF_13
1002
{
1000
HIER
1070
     0
1002
}
1002
{
1000
MANEDIT
1070
     0
1002
}
1002
{
1000
NOSEL
1070
     0
1002
}
1002
{
1000
BEHIND
1070
     0
1002
}
1002
{
1000
REACTOR
1002
}
1001
GENIUS_GENOBJ-N-FIL_13
1002
{
1000
OWNER
1000
GEN
1002
}
  0
ARC
  5
B73
  8
0
 10
213.77560884802949
 20
107.04210114201631
 30
0.0
 40
0.5
 50
180.0
 51
269.99999999999108
1001
GENIUS_GENODEF_13
1002
{
1000
HIER
1070
     0
1002
}
1002
{
1000
MANEDIT
1070
     0
1002
}
1002
{
1000
NOSEL
1070
     0
1002
}
1002
{
1000
BEHIND
1070
     0
1002
}
1002
{
1000
REACTOR
1002
}
1001
GENIUS_GENOBJ-N-FIL_13
1002
{
1000
OWNER
1000
GEN
1002
}
  0
LINE
  5
B74
  8
0
 10
213.77560884802949
 20
106.54210114201631
 30
0.0
 11
219.1753527329632
 21
106.54210114201631
 31
0.0
  0
ARC
  5
B75
  8
0
 10
218.97560884988829
 20
102.24210114201639
 30
0.0
 40
0.5
 50
270.0
 51
0.0
1001
GENIUS_GENODEF_13
1002
{
1000
HIER
1070
     0
1002
}
1002
{
1000
MANEDIT
1070
     0
1002
}
1002
{
1000
NOSEL
1070
     0
1002
}
1002
{
1000
BEHIND
1070
     0
1002
}
1002
{
1000
REACTOR
1002
}
1001
GENIUS_GENOBJ-N-FIL_13
1002
{
1000
OWNER
1000
GEN
1002
}
  0
ARC
  5
B76
  8
0
 10
218.97560884988829
 20
102.24210114201639
 30
0.0
 40
0.5
 50
270.0
 51
0.0
1001
GENIUS_GENODEF_13
1002
{
1000
HIER
1070
     0
1002
}
1002
{
1000
MANEDIT
1070
     0
1002
}
1002
{
1000
NOSEL
1070
     0
1002
}
1002
{
1000
BEHIND
1070
     0
1002
}
1002
{
1000
REACTOR
1002
}
1001
GENIUS_GENOBJ-N-FIL_13
1002
{
1000
OWNER
1000
GEN
1002
}
  0
LINE
  5
B77
  8
0
 10
217.47560884988829
 20
101.74210114201639
 30
0.0
 11
218.97560884988829
 21
101.74210114201639
 31
0.0
  0
ARC
  5
B78
  8
0
 10
217.47560884988829
 20
101.24210114201639
 30
0.0
 40
0.5
 50
90.0
 51
180.0
1001
GENIUS_GENODEF_13
1002
{
1000
HIER
1070
     0
1002
}
1002
{
1000
MANEDIT
1070
     0
1002
}
1002
{
1000
NOSEL
1070
     0
1002
}
1002
{
1000
BEHIND
1070
     0
1002
}
1002
{
1000
REACTOR
1002
}
1001
GENIUS_GENOBJ-N-FIL_13
1002
{
1000
OWNER
1000
GEN
1002
}
  0
LINE
  5
B79
  8
0
 10
219.97560884779651
 20
98.742101142758543
 30
0.0
 11
217.97560884988829
 21
98.742101142758543
 31
0.0
  0
ARC
  5
B7A
  8
0
 10
217.97560884988829
 20
99.742101142758557
 30
0.0
 40
1.0
 50
180.0
 51
270.0
1001
GENIUS_GENODEF_13
1002
{
1000
HIER
1070
     0
1002
}
1002
{
1000
MANEDIT
1070
     0
1002
}
1002
{
1000
NOSEL
1070
     0
1002
}
1002
{
1000
BEHIND
1070
     0
1002
}
1002
{
1000
REACTOR
1002
}
1001
GENIUS_GENOBJ-N-FIL_13
1002
{
1000
OWNER
1000
GEN
1002
}
  0
LINE
  5
B7B
  8
0
 10
216.97560884988829
 20
101.24210114201639
 30
0.0
 11
216.97560884988829
 21
99.742101142758557
 31
0.0
  0
ARC
  5
B7C
  8
0
 10
216.97560884988829
 20
102.24210114201639
 30
0.0
 40
2.5
 50
0.0
 51
90.0
1001
GENIUS_GENODEF_13
1002
{
1000
HIER
1070
     0
1002
}
1002
{
1000
MANEDIT
1070
     0
1002
}
1002
{
1000
NOSEL
1070
     0
1002
}
1002
{
1000
BEHIND
1070
     0
1002
}
1002
{
1000
REACTOR
1002
}
1001
GENIUS_GENOBJ-N-FIL_13
1002
{
1000
OWNER
1000
GEN
1002
}
  0
LINE
  5
B7D
  8
0
 10
213.27560884802949
 20
107.04210114201631
 30
0.0
 11
213.27560884802949
 21
112.4418150071193
 31
0.0
  0
LINE
  5
B7E
  8
0
 10
219.67535273296329
 20
107.04210114201631
 30
0.0
 11
219.6753527329623
 21
110.7418150071195
 31
0.0
  0
LINE
  5
B7F
  8
0
 10
219.97560884779719
 20
90.742101141274233
 30
0.0
 11
217.97560884988829
 21
90.742101141275157
 31
0.0
  0
ARC
  5
B80
  8
0
 10
218.97560884988829
 20
87.242101142016395
 30
0.0
 40
0.5
 50
0.0000000000016157
 51
90.0
1001
GENIUS_GENODEF_13
1002
{
1000
HIER
1070
     0
1002
}
1002
{
1000
MANEDIT
1070
     0
1002
}
1002
{
1000
NOSEL
1070
     0
1002
}
1002
{
1000
BEHIND
1070
     0
1002
}
1002
{
1000
REACTOR
1002
}
1001
GENIUS_GENOBJ-N-FIL_13
1002
{
1000
OWNER
1000
GEN
1002
}
  0
ARC
  5
B81
  8
0
 10
216.97560884988829
 20
87.242101142016395
 30
0.0
 40
2.5
 50
270.0
 51
0.0
1001
GENIUS_GENODEF_13
1002
{
1000
HIER
1070
     0
1002
}
1002
{
1000
MANEDIT
1070
     0
1002
}
1002
{
1000
NOSEL
1070
     0
1002
}
1002
{
1000
BEHIND
1070
     0
1002
}
1002
{
1000
REACTOR
1002
}
1001
GENIUS_GENOBJ-N-FIL_13
1002
{
1000
OWNER
1000
GEN
1002
}
  0
ARC
  5
B82
  8
0
 10
217.47560884988829
 20
88.242101142016395
 30
0.0
 40
0.5
 50
180.0
 51
270.0
1001
GENIUS_GENODEF_13
1002
{
1000
HIER
1070
     0
1002
}
1002
{
1000
MANEDIT
1070
     0
1002
}
1002
{
1000
NOSEL
1070
     0
1002
}
1002
{
1000
BEHIND
1070
     0
1002
}
1002
{
1000
REACTOR
1002
}
1001
GENIUS_GENOBJ-N-FIL_13
1002
{
1000
OWNER
1000
GEN
1002
}
  0
LINE
  5
B83
  8
0
 10
217.47560884988829
 20
87.742101142016395
 30
0.0
 11
218.97560884988829
 21
87.742101142016395
 31
0.0
  0
LINE
  5
B84
  8
0
 10
216.97560884988829
 20
88.242101142016395
 30
0.0
 11
216.97560884988829
 21
89.742101141275157
 31
0.0
  0
LINE
  5
B85
  8
0
 10
215.66799700455101
 20
84.742101142016395
 30
0.0
 11
216.97560884988829
 21
84.742101142016395
 31
0.0
  0
ARC
  5
B86
  8
0
 10
217.97560884988829
 20
89.742101141275157
 30
0.0
 40
1.0
 50
90.0
 51
180.0
1001
GENIUS_GENODEF_13
1002
{
1000
HIER
1070
     0
1002
}
1002
{
1000
MANEDIT
1070
     0
1002
}
1002
{
1000
NOSEL
1070
     0
1002
}
1002
{
1000
BEHIND
1070
     0
1002
}
1002
{
1000
REACTOR
1002
}
1001
GENIUS_GENOBJ-N-FIL_13
1002
{
1000
OWNER
1000
GEN
1002
}
  0
ARC
  5
B87
  8
0
 10
219.1753527329632
 20
82.442101142015986
 30
0.0
 40
0.5
 50
359.99999999998352
 51
90.000000000008157
1001
GENIUS_GENODEF_13
1002
{
1000
HIER
1070
     0
1002
}
1002
{
1000
MANEDIT
1070
     0
1002
}
1002
{
1000
NOSEL
1070
     0
1002
}
1002
{
1000
BEHIND
1070
     0
1002
}
1002
{
1000
REACTOR
1002
}
1001
GENIUS_GENOBJ-N-FIL_13
1002
{
1000
OWNER
1000
GEN
1002
}
  0
ARC
  5
B88
  8
0
 10
213.77560884802949
 20
82.442101142015986
 30
0.0
 40
0.5
 50
90.000000000008853
 51
180.0
1001
GENIUS_GENODEF_13
1002
{
1000
HIER
1070
     0
1002
}
1002
{
1000
MANEDIT
1070
     0
1002
}
1002
{
1000
NOSEL
1070
     0
1002
}
1002
{
1000
BEHIND
1070
     0
1002
}
1002
{
1000
REACTOR
1002
}
1001
GENIUS_GENOBJ-N-FIL_13
1002
{
1000
OWNER
1000
GEN
1002
}
  0
LINE
  5
B89
  8
0
 10
213.77560884802949
 20
82.942101142015986
 30
0.0
 11
219.1753527329632
 21
82.942101142015986
 31
0.0
  0
LINE
  5
B8A
  8
0
 10
313.40047440080667
 20
74.742101143183788
 30
0.0
 11
313.40047440080667
 21
154.74210114271349
 31
0.0
  0
LINE
  5
B8B
  8
0
 10
263.40047440080741
 20
154.74210114271349
 30
0.0
 11
263.40047440080741
 21
74.742101143183788
 31
0.0
  0
LINE
  5
B8C
  8
0
 10
263.40047440080741
 20
74.742101143183788
 30
0.0
 11
313.40047440080667
 21
74.742101143183788
 31
0.0
  0
LINE
  5
B8D
  8
1
 10
258.40047440080741
 20
94.742101143148844
 30
0.0
 11
318.40047440080667
 21
94.742101143148815
 31
0.0
  0
LINE
  5
B8E
  8
1
 10
258.40047440080741
 20
134.7421011427146
 30
0.0
 11
318.40047440080667
 21
134.7421011427146
 31
0.0
  0
LINE
  5
B8F
  8
0
 10
313.40047440080667
 20
154.74210114271349
 30
0.0
 11
263.40047440080741
 21
154.74210114271349
 31
0.0
  0
LINE
  5
B90
  8
0
 10
263.40047440080559
 20
114.7421011431838
 30
0.0
 11
313.40047440080667
 21
114.74210114318279
 31
0.0
  0
LINE
  5
B91
  8
0
 10
263.40047440080667
 20
90.742101141274702
 30
0.0
 11
313.40047440080667
 21
90.742101141274702
 31
0.0
  0
LINE
  5
B92
  8
0
 10
263.40047440080917
 20
98.742101142758543
 30
0.0
 11
313.40047440080559
 21
98.742101142758543
 31
0.0
  0
LINE
  5
B93
  8
0
 10
263.40047440080741
 20
130.7421011412747
 30
0.0
 11
313.40047440080741
 21
130.7421011412747
 31
0.0
  0
LINE
  5
B94
  8
0
 10
263.40047440080667
 20
138.742101142759
 30
0.0
 11
313.40047440080741
 21
138.74210114275849
 31
0.0
  0
LINE
  5
B95
  8
1
 10
201.4756088469147
 20
250.41616494113561
 30
0.0
 11
201.4756088469147
 21
190.41616494113629
 31
0.0
  0
LINE
  5
B96
  8
0
 10
197.47560884822249
 20
245.41616494113561
 30
0.0
 11
197.47560884822249
 21
195.41616494113751
 31
0.0
  0
LINE
  5
B97
  8
0
 10
205.47560884970639
 20
245.41616494113629
 30
0.0
 11
205.47560884970639
 21
195.41616494113629
 31
0.0
  0
LINE
  5
B98
  8
0
 10
181.47560884779739
 20
245.41616494113751
 30
0.0
 11
181.4756088477983
 21
195.41616494113629
 31
0.0
  0
LINE
  5
B99
  8
0
 10
221.47560884779739
 20
245.41616494113569
 30
0.0
 11
221.47560884779739
 21
195.41616494113629
 31
0.0
  0
TEXT
  5
CC4
  8
0
 62
     3
 10
0.0
 20
0.0
 30
0.0
 40
10.0
  1
SPLW8080N
  7
STANDARD1
  0
ENDSEC
  0
EOF
