  0
SECTION
  2
HEADER
  9
$ACADVER
  1
AC1009
  9
$INSBASE
 10
0.0
 20
0.0
 30
0.0
  9
$EXTMIN
 10
0.0
 20
-1.4802182810368341
 30
0.0
  9
$EXTMAX
 10
66.44755314250753
 20
46.75830897354745
 30
0.0
  9
$LIMMIN
 10
0.0
 20
0.0
  9
$LIMMAX
 10
187.5
 20
135.0
  9
$ORTHOMODE
 70
     0
  9
$REGENMODE
 70
     1
  9
$FILLMODE
 70
     1
  9
$QTEXTMODE
 70
     0
  9
$MIRRTEXT
 70
     0
  9
$DRAGMODE
 70
     2
  9
$LTSCALE
 40
2.0
  9
$OSMODE
 70
    55
  9
$ATTMODE
 70
     1
  9
$TEXTSIZE
 40
0.2
  9
$TRACEWID
 40
0.05
  9
$TEXTSTYLE
  7
STANDARD
  9
$CLAYER
  8
0
  9
$CELTYPE
  6
BYLAYER
  9
$CECOLOR
 62
   256
  9
$DIMSCALE
 40
0.5
  9
$DIMASZ
 40
3.0
  9
$DIMEXO
 40
2.0
  9
$DIMDLI
 40
10.0
  9
$DIMRND
 40
0.0
  9
$DIMDLE
 40
0.0
  9
$DIMEXE
 40
2.0
  9
$DIMTP
 40
0.0
  9
$DIMTM
 40
0.0
  9
$DIMTXT
 40
3.0
  9
$DIMCEN
 40
0.09
  9
$DIMTSZ
 40
0.0
  9
$DIMTOL
 70
     0
  9
$DIMLIM
 70
     0
  9
$DIMTIH
 70
     0
  9
$DIMTOH
 70
     0
  9
$DIMSE1
 70
     0
  9
$DIMSE2
 70
     0
  9
$DIMTAD
 70
     1
  9
$DIMZIN
 70
     0
  9
$DIMBLK
  1

  9
$DIMASO
 70
     1
  9
$DIMSHO
 70
     0
  9
$DIMPOST
  1

  9
$DIMAPOST
  1

  9
$DIMALT
 70
     0
  9
$DIMALTD
 70
     2
  9
$DIMALTF
 40
25.399999999999999
  9
$DIMLFAC
 40
1.0
  9
$DIMTOFL
 70
     1
  9
$DIMTVP
 40
1.6000000000000001
  9
$DIMTIX
 70
     0
  9
$DIMSOXD
 70
     0
  9
$DIMSAH
 70
     0
  9
$DIMBLK1
  1

  9
$DIMBLK2
  1

  9
$DIMSTYLE
  2
STANDARD
  9
$DIMCLRD
 70
     0
  9
$DIMCLRE
 70
     0
  9
$DIMCLRT
 70
     0
  9
$DIMTFAC
 40
1.0
  9
$DIMGAP
 40
0.09
  9
$LUNITS
 70
     2
  9
$LUPREC
 70
     4
  9
$SKETCHINC
 40
0.1
  9
$FILLETRAD
 40
0.0
  9
$AUNITS
 70
     0
  9
$AUPREC
 70
     0
  9
$MENU
  1
E:\r13\win\SUPPORT\ACAD
  9
$ELEVATION
 40
0.0
  9
$PELEVATION
 40
0.0
  9
$THICKNESS
 40
0.0
  9
$LIMCHECK
 70
     0
  9
$BLIPMODE
 70
     0
  9
$CHAMFERA
 40
0.0
  9
$CHAMFERB
 40
0.0
  9
$SKPOLY
 70
     0
  9
$TDCREATE
 40
2449840.6186574069
  9
$TDUPDATE
 40
2456598.55070478
  9
$TDINDWG
 40
0.0155888889
  9
$TDUSRTIMER
 40
0.0155888889
  9
$USRTIMER
 70
     1
  9
$ANGBASE
 50
0.0
  9
$ANGDIR
 70
     0
  9
$PDMODE
 70
     0
  9
$PDSIZE
 40
0.0
  9
$PLINEWID
 40
0.0
  9
$COORDS
 70
     1
  9
$SPLFRAME
 70
     0
  9
$SPLINETYPE
 70
     6
  9
$SPLINESEGS
 70
     8
  9
$ATTDIA
 70
     0
  9
$ATTREQ
 70
     1
  9
$HANDLING
 70
     1
  9
$HANDSEED
  5
4CD
  9
$SURFTAB1
 70
     6
  9
$SURFTAB2
 70
     6
  9
$SURFTYPE
 70
     6
  9
$SURFU
 70
     6
  9
$SURFV
 70
     6
  9
$UCSNAME
  2

  9
$UCSORG
 10
0.0
 20
0.0
 30
0.0
  9
$UCSXDIR
 10
1.0
 20
0.0
 30
0.0
  9
$UCSYDIR
 10
0.0
 20
1.0
 30
0.0
  9
$PUCSNAME
  2

  9
$PUCSORG
 10
0.0
 20
0.0
 30
0.0
  9
$PUCSXDIR
 10
1.0
 20
0.0
 30
0.0
  9
$PUCSYDIR
 10
0.0
 20
1.0
 30
0.0
  9
$USERI1
 70
     0
  9
$USERI2
 70
     1
  9
$USERI3
 70
     1
  9
$USERI4
 70
     0
  9
$USERI5
 70
     0
  9
$USERR1
 40
0.0
  9
$USERR2
 40
0.0
  9
$USERR3
 40
0.0
  9
$USERR4
 40
0.0
  9
$USERR5
 40
0.0
  9
$WORLDVIEW
 70
     1
  9
$SHADEDGE
 70
     3
  9
$SHADEDIF
 70
    70
  9
$TILEMODE
 70
     1
  9
$MAXACTVP
 70
    16
  9
$PLIMCHECK
 70
     0
  9
$PEXTMIN
 10
1.0000000000000000E+020
 20
1.0000000000000000E+020
 30
1.0000000000000000E+020
  9
$PEXTMAX
 10
-1.0000000000000000E+020
 20
-1.0000000000000000E+020
 30
-1.0000000000000000E+020
  9
$PLIMMIN
 10
0.0
 20
0.0
  9
$PLIMMAX
 10
12.0
 20
9.0
  9
$UNITMODE
 70
     0
  9
$VISRETAIN
 70
     0
  9
$PLINEGEN
 70
     0
  9
$PSLTSCALE
 70
     0
  0
ENDSEC
  0
SECTION
  2
TABLES
  0
TABLE
  2
VPORT
 70
     1
  0
VPORT
  2
*ACTIVE
 70
     0
 10
0.0
 20
0.0
 11
1.0
 21
1.0
 12
93.74713919532617
 22
87.458386271734256
 13
0.0
 23
0.0
 14
5.0
 24
5.0
 15
5.0
 25
5.0
 16
0.0
 26
0.0
 36
1.0
 17
0.0
 27
0.0
 37
0.0
 40
179.46013949787169
 41
1.7807262569832401
 42
50.0
 43
0.0
 44
0.0
 50
0.0
 51
0.0
 71
     0
 72
   100
 73
     1
 74
     0
 75
     0
 76
     0
 77
     0
 78
     2
  0
ENDTAB
  0
TABLE
  2
LTYPE
 70
     4
  0
LTYPE
  2
CONTINUOUS
 70
     0
  3
Solid Line
 72
    65
 73
     0
 40
0.0
  0
LTYPE
  2
CENTER
 70
     0
  3
____ _ ____ _ ____ _ ____ _ ____ _ ____ _ ____
 72
    65
 73
     4
 40
2.0
 49
1.25
 49
-0.25
 49
0.25
 49
-0.25
  0
LTYPE
  2
HIDDEN
 70
     0
  3
_ _ _ _ _ _ _ _ _ _ _ _ _ _ _ _ _ _ _ _ _ _ _
 72
    65
 73
     2
 40
0.375
 49
0.25
 49
-0.125
  0
LTYPE
  2
PHANTOM2
 70
     0
  3
___ _ _ ___ _ _ ___ _ _ ___ _ _
 72
    65
 73
     6
 40
1.25
 49
0.625
 49
-0.125
 49
0.125
 49
-0.125
 49
0.125
 49
-0.125
  0
ENDTAB
  0
TABLE
  2
LAYER
 70
     5
  0
LAYER
  2
0
 70
     0
 62
     7
  6
CONTINUOUS
  0
LAYER
  2
1
 70
     0
 62
     1
  6
CENTER
  0
LAYER
  2
2
 70
     0
 62
     2
  6
HIDDEN
  0
LAYER
  2
3
 70
     0
 62
     3
  6
CONTINUOUS
  0
LAYER
  2
DEFPOINTS
 70
     0
 62
     7
  6
CONTINUOUS
  0
ENDTAB
  0
TABLE
  2
STYLE
 70
     2
  0
STYLE
  2
STANDARD
 70
     0
 40
0.0
 41
1.0
 50
0.0
 71
     0
 42
0.2
  3
TXT
  4
BIGFONT
  0
STYLE
  2
STANDARD1
 70
     0
 40
0.0
 41
1.0
 50
0.0
 71
     0
 42
3.0
  3
txt
  4

  0
ENDTAB
  0
TABLE
  2
VIEW
 70
     1
  0
VIEW
  2
ALL
 70
     0
 40
135.0
 10
110.49579799999999
 20
67.5
 41
0.0
 11
0.0
 21
0.0
 31
1.0
 12
0.0
 22
0.0
 32
0.0
 42
0.0
 43
0.0
 44
0.0
 50
0.0
 71
     0
  0
ENDTAB
  0
TABLE
  2
UCS
 70
     0
  0
ENDTAB
  0
TABLE
  2
APPID
 70
     3
  0
APPID
  2
ACAD
 70
     0
  0
APPID
  2
ACAD_MLEADERVER
 70
     0
  0
APPID
  2
ACAD_NAV_VCDISPLAY
 70
     0
  0
ENDTAB
  0
TABLE
  2
DIMSTYLE
 70
     1
  0
DIMSTYLE
  2
STANDARD
 70
     0
  3

  4

  5

  6

  7

 40
1.0
 41
0.18
 42
0.0625
 43
0.38
 44
0.18
 45
0.0
 46
0.0
 47
0.0
 48
0.0
140
0.18
141
0.09
142
0.0
143
25.399999999999999
144
1.0
145
0.0
146
1.0
147
0.09
 71
     0
 72
     0
 73
     1
 74
     1
 75
     0
 76
     0
 77
     0
 78
     0
170
     0
171
     2
172
     0
173
     0
174
     0
175
     0
176
     0
177
     0
178
     0
  0
ENDTAB
  0
ENDSEC
  0
SECTION
  2
BLOCKS
  0
BLOCK
  8
0
  2
$MODEL_SPACE
 70
     0
 10
0.0
 20
0.0
 30
0.0
  3
$MODEL_SPACE
  1

  0
ENDBLK
  5
2A7
  8
0
  0
BLOCK
 67
     1
  8
0
  2
$PAPER_SPACE
 70
     0
 10
0.0
 20
0.0
 30
0.0
  3
$PAPER_SPACE
  1

  0
ENDBLK
  5
2A5
 67
     1
  8
0
  0
ENDSEC
  0
SECTION
  2
ENTITIES
  0
LINE
  5
16D
  8
0
 10
12.889275142507559
 20
42.258308973547472
 30
0.0
 11
18.805355142507551
 21
42.258308973547472
 31
0.0
  0
LINE
  5
16E
  8
0
 10
12.889275142507559
 20
43.258308973547472
 30
0.0
 11
18.805355142507551
 21
43.258308973547472
 31
0.0
  0
CIRCLE
  5
16F
  8
0
 10
15.84731514250754
 20
42.758308973547457
 30
0.0
 40
3.0
  0
LINE
  5
170
  8
1
 10
11.84731514250754
 20
42.758308973547457
 30
0.0
 11
19.84731514250754
 21
42.758308973547457
 31
0.0
  0
LINE
  5
171
  8
1
 10
15.84731514250754
 20
46.75830897354745
 30
0.0
 11
15.84731514250754
 21
38.758308973547472
 31
0.0
  0
CIRCLE
  5
172
  8
3
 10
15.84731514250754
 20
42.758308973547457
 30
0.0
 40
2.458499999999999
  0
LINE
  5
173
  8
1
 10
31.227719142507539
 20
42.758308973547457
 30
0.0
 11
49.227719142507539
 21
42.758308973547457
 31
0.0
  0
LINE
  5
174
  8
0
 10
32.227719142507539
 20
40.758308973547472
 30
0.0
 11
33.227719142507539
 21
39.758308973547472
 31
0.0
  0
LINE
  5
175
  8
0
 10
33.227719142507539
 20
45.75830897354745
 30
0.0
 11
32.227719142507539
 21
44.758308973547457
 31
0.0
  0
LINE
  5
176
  8
0
 10
32.227719142507539
 20
42.258308973547472
 30
0.0
 11
33.727719142507553
 21
42.258308973547472
 31
0.0
  0
LINE
  5
177
  8
0
 10
32.227719142507539
 20
43.258308973547472
 30
0.0
 11
33.727719142507553
 21
43.258308973547472
 31
0.0
  0
LINE
  5
178
  8
3
 10
45.869219142507532
 20
40.299808973547471
 30
0.0
 11
32.686219142507547
 21
40.299808973547471
 31
0.0
  0
LINE
  5
179
  8
3
 10
45.869219142507561
 20
45.216808973547472
 30
0.0
 11
32.686219142507547
 21
45.216808973547451
 31
0.0
  0
LINE
  5
17A
  8
0
 10
32.227719142507539
 20
42.258308973547472
 30
0.0
 11
32.227719142507539
 21
40.758308973547472
 31
0.0
  0
LINE
  5
17B
  8
0
 10
32.227719142507539
 20
44.758308973547457
 30
0.0
 11
32.227719142507539
 21
43.258308973547472
 31
0.0
  0
LINE
  5
17C
  8
0
 10
45.327719142507561
 20
45.75830897354745
 30
0.0
 11
45.327719142507561
 21
39.758308973547472
 31
0.0
  0
LINE
  5
17D
  8
0
 10
46.227719142507539
 20
44.858308973547459
 30
0.0
 11
45.327719142507561
 21
45.75830897354745
 31
0.0
  0
LINE
  5
17E
  8
0
 10
33.227719142507539
 20
45.75830897354745
 30
0.0
 11
33.227719142507539
 21
43.258308973547472
 31
0.0
  0
LINE
  5
17F
  8
0
 10
45.327719142507561
 20
39.758308973547472
 30
0.0
 11
33.227719142507539
 21
39.758308973547472
 31
0.0
  0
LINE
  5
180
  8
0
 10
33.227719142507539
 20
42.258308973547472
 30
0.0
 11
33.227719142507539
 21
39.758308973547472
 31
0.0
  0
LINE
  5
185
  8
0
 10
46.227719142507539
 20
40.658308973547463
 30
0.0
 11
45.327719142507561
 21
39.758308973547472
 31
0.0
  0
LINE
  5
187
  8
0
 10
46.227719142507539
 20
44.858308973547459
 30
0.0
 11
46.227719142507539
 21
40.658308973547463
 31
0.0
  0
LINE
  5
18C
  8
0
 10
45.327719142507583
 20
45.75830897354745
 30
0.0
 11
33.227719142507539
 21
45.75830897354745
 31
0.0
  0
CIRCLE
  5
18D
  8
0
 10
62.44755314250753
 20
42.758308973547457
 30
0.0
 40
2.1000000000000001
  0
CIRCLE
  5
18F
  8
3
 10
62.44755314250753
 20
42.758308973547457
 30
0.0
 40
2.458499999999999
  0
CIRCLE
  5
190
  8
0
 10
62.44755314250753
 20
42.758308973547457
 30
0.0
 40
3.0
  0
LINE
  5
191
  8
1
 10
58.44755314250753
 20
42.758308973547457
 30
0.0
 11
66.44755314250753
 21
42.758308973547457
 31
0.0
  0
LINE
  5
192
  8
1
 10
62.44755314250753
 20
46.75830897354745
 30
0.0
 11
62.44755314250753
 21
38.758308973547472
 31
0.0
  0
ARC
  5
193
  8
0
 10
46.877719142507537
 20
42.758308973547457
 30
0.0
 40
1.3500000000000001
 50
270.0
 51
90.0
  0
LINE
  5
196
  8
0
 10
46.877719142507537
 20
44.108308973547473
 30
0.0
 11
46.227719142507539
 21
44.108308973547473
 31
0.0
  0
LINE
  5
197
  8
0
 10
46.877719142507537
 20
41.40830897354747
 30
0.0
 11
46.227719142507539
 21
41.40830897354747
 31
0.0
  0
ARC
  5
198
  8
2
 10
44.877719142507537
 20
42.758308973547457
 30
0.0
 40
1.3500000000000001
 50
270.0
 51
90.0
  0
CIRCLE
  5
19B
  8
0
 10
62.44755314250753
 20
42.758308973547457
 30
0.0
 40
1.350000000000001
  0
LINE
  5
1B4
  8
1
 10
31.227719142507539
 20
27.183892973547479
 30
0.0
 11
49.227719142507539
 21
27.183892973547479
 31
0.0
  0
LINE
  5
1B5
  8
0
 10
45.327719142507561
 20
24.183892973547479
 30
0.0
 11
33.227719142507539
 21
24.183892973547479
 31
0.0
  0
LINE
  5
1B6
  8
3
 10
45.869219142507532
 20
24.725392973547478
 30
0.0
 11
32.686219142507547
 21
24.725392973547478
 31
0.0
  0
LINE
  5
1B7
  8
3
 10
45.869219142507561
 20
29.64239297354748
 30
0.0
 11
32.686219142507547
 21
29.642392973547469
 31
0.0
  0
LINE
  5
1B8
  8
0
 10
45.327719142507583
 20
30.183892973547469
 30
0.0
 11
33.227719142507539
 21
30.183892973547469
 31
0.0
  0
LINE
  5
1B9
  8
0
 10
33.227719142507539
 20
30.183892973547469
 30
0.0
 11
33.227719142507539
 21
24.183892973547479
 31
0.0
  0
LINE
  5
1BA
  8
0
 10
32.227719142507539
 20
29.183892973547479
 30
0.0
 11
32.227719142507539
 21
25.183892973547479
 31
0.0
  0
LINE
  5
1BB
  8
0
 10
32.227719142507539
 20
25.183892973547479
 30
0.0
 11
33.227719142507539
 21
24.183892973547479
 31
0.0
  0
LINE
  5
1BC
  8
0
 10
33.227719142507539
 20
30.183892973547469
 30
0.0
 11
32.227719142507539
 21
29.183892973547461
 31
0.0
  0
LINE
  5
1BD
  8
0
 10
45.327719142507561
 20
30.183892973547469
 30
0.0
 11
45.327719142507561
 21
24.183892973547479
 31
0.0
  0
LINE
  5
1BE
  8
0
 10
46.227719142507539
 20
29.283892973547481
 30
0.0
 11
46.227719142507539
 21
25.083892973547471
 31
0.0
  0
ARC
  5
1BF
  8
2
 10
44.877719142507537
 20
27.183892973547479
 30
0.0
 40
1.3500000000000001
 50
270.0
 51
90.0
  0
ARC
  5
1C0
  8
0
 10
46.877719142507537
 20
27.183892973547479
 30
0.0
 40
1.3500000000000001
 50
270.0
 51
90.0
  0
LINE
  5
1C1
  8
0
 10
46.877719142507537
 20
25.833892973547471
 30
0.0
 11
46.227719142507539
 21
25.833892973547471
 31
0.0
  0
LINE
  5
1C2
  8
0
 10
46.227719142507539
 20
25.083892973547471
 30
0.0
 11
45.327719142507561
 21
24.183892973547479
 31
0.0
  0
LINE
  5
1C3
  8
0
 10
46.877719142507537
 20
28.533892973547491
 30
0.0
 11
46.227719142507539
 21
28.533892973547491
 31
0.0
  0
LINE
  5
1C4
  8
0
 10
46.227719142507539
 20
29.283892973547481
 30
0.0
 11
45.327719142507561
 21
30.183892973547469
 31
0.0
  0
LINE
  5
330
  8
0
 10
33.727719142507553
 20
43.258308973547472
 30
0.0
 11
33.727719142507539
 21
42.258308973547479
 31
0.0
  0
TEXT
  5
436
  8
0
 62
     3
 10
0.0
 20
0.0
 30
0.0
 40
5.0
  1
SPLH6
  7
STANDARD1
  0
ENDSEC
  0
EOF
