  0
SECTION
  2
HEADER
  9
$ACADVER
  1
AC1009
  9
$INSBASE
 10
0.0
 20
0.0
 30
0.0
  9
$EXTMIN
 10
0.0
 20
-2.960436562073669
 30
0.0
  9
$EXTMAX
 10
306.79592034579809
 20
253.3003597122306
 30
0.0
  9
$LIMMIN
 10
0.0
 20
0.0
  9
$LIMMAX
 10
375.0
 20
270.0
  9
$ORTHOMODE
 70
     1
  9
$REGENMODE
 70
     1
  9
$FILLMODE
 70
     1
  9
$QTEXTMODE
 70
     0
  9
$MIRRTEXT
 70
     0
  9
$DRAGMODE
 70
     2
  9
$LTSCALE
 40
10.0
  9
$OSMODE
 70
    55
  9
$ATTMODE
 70
     1
  9
$TEXTSIZE
 40
0.2
  9
$TRACEWID
 40
0.05
  9
$TEXTSTYLE
  7
STANDARD
  9
$CLAYER
  8
0
  9
$CELTYPE
  6
BYLAYER
  9
$CECOLOR
 62
   256
  9
$DIMSCALE
 40
1.0
  9
$DIMASZ
 40
3.0
  9
$DIMEXO
 40
2.0
  9
$DIMDLI
 40
0.38
  9
$DIMRND
 40
0.0
  9
$DIMDLE
 40
0.0
  9
$DIMEXE
 40
2.0
  9
$DIMTP
 40
0.0
  9
$DIMTM
 40
0.0
  9
$DIMTXT
 40
3.2000000000000002
  9
$DIMCEN
 40
0.0
  9
$DIMTSZ
 40
0.0
  9
$DIMTOL
 70
     0
  9
$DIMLIM
 70
     0
  9
$DIMTIH
 70
     0
  9
$DIMTOH
 70
     0
  9
$DIMSE1
 70
     0
  9
$DIMSE2
 70
     0
  9
$DIMTAD
 70
     1
  9
$DIMZIN
 70
     0
  9
$DIMBLK
  1

  9
$DIMASO
 70
     0
  9
$DIMSHO
 70
     0
  9
$DIMPOST
  1

  9
$DIMAPOST
  1

  9
$DIMALT
 70
     0
  9
$DIMALTD
 70
     2
  9
$DIMALTF
 40
25.399999999999999
  9
$DIMLFAC
 40
1.0
  9
$DIMTOFL
 70
     1
  9
$DIMTVP
 40
1.6000000000000001
  9
$DIMTIX
 70
     1
  9
$DIMSOXD
 70
     0
  9
$DIMSAH
 70
     0
  9
$DIMBLK1
  1

  9
$DIMBLK2
  1

  9
$DIMSTYLE
  2
STANDARD
  9
$DIMCLRD
 70
     0
  9
$DIMCLRE
 70
     0
  9
$DIMCLRT
 70
     0
  9
$DIMTFAC
 40
1.0
  9
$DIMGAP
 40
0.09
  9
$LUNITS
 70
     2
  9
$LUPREC
 70
     4
  9
$SKETCHINC
 40
0.1
  9
$FILLETRAD
 40
0.0
  9
$AUNITS
 70
     0
  9
$AUPREC
 70
     4
  9
$MENU
  1
E:\r13\win\SUPPORT\ACAD
  9
$ELEVATION
 40
0.0
  9
$PELEVATION
 40
0.0
  9
$THICKNESS
 40
0.0
  9
$LIMCHECK
 70
     0
  9
$BLIPMODE
 70
     0
  9
$CHAMFERA
 40
0.0
  9
$CHAMFERB
 40
0.0
  9
$SKPOLY
 70
     0
  9
$TDCREATE
 40
2449840.648356481
  9
$TDUPDATE
 40
2456598.5500739119
  9
$TDINDWG
 40
0.0001007292
  9
$TDUSRTIMER
 40
0.0001007292
  9
$USRTIMER
 70
     1
  9
$ANGBASE
 50
0.0
  9
$ANGDIR
 70
     0
  9
$PDMODE
 70
     0
  9
$PDSIZE
 40
0.0
  9
$PLINEWID
 40
0.0
  9
$COORDS
 70
     1
  9
$SPLFRAME
 70
     0
  9
$SPLINETYPE
 70
     6
  9
$SPLINESEGS
 70
     8
  9
$ATTDIA
 70
     0
  9
$ATTREQ
 70
     1
  9
$HANDLING
 70
     1
  9
$HANDSEED
  5
2AA
  9
$SURFTAB1
 70
     6
  9
$SURFTAB2
 70
     6
  9
$SURFTYPE
 70
     6
  9
$SURFU
 70
     6
  9
$SURFV
 70
     6
  9
$UCSNAME
  2

  9
$UCSORG
 10
0.0
 20
0.0
 30
0.0
  9
$UCSXDIR
 10
1.0
 20
0.0
 30
0.0
  9
$UCSYDIR
 10
0.0
 20
1.0
 30
0.0
  9
$PUCSNAME
  2

  9
$PUCSORG
 10
0.0
 20
0.0
 30
0.0
  9
$PUCSXDIR
 10
1.0
 20
0.0
 30
0.0
  9
$PUCSYDIR
 10
0.0
 20
1.0
 30
0.0
  9
$USERI1
 70
     0
  9
$USERI2
 70
     1
  9
$USERI3
 70
     0
  9
$USERI4
 70
     0
  9
$USERI5
 70
     0
  9
$USERR1
 40
0.0
  9
$USERR2
 40
0.0
  9
$USERR3
 40
0.0
  9
$USERR4
 40
0.0
  9
$USERR5
 40
0.0
  9
$WORLDVIEW
 70
     1
  9
$SHADEDGE
 70
     3
  9
$SHADEDIF
 70
    70
  9
$TILEMODE
 70
     1
  9
$MAXACTVP
 70
    16
  9
$PLIMCHECK
 70
     0
  9
$PEXTMIN
 10
1.0000000000000000E+020
 20
1.0000000000000000E+020
 30
1.0000000000000000E+020
  9
$PEXTMAX
 10
-1.0000000000000000E+020
 20
-1.0000000000000000E+020
 30
-1.0000000000000000E+020
  9
$PLIMMIN
 10
0.0
 20
0.0
  9
$PLIMMAX
 10
12.0
 20
9.0
  9
$UNITMODE
 70
     0
  9
$VISRETAIN
 70
     0
  9
$PLINEGEN
 70
     0
  9
$PSLTSCALE
 70
     0
  0
ENDSEC
  0
SECTION
  2
TABLES
  0
TABLE
  2
VPORT
 70
     1
  0
VPORT
  2
*ACTIVE
 70
     0
 10
0.0
 20
0.0
 11
1.0
 21
1.0
 12
187.49427839065231
 22
174.91677254346851
 13
0.0
 23
0.0
 14
10.0
 24
10.0
 15
10.0
 25
10.0
 16
0.0
 26
0.0
 36
1.0
 17
0.0
 27
0.0
 37
0.0
 40
358.92027899574339
 41
1.7807262569832401
 42
50.0
 43
0.0
 44
0.0
 50
0.0
 51
0.0
 71
     0
 72
   500
 73
     1
 74
     0
 75
     0
 76
     0
 77
     0
 78
     2
  0
ENDTAB
  0
TABLE
  2
LTYPE
 70
     3
  0
LTYPE
  2
CONTINUOUS
 70
     0
  3
Solid Line
 72
    65
 73
     0
 40
0.0
  0
LTYPE
  2
CENTER
 70
     0
  3
____ _ ____ _ ____ _ ____ _ ____ _ ____ _ ____
 72
    65
 73
     4
 40
2.0
 49
1.25
 49
-0.25
 49
0.25
 49
-0.25
  0
LTYPE
  2
PHANTOM2
 70
     0
  3
___ _ _ ___ _ _ ___ _ _ ___ _ _
 72
    65
 73
     6
 40
1.25
 49
0.625
 49
-0.125
 49
0.125
 49
-0.125
 49
0.125
 49
-0.125
  0
ENDTAB
  0
TABLE
  2
LAYER
 70
     2
  0
LAYER
  2
0
 70
     0
 62
     7
  6
CONTINUOUS
  0
LAYER
  2
1
 70
     0
 62
     1
  6
CENTER
  0
ENDTAB
  0
TABLE
  2
STYLE
 70
     2
  0
STYLE
  2
STANDARD
 70
     0
 40
0.0
 41
1.0
 50
0.0
 71
     0
 42
0.2
  3
TXT
  4
BIGFONT
  0
STYLE
  2
STANDARD1
 70
     0
 40
0.0
 41
1.0
 50
0.0
 71
     0
 42
3.0
  3
txt
  4

  0
ENDTAB
  0
TABLE
  2
VIEW
 70
     1
  0
VIEW
  2
ALL
 70
     0
 40
270.0
 10
220.99159663865549
 20
135.0
 41
0.0
 11
0.0
 21
0.0
 31
1.0
 12
0.0
 22
0.0
 32
0.0
 42
0.0
 43
0.0
 44
0.0
 50
0.0
 71
     0
  0
ENDTAB
  0
TABLE
  2
UCS
 70
     0
  0
ENDTAB
  0
TABLE
  2
APPID
 70
     3
  0
APPID
  2
ACAD
 70
     0
  0
APPID
  2
ACAD_MLEADERVER
 70
     0
  0
APPID
  2
ACAD_NAV_VCDISPLAY
 70
     0
  0
ENDTAB
  0
TABLE
  2
DIMSTYLE
 70
     1
  0
DIMSTYLE
  2
STANDARD
 70
     0
  3

  4

  5

  6

  7

 40
1.0
 41
0.18
 42
0.0625
 43
0.38
 44
0.18
 45
0.0
 46
0.0
 47
0.0
 48
0.0
140
0.18
141
0.09
142
0.0
143
25.399999999999999
144
1.0
145
0.0
146
1.0
147
0.09
 71
     0
 72
     0
 73
     1
 74
     1
 75
     0
 76
     0
 77
     0
 78
     0
170
     0
171
     2
172
     0
173
     0
174
     0
175
     0
176
     0
177
     0
178
     0
  0
ENDTAB
  0
ENDSEC
  0
SECTION
  2
BLOCKS
  0
BLOCK
  8
0
  2
$MODEL_SPACE
 70
     0
 10
0.0
 20
0.0
 30
0.0
  3
$MODEL_SPACE
  1

  0
ENDBLK
  5
162
  8
0
  0
BLOCK
 67
     1
  8
0
  2
$PAPER_SPACE
 70
     0
 10
0.0
 20
0.0
 30
0.0
  3
$PAPER_SPACE
  1

  0
ENDBLK
  5
160
 67
     1
  8
0
  0
ENDSEC
  0
SECTION
  2
ENTITIES
  0
LINE
  5
3D
  8
1
 10
187.5
 20
114.9999999999999
 30
0.0
 11
87.5
 21
114.9999999999999
 31
0.0
  0
LINE
  5
3E
  8
1
 10
157.5
 20
139.99999999999989
 30
0.0
 11
157.5
 21
89.999999999999915
 31
0.0
  0
LINE
  5
3F
  8
1
 10
117.5
 20
139.99999999999989
 30
0.0
 11
117.5
 21
89.999999999999943
 31
0.0
  0
LINE
  5
40
  8
1
 10
137.5
 20
145.0
 30
0.0
 11
137.5
 21
84.999999999999957
 31
0.0
  0
LINE
  5
41
  8
0
 10
97.499999999999986
 20
243.3003597122302
 30
0.0
 11
97.499999999999943
 21
193.30035971223009
 31
0.0
  0
LINE
  5
42
  8
0
 10
177.49999999999989
 20
193.30035971223009
 30
0.0
 11
177.49999999999989
 21
243.30035971223009
 31
0.0
  0
LINE
  5
43
  8
0
 10
97.499999999999943
 20
193.30035971223009
 30
0.0
 11
177.49999999999989
 21
193.30035971223009
 31
0.0
  0
LINE
  5
44
  8
0
 10
177.49999999999989
 20
243.30035971223009
 30
0.0
 11
97.499999999999986
 21
243.3003597122302
 31
0.0
  0
LINE
  5
45
  8
1
 10
117.4999999999999
 20
188.30035971223009
 30
0.0
 11
117.5
 21
248.3003597122302
 31
0.0
  0
LINE
  5
46
  8
1
 10
157.49999999999989
 20
188.30035971223009
 30
0.0
 11
157.5
 21
248.30035971223089
 31
0.0
  0
LINE
  5
47
  8
0
 10
161.5000000000004
 20
193.3003597122302
 30
0.0
 11
161.5000000000004
 21
243.3003597122302
 31
0.0
  0
LINE
  5
48
  8
0
 10
153.4999999999994
 20
193.3003597122302
 30
0.0
 11
153.49999999999949
 21
243.3003597122302
 31
0.0
  0
LINE
  5
49
  8
0
 10
113.4999999999995
 20
193.3003597122302
 30
0.0
 11
113.4999999999995
 21
243.3003597122302
 31
0.0
  0
LINE
  5
4A
  8
0
 10
121.5000000000004
 20
193.3003597122302
 30
0.0
 11
121.5000000000004
 21
243.3003597122302
 31
0.0
  0
LINE
  5
4B
  8
1
 10
137.49999999999989
 20
183.30035971222981
 30
0.0
 11
137.5
 21
253.3003597122306
 31
0.0
  0
LINE
  5
4C
  8
1
 10
236.79592034579809
 20
114.9999999999999
 30
0.0
 11
306.79592034579809
 21
114.9999999999999
 31
0.0
  0
LINE
  5
4D
  8
0
 10
246.79592034579809
 20
94.999999999999943
 30
0.0
 11
296.79592034579809
 21
94.999999999999943
 31
0.0
  0
LINE
  5
4E
  8
0
 10
296.79592034579809
 20
94.999999999999943
 30
0.0
 11
296.79592034579809
 21
135.0
 31
0.0
  0
LINE
  5
4F
  8
0
 10
296.79592034579809
 20
135.0
 30
0.0
 11
246.79592034579809
 21
135.0
 31
0.0
  0
LINE
  5
50
  8
0
 10
246.79592034579809
 20
135.0
 30
0.0
 11
246.79592034579809
 21
94.999999999999943
 31
0.0
  0
LINE
  5
51
  8
0
 10
246.79592034579809
 20
119.0000000000002
 30
0.0
 11
296.79592034579809
 21
119.0000000000001
 31
0.0
  0
LINE
  5
52
  8
0
 10
246.79592034579809
 20
110.9999999999997
 30
0.0
 11
296.79592034579809
 21
110.9999999999997
 31
0.0
  0
ARC
  5
53
  8
0
 10
123.5
 20
127.435281374239
 30
0.0
 40
6.0
 50
314.9999999999992
 51
360.0
  0
LINE
  5
54
  8
0
 10
129.5
 20
127.435281374239
 30
0.0
 11
129.5
 21
131.2999999999999
 31
0.0
  0
LINE
  5
55
  8
0
 10
127.74264068711921
 20
123.19264068711971
 30
0.0
 11
125.4893398282201
 21
120.9393398282206
 31
0.0
  0
ARC
  5
56
  8
0
 10
123.5
 20
102.5647186257608
 30
0.0
 40
6.0
 50
360.0
 51
45.000000000000391
  0
LINE
  5
57
  8
0
 10
129.5
 20
102.5647186257608
 30
0.0
 11
129.5
 21
98.699999999999918
 31
0.0
  0
LINE
  5
58
  8
0
 10
127.74264068711921
 20
106.8073593128801
 30
0.0
 11
125.4893398282202
 21
109.0606601717792
 31
0.0
  0
LINE
  5
59
  8
0
 10
125.0499999999999
 20
110.12132034355901
 30
0.0
 11
125.0499999999999
 21
119.8786796564408
 31
0.0
  0
ARC
  5
5A
  8
0
 10
126.5499999999999
 20
110.12132034355901
 30
0.0
 40
1.5
 50
180.00000000000011
 51
225.0000000000004
  0
ARC
  5
5B
  8
0
 10
126.5499999999999
 20
119.8786796564408
 30
0.0
 40
1.5
 50
134.99999999999949
 51
180.0
  0
ARC
  5
5C
  8
0
 10
101.4999999999999
 20
98.999999999999929
 30
0.0
 40
4.0
 50
180.0
 51
270.0
  0
LINE
  5
5D
  8
0
 10
112.0
 20
94.999999999999915
 30
0.0
 11
101.4999999999999
 21
94.999999999999915
 31
0.0
  0
LINE
  5
5E
  8
0
 10
97.5
 20
109.4999999999999
 30
0.0
 11
97.5
 21
98.999999999999872
 31
0.0
  0
LINE
  5
5F
  8
0
 10
97.5
 20
120.4999999999998
 30
0.0
 11
97.5
 21
131.0
 31
0.0
  0
LINE
  5
60
  8
0
 10
112.0
 20
134.99999999999989
 30
0.0
 11
101.4999999999999
 21
134.99999999999989
 31
0.0
  0
ARC
  5
61
  8
0
 10
101.4999999999999
 20
130.99999999999989
 30
0.0
 40
4.0
 50
90.000000000000057
 51
180.0
  0
ARC
  5
62
  8
0
 10
131.5
 20
98.699999999999918
 30
0.0
 40
2.0
 50
180.0
 51
270.0
  0
ARC
  5
63
  8
0
 10
131.5
 20
131.2999999999999
 30
0.0
 40
2.0
 50
90.000000000000057
 51
180.0
  0
CIRCLE
  5
64
  8
0
 10
117.5
 20
114.9999999999999
 30
0.0
 40
3.399999999999999
  0
LINE
  5
65
  8
0
 10
99.299999999999969
 20
130.99999999999989
 30
0.0
 11
99.299999999999983
 21
126.8
 31
0.0
  0
LINE
  5
66
  8
0
 10
99.299999999999983
 20
126.8
 30
0.0
 11
105.7
 21
126.8
 31
0.0
  0
LINE
  5
67
  8
0
 10
105.7
 20
126.8
 30
0.0
 11
105.7
 21
133.1999999999999
 31
0.0
  0
LINE
  5
68
  8
0
 10
105.7
 20
133.1999999999999
 30
0.0
 11
101.4999999999999
 21
133.1999999999999
 31
0.0
  0
LINE
  5
69
  8
0
 10
108.9842725426542
 20
104.3721239500393
 30
0.0
 11
110.63572811198701
 21
106.0052300130462
 31
0.0
  0
LINE
  5
6A
  8
0
 10
126.0157274573458
 20
104.4677806255135
 30
0.0
 11
124.4610033575937
 21
106.0052300130462
 31
0.0
  0
ARC
  5
6B
  8
0
 10
125.0
 20
99.499999999999901
 30
0.0
 40
2.5
 50
270.0
 51
360.0
  0
LINE
  5
6C
  8
0
 10
124.5
 20
96.999999999999901
 30
0.0
 11
125.0
 21
96.999999999999901
 31
0.0
  0
LINE
  5
6D
  8
0
 10
121.4999999999999
 20
96.499999999999872
 30
0.0
 11
121.5
 21
98.499999999999901
 31
0.0
  0
LINE
  5
6E
  8
0
 10
122.5
 20
99.499999999999901
 30
0.0
 11
124.0
 21
99.499999999999886
 31
0.0
  0
LINE
  5
6F
  8
0
 10
124.5
 20
98.999999999999872
 30
0.0
 11
124.5
 21
96.999999999999901
 31
0.0
  0
LINE
  5
70
  8
0
 10
121.5
 20
96.499999999999915
 30
0.0
 11
121.5
 21
96.498600013333231
 31
0.0
  0
LINE
  5
71
  8
0
 10
127.5
 20
99.499999999999901
 30
0.0
 11
127.4999999999999
 21
100.9125506124673
 31
0.0
  0
ARC
  5
72
  8
0
 10
122.9999999999999
 20
96.499999999999872
 30
0.0
 40
1.5
 50
180.0
 51
270.0
  0
ARC
  5
73
  8
0
 10
122.5
 20
98.499999999999901
 30
0.0
 40
1.0
 50
90.000000000000057
 51
179.9999999999998
  0
ARC
  5
74
  8
0
 10
124.0
 20
98.999999999999872
 30
0.0
 40
0.5
 50
360.0
 51
90.000000000000057
  0
ARC
  5
75
  8
0
 10
122.4999999999999
 20
100.9125506124673
 30
0.0
 40
5.0
 50
360.0
 51
45.320084823779837
  0
ARC
  5
76
  8
0
 10
120.94527590024779
 20
102.45
 30
0.0
 40
5.0
 50
45.320084823779943
 51
90.000000000000057
  0
ARC
  5
77
  8
0
 10
111.0
 20
98.999999999999872
 30
0.0
 40
0.5
 50
90.000000000000057
 51
180.0
  0
ARC
  5
78
  8
0
 10
112.5
 20
98.499999999999872
 30
0.0
 40
1.0
 50
0.0000000000002913
 51
90.000000000000057
  0
ARC
  5
79
  8
0
 10
112.0
 20
96.499999999999872
 30
0.0
 40
1.5
 50
270.0
 51
360.0
  0
LINE
  5
7A
  8
0
 10
107.5
 20
99.499999999999886
 30
0.0
 11
107.5
 21
100.816893936993
 31
0.0
  0
LINE
  5
7B
  8
0
 10
113.5
 20
96.499999999999872
 30
0.0
 11
113.5
 21
96.498600013333188
 31
0.0
  0
LINE
  5
7C
  8
0
 10
110.5
 20
98.999999999999872
 30
0.0
 11
110.5
 21
96.999999999999886
 31
0.0
  0
LINE
  5
7D
  8
0
 10
112.5
 20
99.499999999999886
 30
0.0
 11
111.0
 21
99.499999999999886
 31
0.0
  0
LINE
  5
7E
  8
0
 10
113.5
 20
96.499999999999872
 30
0.0
 11
113.5
 21
98.499999999999872
 31
0.0
  0
LINE
  5
7F
  8
0
 10
110.5
 20
96.999999999999886
 30
0.0
 11
110.0
 21
96.999999999999886
 31
0.0
  0
ARC
  5
80
  8
0
 10
110.0
 20
99.499999999999886
 30
0.0
 40
2.5
 50
180.0
 51
270.0
  0
LINE
  5
81
  8
0
 10
114.1514555693328
 20
107.45
 30
0.0
 11
120.94527590024779
 21
107.45
 31
0.0
  0
LINE
  5
82
  8
0
 10
106.8721239500392
 20
123.5157274573458
 30
0.0
 11
108.5052300130462
 21
121.86427188801299
 31
0.0
  0
LINE
  5
83
  8
0
 10
106.8721239500392
 20
106.4842725426541
 30
0.0
 11
108.5052300130461
 21
108.13572811198679
 31
0.0
  0
ARC
  5
84
  8
0
 10
101.9999999999999
 20
107.4999999999999
 30
0.0
 40
2.5
 50
180.0
 51
270.0
  0
LINE
  5
85
  8
0
 10
99.499999999999943
 20
107.9999999999999
 30
0.0
 11
99.499999999999943
 21
107.4999999999999
 31
0.0
  0
LINE
  5
86
  8
0
 10
98.999999999999943
 20
110.9999999999999
 30
0.0
 11
100.9999999999999
 21
110.9999999999999
 31
0.0
  0
LINE
  5
87
  8
0
 10
101.9999999999999
 20
109.9999999999999
 30
0.0
 11
101.9999999999999
 21
108.4999999999999
 31
0.0
  0
LINE
  5
88
  8
0
 10
101.4999999999999
 20
107.9999999999999
 30
0.0
 11
99.499999999999943
 21
107.9999999999999
 31
0.0
  0
LINE
  5
89
  8
0
 10
98.999999999999943
 20
110.9999999999999
 30
0.0
 11
98.99860001333326
 21
110.9999999999999
 31
0.0
  0
LINE
  5
8A
  8
0
 10
101.9999999999999
 20
104.9999999999999
 30
0.0
 11
103.3168939369931
 21
104.9999999999999
 31
0.0
  0
ARC
  5
8B
  8
0
 10
98.999999999999943
 20
109.4999999999999
 30
0.0
 40
1.5
 50
90.000000000000057
 51
180.0
  0
ARC
  5
8C
  8
0
 10
100.9999999999999
 20
109.9999999999999
 30
0.0
 40
1.0
 50
360.0
 51
89.99999999999973
  0
ARC
  5
8D
  8
0
 10
101.4999999999999
 20
108.4999999999999
 30
0.0
 40
0.5
 50
270.0
 51
360.0
  0
ARC
  5
8E
  8
0
 10
101.4999999999999
 20
121.4999999999999
 30
0.0
 40
0.5
 50
0.0000000000000877
 51
90.000000000000057
  0
ARC
  5
8F
  8
0
 10
100.9999999999999
 20
119.9999999999999
 30
0.0
 40
1.0
 50
270.00000000000028
 51
360.0
  0
ARC
  5
90
  8
0
 10
98.999999999999943
 20
120.4999999999998
 30
0.0
 40
1.5
 50
180.0
 51
270.0
  0
LINE
  5
91
  8
0
 10
101.9999999999999
 20
124.9999999999999
 30
0.0
 11
103.3168939369932
 21
124.9999999999998
 31
0.0
  0
LINE
  5
92
  8
0
 10
98.999999999999943
 20
118.9999999999999
 30
0.0
 11
98.99860001333326
 21
118.9999999999999
 31
0.0
  0
LINE
  5
93
  8
0
 10
101.4999999999999
 20
121.9999999999999
 30
0.0
 11
99.499999999999943
 21
121.9999999999999
 31
0.0
  0
LINE
  5
94
  8
0
 10
101.9999999999999
 20
119.9999999999999
 30
0.0
 11
101.9999999999999
 21
121.4999999999999
 31
0.0
  0
LINE
  5
95
  8
0
 10
98.999999999999943
 20
118.9999999999999
 30
0.0
 11
100.9999999999999
 21
118.9999999999999
 31
0.0
  0
LINE
  5
96
  8
0
 10
99.499999999999943
 20
121.9999999999999
 30
0.0
 11
99.499999999999943
 21
122.4999999999999
 31
0.0
  0
ARC
  5
97
  8
0
 10
101.9999999999999
 20
122.4999999999999
 30
0.0
 40
2.5
 50
90.000000000000057
 51
180.0
  0
LINE
  5
98
  8
0
 10
109.95
 20
118.3485444306672
 30
0.0
 11
109.95
 21
111.6514555693327
 31
0.0
  0
LINE
  5
99
  8
0
 10
126.0157274573458
 20
125.5322193744863
 30
0.0
 11
124.4610033575937
 21
123.9947699869537
 31
0.0
  0
LINE
  5
9A
  8
0
 10
108.9842725426541
 20
125.6278760499607
 30
0.0
 11
110.63572811198711
 21
123.9947699869536
 31
0.0
  0
ARC
  5
9B
  8
0
 10
109.9999999999999
 20
130.49999999999989
 30
0.0
 40
2.5
 50
90.000000000000057
 51
180.0
  0
LINE
  5
9C
  8
0
 10
110.4999999999999
 20
133.0
 30
0.0
 11
109.9999999999999
 21
133.0
 31
0.0
  0
LINE
  5
9D
  8
0
 10
113.5
 20
133.5
 30
0.0
 11
113.4999999999999
 21
131.49999999999989
 31
0.0
  0
LINE
  5
9E
  8
0
 10
112.4999999999999
 20
130.49999999999989
 30
0.0
 11
110.9999999999999
 21
130.5
 31
0.0
  0
LINE
  5
9F
  8
0
 10
110.4999999999999
 20
131.0
 30
0.0
 11
110.4999999999999
 21
133.0
 31
0.0
  0
LINE
  5
A0
  8
0
 10
113.4999999999999
 20
133.49999999999989
 30
0.0
 11
113.4999999999999
 21
133.5013999866666
 31
0.0
  0
LINE
  5
A1
  8
0
 10
107.4999999999999
 20
130.49999999999989
 30
0.0
 11
107.4999999999999
 21
129.1831060630067
 31
0.0
  0
ARC
  5
A2
  8
0
 10
112.0
 20
133.5
 30
0.0
 40
1.5
 50
360.0
 51
90.000000000000057
  0
ARC
  5
A3
  8
0
 10
112.4999999999999
 20
131.49999999999989
 30
0.0
 40
1.0
 50
270.0
 51
359.99999999999972
  0
ARC
  5
A4
  8
0
 10
110.9999999999999
 20
131.0
 30
0.0
 40
0.5
 50
180.0
 51
270.0
  0
ARC
  5
A5
  8
0
 10
120.94527590024779
 20
127.5499999999998
 30
0.0
 40
5.0
 50
270.00000000000011
 51
314.67991517622011
  0
ARC
  5
A6
  8
0
 10
122.4999999999999
 20
129.0874493875325
 30
0.0
 40
5.0
 50
314.67991517622022
 51
360.0
  0
ARC
  5
A7
  8
0
 10
123.9999999999999
 20
131.0
 30
0.0
 40
0.5
 50
270.00000000000011
 51
360.0
  0
ARC
  5
A8
  8
0
 10
122.4999999999999
 20
131.5
 30
0.0
 40
1.0
 50
180.0000000000004
 51
270.0
  0
ARC
  5
A9
  8
0
 10
122.9999999999999
 20
133.5
 30
0.0
 40
1.5
 50
90.000000000000057
 51
180.0
  0
LINE
  5
AA
  8
0
 10
127.4999999999999
 20
130.5
 30
0.0
 11
127.4999999999999
 21
129.0874493875325
 31
0.0
  0
LINE
  5
AB
  8
0
 10
121.4999999999999
 20
133.5
 30
0.0
 11
121.4999999999999
 21
133.50139998666671
 31
0.0
  0
LINE
  5
AC
  8
0
 10
124.4999999999999
 20
131.0
 30
0.0
 11
124.4999999999999
 21
133.0
 31
0.0
  0
LINE
  5
AD
  8
0
 10
122.4999999999999
 20
130.5
 30
0.0
 11
123.9999999999999
 21
130.5
 31
0.0
  0
LINE
  5
AE
  8
0
 10
121.4999999999999
 20
133.5
 30
0.0
 11
121.4999999999999
 21
131.5
 31
0.0
  0
LINE
  5
AF
  8
0
 10
124.4999999999999
 20
133.0
 30
0.0
 11
124.9999999999999
 21
133.0
 31
0.0
  0
ARC
  5
B0
  8
0
 10
124.9999999999999
 20
130.5
 30
0.0
 40
2.5
 50
360.0
 51
90.000000000000057
  0
LINE
  5
B1
  8
0
 10
120.94527590024779
 20
122.5499999999998
 30
0.0
 11
114.1514555693329
 21
122.5499999999998
 31
0.0
  0
ARC
  5
B2
  8
0
 10
101.4999999999999
 20
98.999999999999872
 30
0.0
 40
2.2000000000000002
 50
180.0
 51
270.0
  0
LINE
  5
B3
  8
0
 10
99.299999999999926
 20
98.999999999999872
 30
0.0
 11
99.299999999999926
 21
103.1999999999998
 31
0.0
  0
LINE
  5
B4
  8
0
 10
99.299999999999926
 20
103.1999999999998
 30
0.0
 11
105.6999999999999
 21
103.1999999999998
 31
0.0
  0
LINE
  5
B5
  8
0
 10
105.6999999999999
 20
103.1999999999998
 30
0.0
 11
105.6999999999999
 21
96.799999999999883
 31
0.0
  0
LINE
  5
B6
  8
0
 10
105.6999999999999
 20
96.799999999999883
 30
0.0
 11
101.4999999999999
 21
96.799999999999883
 31
0.0
  0
ARC
  5
B7
  8
0
 10
112.5
 20
100.816893936993
 30
0.0
 40
5.0
 50
134.679915176219
 51
180.0
  0
ARC
  5
B8
  8
0
 10
114.1514555693328
 20
102.45
 30
0.0
 40
5.0
 50
90.000000000000085
 51
134.6799151762186
  0
ARC
  5
B9
  8
0
 10
103.316893936993
 20
109.9999999999999
 30
0.0
 40
5.0
 50
270.00000000000119
 51
315.32008482378001
  0
ARC
  5
BA
  8
0
 10
104.95
 20
111.6514555693327
 30
0.0
 40
5.0
 50
315.32008482377921
 51
360.0
  0
ARC
  5
BB
  8
0
 10
112.5
 20
129.1831060630069
 30
0.0
 40
5.0
 50
180.0000000000023
 51
225.32008482378041
  0
ARC
  5
BC
  8
0
 10
114.1514555693329
 20
127.5499999999998
 30
0.0
 40
5.0
 50
225.32008482378109
 51
270.0
  0
ARC
  5
BD
  8
0
 10
104.95
 20
118.3485444306672
 30
0.0
 40
5.0
 50
0.0000000000000368
 51
44.679915176220078
  0
ARC
  5
BE
  8
0
 10
103.3168939369931
 20
119.9999999999999
 30
0.0
 40
5.0
 50
44.679915176220788
 51
89.999999999998863
  0
ARC
  5
BF
  8
0
 10
101.4999999999999
 20
130.99999999999989
 30
0.0
 40
2.2000000000000002
 50
90.000000000000085
 51
180.0
  0
ARC
  5
C0
  8
0
 10
173.5
 20
130.99999999999989
 30
0.0
 40
2.2000000000000002
 50
360.0
 51
89.999999999999915
  0
ARC
  5
C1
  8
0
 10
171.68310606300679
 20
119.9999999999999
 30
0.0
 40
5.0
 50
90.000000000001108
 51
135.3200848237791
  0
ARC
  5
C2
  8
0
 10
170.0499999999999
 20
118.3485444306672
 30
0.0
 40
5.0
 50
135.32008482377981
 51
180.0
  0
ARC
  5
C3
  8
0
 10
160.848544430667
 20
127.5499999999998
 30
0.0
 40
5.0
 50
270.0
 51
314.67991517621891
  0
ARC
  5
C4
  8
0
 10
162.5
 20
129.1831060630069
 30
0.0
 40
5.0
 50
314.67991517621948
 51
359.99999999999761
  0
ARC
  5
C5
  8
0
 10
170.0499999999999
 20
111.6514555693327
 30
0.0
 40
5.0
 50
180.0
 51
224.6799151762209
  0
ARC
  5
C6
  8
0
 10
171.6831060630069
 20
109.9999999999999
 30
0.0
 40
5.0
 50
224.67991517621999
 51
269.99999999999881
  0
ARC
  5
C7
  8
0
 10
160.84854443066709
 20
102.45
 30
0.0
 40
5.0
 50
45.320084823781357
 51
89.999999999999915
  0
ARC
  5
C8
  8
0
 10
162.5
 20
100.816893936993
 30
0.0
 40
5.0
 50
360.0
 51
45.320084823780952
  0
LINE
  5
C9
  8
0
 10
169.3000000000001
 20
96.799999999999883
 30
0.0
 11
173.5
 21
96.799999999999869
 31
0.0
  0
LINE
  5
CA
  8
0
 10
169.3000000000001
 20
103.1999999999998
 30
0.0
 11
169.3000000000001
 21
96.799999999999883
 31
0.0
  0
LINE
  5
CB
  8
0
 10
175.7000000000001
 20
103.1999999999998
 30
0.0
 11
169.3000000000001
 21
103.1999999999998
 31
0.0
  0
LINE
  5
CC
  8
0
 10
175.7000000000001
 20
98.999999999999858
 30
0.0
 11
175.7000000000001
 21
103.1999999999998
 31
0.0
  0
ARC
  5
CD
  8
0
 10
173.5
 20
98.999999999999858
 30
0.0
 40
2.2000000000000002
 50
270.0
 51
360.0
  0
LINE
  5
CE
  8
0
 10
154.05472409975209
 20
122.5499999999998
 30
0.0
 11
160.848544430667
 21
122.5499999999998
 31
0.0
  0
ARC
  5
CF
  8
0
 10
150.0
 20
130.49999999999989
 30
0.0
 40
2.5
 50
89.999999999999986
 51
180.0
  0
LINE
  5
D0
  8
0
 10
150.5
 20
133.0
 30
0.0
 11
150.0
 21
133.0
 31
0.0
  0
LINE
  5
D1
  8
0
 10
153.5
 20
133.49999999999989
 30
0.0
 11
153.5
 21
131.49999999999989
 31
0.0
  0
LINE
  5
D2
  8
0
 10
152.5
 20
130.49999999999989
 30
0.0
 11
151.0
 21
130.49999999999989
 31
0.0
  0
LINE
  5
D3
  8
0
 10
150.5
 20
131.0
 30
0.0
 11
150.5
 21
133.0
 31
0.0
  0
LINE
  5
D4
  8
0
 10
153.5
 20
133.49999999999989
 30
0.0
 11
153.5
 21
133.5013999866666
 31
0.0
  0
LINE
  5
D5
  8
0
 10
147.5
 20
130.49999999999989
 30
0.0
 11
147.5
 21
129.08744938753239
 31
0.0
  0
ARC
  5
D6
  8
0
 10
152.0
 20
133.49999999999989
 30
0.0
 40
1.5
 50
360.0
 51
89.999999999999986
  0
ARC
  5
D7
  8
0
 10
152.5
 20
131.49999999999989
 30
0.0
 40
1.0
 50
270.0
 51
359.99999999999972
  0
ARC
  5
D8
  8
0
 10
151.0
 20
131.0
 30
0.0
 40
0.5
 50
180.0
 51
269.99999999999989
  0
ARC
  5
D9
  8
0
 10
152.5
 20
129.08744938753239
 30
0.0
 40
5.0
 50
180.0
 51
225.32008482377981
  0
ARC
  5
DA
  8
0
 10
154.05472409975209
 20
127.5499999999998
 30
0.0
 40
5.0
 50
225.32008482377989
 51
269.99999999999989
  0
ARC
  5
DB
  8
0
 10
164.0
 20
131.0
 30
0.0
 40
0.5
 50
270.00000000000011
 51
360.0
  0
ARC
  5
DC
  8
0
 10
162.5
 20
131.49999999999989
 30
0.0
 40
1.0
 50
180.00000000000031
 51
270.0
  0
ARC
  5
DD
  8
0
 10
163.0
 20
133.49999999999989
 30
0.0
 40
1.5
 50
89.999999999999986
 51
180.0
  0
LINE
  5
DE
  8
0
 10
167.5
 20
130.49999999999989
 30
0.0
 11
167.5
 21
129.1831060630067
 31
0.0
  0
LINE
  5
DF
  8
0
 10
161.5
 20
133.49999999999989
 30
0.0
 11
161.5
 21
133.5013999866666
 31
0.0
  0
LINE
  5
E0
  8
0
 10
164.5
 20
131.0
 30
0.0
 11
164.5
 21
132.99999999999989
 31
0.0
  0
LINE
  5
E1
  8
0
 10
162.5
 20
130.49999999999989
 30
0.0
 11
164.0
 21
130.49999999999989
 31
0.0
  0
LINE
  5
E2
  8
0
 10
161.5
 20
133.49999999999989
 30
0.0
 11
161.5
 21
131.49999999999989
 31
0.0
  0
LINE
  5
E3
  8
0
 10
164.5
 20
132.99999999999989
 30
0.0
 11
165.0
 21
132.99999999999989
 31
0.0
  0
ARC
  5
E4
  8
0
 10
165.0
 20
130.49999999999989
 30
0.0
 40
2.5
 50
360.0
 51
89.999999999999986
  0
LINE
  5
E5
  8
0
 10
166.01572745734589
 20
125.6278760499607
 30
0.0
 11
164.36427188801281
 21
123.9947699869536
 31
0.0
  0
LINE
  5
E6
  8
0
 10
148.9842725426542
 20
125.5322193744863
 30
0.0
 11
150.53899664240629
 21
123.9947699869537
 31
0.0
  0
LINE
  5
E7
  8
0
 10
165.0499999999999
 20
118.3485444306672
 30
0.0
 11
165.0499999999999
 21
111.6514555693327
 31
0.0
  0
ARC
  5
E8
  8
0
 10
173.0
 20
122.4999999999999
 30
0.0
 40
2.5
 50
360.0
 51
89.999999999999986
  0
LINE
  5
E9
  8
0
 10
175.5
 20
121.9999999999999
 30
0.0
 11
175.5
 21
122.4999999999999
 31
0.0
  0
LINE
  5
EA
  8
0
 10
176.0
 20
118.9999999999998
 30
0.0
 11
174.0
 21
118.9999999999999
 31
0.0
  0
LINE
  5
EB
  8
0
 10
173.0
 20
119.9999999999999
 30
0.0
 11
173.0
 21
121.4999999999999
 31
0.0
  0
LINE
  5
EC
  8
0
 10
173.5
 20
121.9999999999999
 30
0.0
 11
175.5
 21
121.9999999999999
 31
0.0
  0
LINE
  5
ED
  8
0
 10
176.0
 20
118.9999999999999
 30
0.0
 11
176.00139998666671
 21
118.9999999999999
 31
0.0
  0
LINE
  5
EE
  8
0
 10
173.0
 20
124.9999999999999
 30
0.0
 11
171.6831060630067
 21
124.9999999999998
 31
0.0
  0
ARC
  5
EF
  8
0
 10
176.0
 20
120.4999999999998
 30
0.0
 40
1.5
 50
270.0
 51
360.0
  0
ARC
  5
F0
  8
0
 10
174.0
 20
119.9999999999999
 30
0.0
 40
1.0
 50
180.0
 51
269.99999999999972
  0
ARC
  5
F1
  8
0
 10
173.5
 20
121.4999999999999
 30
0.0
 40
0.5
 50
89.999999999999986
 51
179.9999999999998
  0
ARC
  5
F2
  8
0
 10
173.5
 20
108.4999999999999
 30
0.0
 40
0.5
 50
180.0
 51
270.0
  0
ARC
  5
F3
  8
0
 10
174.0
 20
109.9999999999999
 30
0.0
 40
1.0
 50
90.000000000000298
 51
180.0
  0
ARC
  5
F4
  8
0
 10
176.0
 20
109.4999999999999
 30
0.0
 40
1.5
 50
360.0
 51
89.999999999999986
  0
LINE
  5
F5
  8
0
 10
173.0
 20
104.9999999999999
 30
0.0
 11
171.68310606300679
 21
104.9999999999999
 31
0.0
  0
LINE
  5
F6
  8
0
 10
176.0
 20
110.9999999999999
 30
0.0
 11
176.00139998666671
 21
110.9999999999999
 31
0.0
  0
LINE
  5
F7
  8
0
 10
173.5
 20
107.9999999999999
 30
0.0
 11
175.5
 21
107.9999999999999
 31
0.0
  0
LINE
  5
F8
  8
0
 10
173.0
 20
109.9999999999999
 30
0.0
 11
173.0
 21
108.4999999999999
 31
0.0
  0
LINE
  5
F9
  8
0
 10
176.0
 20
110.9999999999999
 30
0.0
 11
174.0
 21
110.9999999999999
 31
0.0
  0
LINE
  5
FA
  8
0
 10
175.5
 20
107.9999999999999
 30
0.0
 11
175.5
 21
107.4999999999999
 31
0.0
  0
ARC
  5
FB
  8
0
 10
173.0
 20
107.4999999999999
 30
0.0
 40
2.5
 50
270.0
 51
360.0
  0
LINE
  5
FC
  8
0
 10
168.1278760499608
 20
106.4842725426541
 30
0.0
 11
166.4947699869538
 21
108.13572811198679
 31
0.0
  0
LINE
  5
FD
  8
0
 10
168.12787604996069
 20
123.5157274573458
 30
0.0
 11
166.4947699869538
 21
121.86427188801299
 31
0.0
  0
LINE
  5
FE
  8
0
 10
160.84854443066709
 20
107.45
 30
0.0
 11
154.05472409975209
 21
107.45
 31
0.0
  0
ARC
  5
FF
  8
0
 10
165.0
 20
99.499999999999886
 30
0.0
 40
2.5
 50
270.0
 51
360.0
  0
LINE
  5
100
  8
0
 10
164.5
 20
96.999999999999886
 30
0.0
 11
165.0
 21
96.999999999999886
 31
0.0
  0
LINE
  5
101
  8
0
 10
161.5
 20
96.499999999999872
 30
0.0
 11
161.5
 21
98.499999999999872
 31
0.0
  0
LINE
  5
102
  8
0
 10
162.5
 20
99.499999999999886
 30
0.0
 11
164.0
 21
99.499999999999886
 31
0.0
  0
LINE
  5
103
  8
0
 10
164.5
 20
98.999999999999872
 30
0.0
 11
164.5
 21
96.999999999999886
 31
0.0
  0
LINE
  5
104
  8
0
 10
161.5
 20
96.499999999999872
 30
0.0
 11
161.5
 21
96.498600013333188
 31
0.0
  0
LINE
  5
105
  8
0
 10
167.5
 20
99.499999999999886
 30
0.0
 11
167.5
 21
100.816893936993
 31
0.0
  0
ARC
  5
106
  8
0
 10
163.0
 20
96.499999999999872
 30
0.0
 40
1.5
 50
180.0
 51
270.0
  0
ARC
  5
107
  8
0
 10
162.5
 20
98.499999999999872
 30
0.0
 40
1.0
 50
89.999999999999986
 51
179.9999999999996
  0
ARC
  5
108
  8
0
 10
164.0
 20
98.999999999999872
 30
0.0
 40
0.5
 50
360.0
 51
89.999999999999986
  0
ARC
  5
109
  8
0
 10
154.05472409975209
 20
102.45
 30
0.0
 40
5.0
 50
89.999999999999986
 51
134.67991517622011
  0
ARC
  5
10A
  8
0
 10
152.5
 20
100.9125506124673
 30
0.0
 40
5.0
 50
134.67991517622011
 51
180.0
  0
ARC
  5
10B
  8
0
 10
151.0
 20
98.999999999999872
 30
0.0
 40
0.5
 50
89.999999999999986
 51
180.0
  0
ARC
  5
10C
  8
0
 10
152.5
 20
98.499999999999901
 30
0.0
 40
1.0
 50
0.0000000000002913
 51
89.999999999999986
  0
ARC
  5
10D
  8
0
 10
152.0
 20
96.499999999999872
 30
0.0
 40
1.5
 50
270.0
 51
360.0
  0
LINE
  5
10E
  8
0
 10
147.5
 20
99.499999999999901
 30
0.0
 11
147.5
 21
100.9125506124673
 31
0.0
  0
LINE
  5
10F
  8
0
 10
153.5
 20
96.499999999999915
 30
0.0
 11
153.5
 21
96.498600013333231
 31
0.0
  0
LINE
  5
110
  8
0
 10
150.5
 20
98.999999999999872
 30
0.0
 11
150.5
 21
96.999999999999901
 31
0.0
  0
LINE
  5
111
  8
0
 10
152.5
 20
99.499999999999901
 30
0.0
 11
151.0
 21
99.499999999999886
 31
0.0
  0
LINE
  5
112
  8
0
 10
153.5
 20
96.499999999999872
 30
0.0
 11
153.5
 21
98.499999999999901
 31
0.0
  0
LINE
  5
113
  8
0
 10
150.5
 20
96.999999999999901
 30
0.0
 11
150.0
 21
96.999999999999901
 31
0.0
  0
ARC
  5
114
  8
0
 10
150.0
 20
99.499999999999901
 30
0.0
 40
2.5
 50
180.0
 51
270.0
  0
LINE
  5
115
  8
0
 10
148.9842725426542
 20
104.4677806255135
 30
0.0
 11
150.53899664240629
 21
106.0052300130462
 31
0.0
  0
LINE
  5
116
  8
0
 10
166.0157274573458
 20
104.3721239500393
 30
0.0
 11
164.36427188801289
 21
106.0052300130462
 31
0.0
  0
LINE
  5
117
  8
0
 10
169.30000000000001
 20
133.1999999999999
 30
0.0
 11
173.5
 21
133.1999999999999
 31
0.0
  0
LINE
  5
118
  8
0
 10
169.30000000000001
 20
126.8
 30
0.0
 11
169.30000000000001
 21
133.1999999999999
 31
0.0
  0
LINE
  5
119
  8
0
 10
175.69999999999999
 20
126.8
 30
0.0
 11
169.30000000000001
 21
126.8
 31
0.0
  0
LINE
  5
11A
  8
0
 10
175.69999999999999
 20
130.99999999999989
 30
0.0
 11
175.69999999999999
 21
126.8
 31
0.0
  0
CIRCLE
  5
11B
  8
0
 10
157.5
 20
114.9999999999999
 30
0.0
 40
3.399999999999999
  0
ARC
  5
11C
  8
0
 10
143.5
 20
131.2999999999999
 30
0.0
 40
2.0
 50
360.0
 51
89.999999999999986
  0
ARC
  5
11D
  8
0
 10
143.5
 20
98.699999999999918
 30
0.0
 40
2.0
 50
270.0
 51
360.0
  0
ARC
  5
11E
  8
0
 10
173.5
 20
130.99999999999989
 30
0.0
 40
4.0
 50
360.0
 51
89.999999999999986
  0
LINE
  5
11F
  8
0
 10
163.0
 20
134.99999999999989
 30
0.0
 11
173.5
 21
134.99999999999989
 31
0.0
  0
LINE
  5
120
  8
0
 10
177.5
 20
120.4999999999998
 30
0.0
 11
177.5
 21
131.0
 31
0.0
  0
LINE
  5
121
  8
0
 10
177.5
 20
109.4999999999999
 30
0.0
 11
177.5
 21
98.999999999999858
 31
0.0
  0
LINE
  5
122
  8
0
 10
163.0
 20
94.999999999999915
 30
0.0
 11
173.5
 21
94.999999999999915
 31
0.0
  0
ARC
  5
123
  8
0
 10
173.5
 20
98.999999999999915
 30
0.0
 40
4.0
 50
270.0
 51
360.0
  0
ARC
  5
124
  8
0
 10
148.44999999999999
 20
119.8786796564408
 30
0.0
 40
1.5
 50
360.0
 51
45.000000000000448
  0
ARC
  5
125
  8
0
 10
148.44999999999999
 20
110.12132034355901
 30
0.0
 40
1.5
 50
314.99999999999949
 51
360.0
  0
LINE
  5
126
  8
0
 10
149.94999999999999
 20
110.12132034355901
 30
0.0
 11
149.94999999999999
 21
119.8786796564408
 31
0.0
  0
LINE
  5
127
  8
0
 10
147.25735931288071
 20
106.8073593128801
 30
0.0
 11
149.51066017177979
 21
109.0606601717792
 31
0.0
  0
LINE
  5
128
  8
0
 10
145.5
 20
102.5647186257608
 30
0.0
 11
145.5
 21
98.699999999999918
 31
0.0
  0
ARC
  5
129
  8
0
 10
151.5
 20
102.5647186257608
 30
0.0
 40
6.0
 50
134.9999999999996
 51
180.0
  0
LINE
  5
12A
  8
0
 10
147.25735931288079
 20
123.19264068711971
 30
0.0
 11
149.51066017177979
 21
120.9393398282206
 31
0.0
  0
LINE
  5
12B
  8
0
 10
145.5
 20
127.435281374239
 30
0.0
 11
145.5
 21
131.2999999999999
 31
0.0
  0
ARC
  5
12C
  8
0
 10
151.5
 20
127.435281374239
 30
0.0
 40
6.0
 50
180.0
 51
225.0000000000008
  0
LINE
  5
12D
  8
0
 10
152.0
 20
134.99999999999989
 30
0.0
 11
123.0
 21
134.99999999999989
 31
0.0
  0
LINE
  5
12E
  8
0
 10
123.0
 20
94.999999999999915
 30
0.0
 11
152.0
 21
94.999999999999872
 31
0.0
  0
LINE
  5
12F
  8
0
 10
131.5
 20
96.699999999999918
 30
0.0
 11
143.5
 21
96.699999999999918
 31
0.0
  0
LINE
  5
130
  8
0
 10
131.5
 20
133.2999999999999
 30
0.0
 11
143.5
 21
133.2999999999999
 31
0.0
  0
TEXT
  5
215
  8
0
 62
     3
 10
0.0
 20
0.0
 30
0.0
 40
10.0
  1
SPL8040B-3M
  7
STANDARD1
  0
ENDSEC
  0
EOF
