  0
SECTION
  2
HEADER
  9
$ACADVER
  1
AC1009
  9
$INSBASE
 10
0.0
 20
0.0
 30
0.0
  9
$EXTMIN
 10
0.0
 20
-2.960436562073669
 30
0.0
  9
$EXTMAX
 10
327.51173391373169
 20
260.7350869227285
 30
0.0
  9
$LIMMIN
 10
0.0
 20
0.0
  9
$LIMMAX
 10
375.0
 20
270.0
  9
$ORTHOMODE
 70
     1
  9
$REGENMODE
 70
     1
  9
$FILLMODE
 70
     1
  9
$QTEXTMODE
 70
     0
  9
$MIRRTEXT
 70
     0
  9
$DRAGMODE
 70
     2
  9
$LTSCALE
 40
10.0
  9
$OSMODE
 70
    55
  9
$ATTMODE
 70
     1
  9
$TEXTSIZE
 40
0.2
  9
$TRACEWID
 40
0.05
  9
$TEXTSTYLE
  7
STANDARD
  9
$CLAYER
  8
0
  9
$CELTYPE
  6
BYLAYER
  9
$CECOLOR
 62
   256
  9
$DIMSCALE
 40
1.0
  9
$DIMASZ
 40
3.0
  9
$DIMEXO
 40
2.0
  9
$DIMDLI
 40
10.0
  9
$DIMRND
 40
0.0
  9
$DIMDLE
 40
0.0
  9
$DIMEXE
 40
2.0
  9
$DIMTP
 40
0.0
  9
$DIMTM
 40
0.0
  9
$DIMTXT
 40
3.2000000000000002
  9
$DIMCEN
 40
0.0
  9
$DIMTSZ
 40
0.0
  9
$DIMTOL
 70
     0
  9
$DIMLIM
 70
     0
  9
$DIMTIH
 70
     0
  9
$DIMTOH
 70
     0
  9
$DIMSE1
 70
     0
  9
$DIMSE2
 70
     0
  9
$DIMTAD
 70
     1
  9
$DIMZIN
 70
     0
  9
$DIMBLK
  1

  9
$DIMASO
 70
     0
  9
$DIMSHO
 70
     0
  9
$DIMPOST
  1

  9
$DIMAPOST
  1

  9
$DIMALT
 70
     0
  9
$DIMALTD
 70
     2
  9
$DIMALTF
 40
25.399999999999999
  9
$DIMLFAC
 40
1.0
  9
$DIMTOFL
 70
     1
  9
$DIMTVP
 40
1.6000000000000001
  9
$DIMTIX
 70
     1
  9
$DIMSOXD
 70
     0
  9
$DIMSAH
 70
     0
  9
$DIMBLK1
  1

  9
$DIMBLK2
  1

  9
$DIMSTYLE
  2
STANDARD
  9
$DIMCLRD
 70
     0
  9
$DIMCLRE
 70
     0
  9
$DIMCLRT
 70
     0
  9
$DIMTFAC
 40
1.0
  9
$DIMGAP
 40
0.09
  9
$LUNITS
 70
     2
  9
$LUPREC
 70
     4
  9
$SKETCHINC
 40
0.1
  9
$FILLETRAD
 40
1.5
  9
$AUNITS
 70
     0
  9
$AUPREC
 70
     4
  9
$MENU
  1
E:\r13\win\SUPPORT\ACAD
  9
$ELEVATION
 40
0.0
  9
$PELEVATION
 40
0.0
  9
$THICKNESS
 40
0.0
  9
$LIMCHECK
 70
     0
  9
$BLIPMODE
 70
     0
  9
$CHAMFERA
 40
0.0
  9
$CHAMFERB
 40
0.0
  9
$SKPOLY
 70
     0
  9
$TDCREATE
 40
2449567.595920254
  9
$TDUPDATE
 40
2456598.5492220488
  9
$TDINDWG
 40
0.0006095255
  9
$TDUSRTIMER
 40
0.0006095255
  9
$USRTIMER
 70
     1
  9
$ANGBASE
 50
0.0
  9
$ANGDIR
 70
     0
  9
$PDMODE
 70
    35
  9
$PDSIZE
 40
0.0
  9
$PLINEWID
 40
0.0
  9
$COORDS
 70
     1
  9
$SPLFRAME
 70
     0
  9
$SPLINETYPE
 70
     6
  9
$SPLINESEGS
 70
     8
  9
$ATTDIA
 70
     0
  9
$ATTREQ
 70
     1
  9
$HANDLING
 70
     1
  9
$HANDSEED
  5
456
  9
$SURFTAB1
 70
     6
  9
$SURFTAB2
 70
     6
  9
$SURFTYPE
 70
     6
  9
$SURFU
 70
     6
  9
$SURFV
 70
     6
  9
$UCSNAME
  2

  9
$UCSORG
 10
0.0
 20
0.0
 30
0.0
  9
$UCSXDIR
 10
1.0
 20
0.0
 30
0.0
  9
$UCSYDIR
 10
0.0
 20
1.0
 30
0.0
  9
$PUCSNAME
  2

  9
$PUCSORG
 10
0.0
 20
0.0
 30
0.0
  9
$PUCSXDIR
 10
1.0
 20
0.0
 30
0.0
  9
$PUCSYDIR
 10
0.0
 20
1.0
 30
0.0
  9
$USERI1
 70
     0
  9
$USERI2
 70
     1
  9
$USERI3
 70
     0
  9
$USERI4
 70
     0
  9
$USERI5
 70
     0
  9
$USERR1
 40
0.0
  9
$USERR2
 40
0.0
  9
$USERR3
 40
0.0
  9
$USERR4
 40
0.0
  9
$USERR5
 40
0.0
  9
$WORLDVIEW
 70
     1
  9
$SHADEDGE
 70
     3
  9
$SHADEDIF
 70
    70
  9
$TILEMODE
 70
     1
  9
$MAXACTVP
 70
    16
  9
$PLIMCHECK
 70
     0
  9
$PEXTMIN
 10
1.0000000000000000E+020
 20
1.0000000000000000E+020
 30
1.0000000000000000E+020
  9
$PEXTMAX
 10
-1.0000000000000000E+020
 20
-1.0000000000000000E+020
 30
-1.0000000000000000E+020
  9
$PLIMMIN
 10
0.0
 20
0.0
  9
$PLIMMAX
 10
12.0
 20
9.0
  9
$UNITMODE
 70
     0
  9
$VISRETAIN
 70
     0
  9
$PLINEGEN
 70
     1
  9
$PSLTSCALE
 70
     0
  0
ENDSEC
  0
SECTION
  2
TABLES
  0
TABLE
  2
VPORT
 70
     1
  0
VPORT
  2
*ACTIVE
 70
     0
 10
0.0
 20
0.0
 11
1.0
 21
1.0
 12
187.49427839065231
 22
174.91677254346851
 13
0.0
 23
0.0
 14
10.0
 24
10.0
 15
10.0
 25
10.0
 16
0.0
 26
0.0
 36
1.0
 17
0.0
 27
0.0
 37
0.0
 40
358.92027899574339
 41
1.7807262569832401
 42
50.0
 43
0.0
 44
0.0
 50
0.0
 51
0.0
 71
     0
 72
   500
 73
     1
 74
     0
 75
     0
 76
     0
 77
     0
 78
     2
  0
ENDTAB
  0
TABLE
  2
LTYPE
 70
     3
  0
LTYPE
  2
CONTINUOUS
 70
     0
  3
Solid Line
 72
    65
 73
     0
 40
0.0
  0
LTYPE
  2
CENTER
 70
     0
  3
____ _ ____ _ ____ _ ____ _ ____ _ ____ _ ____
 72
    65
 73
     4
 40
2.0
 49
1.25
 49
-0.25
 49
0.25
 49
-0.25
  0
LTYPE
  2
PHANTOM2
 70
     0
  3
___ _ _ ___ _ _ ___ _ _ ___ _ _
 72
    65
 73
     6
 40
1.25
 49
0.625
 49
-0.125
 49
0.125
 49
-0.125
 49
0.125
 49
-0.125
  0
ENDTAB
  0
TABLE
  2
LAYER
 70
     1
  0
LAYER
  2
0
 70
     0
 62
     7
  6
CONTINUOUS
  0
ENDTAB
  0
TABLE
  2
STYLE
 70
     2
  0
STYLE
  2
STANDARD
 70
     0
 40
0.0
 41
1.0
 50
0.0
 71
     0
 42
0.2
  3
ROMANS
  4
BIGFONT
  0
STYLE
  2
STANDARD1
 70
     0
 40
0.0
 41
1.0
 50
0.0
 71
     0
 42
3.0
  3
txt
  4

  0
ENDTAB
  0
TABLE
  2
VIEW
 70
     1
  0
VIEW
  2
ALL
 70
     0
 40
175.0
 10
143.23529411764699
 20
87.5
 41
0.0
 11
0.0
 21
0.0
 31
1.0
 12
0.0
 22
0.0
 32
0.0
 42
0.0
 43
0.0
 44
0.0
 50
0.0
 71
     0
  0
ENDTAB
  0
TABLE
  2
UCS
 70
     0
  0
ENDTAB
  0
TABLE
  2
APPID
 70
     3
  0
APPID
  2
ACAD
 70
     0
  0
APPID
  2
ACAD_MLEADERVER
 70
     0
  0
APPID
  2
ACAD_NAV_VCDISPLAY
 70
     0
  0
ENDTAB
  0
TABLE
  2
DIMSTYLE
 70
     1
  0
DIMSTYLE
  2
STANDARD
 70
     0
  3

  4

  5

  6

  7

 40
1.0
 41
0.18
 42
0.0625
 43
0.38
 44
0.18
 45
0.0
 46
0.0
 47
0.0
 48
0.0
140
0.18
141
0.09
142
0.0
143
25.399999999999999
144
1.0
145
0.0
146
1.0
147
0.09
 71
     0
 72
     0
 73
     1
 74
     1
 75
     0
 76
     0
 77
     0
 78
     0
170
     0
171
     2
172
     0
173
     0
174
     0
175
     0
176
     0
177
     0
178
     0
  0
ENDTAB
  0
ENDSEC
  0
SECTION
  2
BLOCKS
  0
BLOCK
  8
0
  2
$MODEL_SPACE
 70
     0
 10
0.0
 20
0.0
 30
0.0
  3
$MODEL_SPACE
  1

  0
ENDBLK
  5
310
  8
0
  0
BLOCK
 67
     1
  8
0
  2
$PAPER_SPACE
 70
     0
 10
0.0
 20
0.0
 30
0.0
  3
$PAPER_SPACE
  1

  0
ENDBLK
  5
30E
 67
     1
  8
0
  0
BLOCK
  8
0
  2
STDGX5
 70
     0
 10
0.0
 20
0.0
 30
0.0
  3
STDGX5
  1

  0
ENDBLK
  5
28
  8
0
  0
ENDSEC
  0
SECTION
  2
ENTITIES
  0
INSERT
  5
30
  8
0
  6
CONTINUOUS
 62
     7
  2
STDGX5
 10
0.0
 20
0.0
 30
0.0
  0
LINE
  5
32
  8
0
  6
CONTINUOUS
 62
     7
 10
247.35405882892789
 20
198.23308692272849
 30
0.0
 11
87.354058828927862
 21
198.2330869227286
 31
0.0
  0
LINE
  5
33
  8
0
  6
CONTINUOUS
 62
     7
 10
247.3540588289278
 20
258.23308692272849
 30
0.0
 11
87.354058828927876
 21
258.23308692272849
 31
0.0
  0
LINE
  5
34
  8
0
  6
CONTINUOUS
 62
     7
 10
103.3536648289278
 20
198.23308692272849
 30
0.0
 11
103.3536648289278
 21
258.23308692272849
 31
0.0
  0
LINE
  5
35
  8
0
  6
CONTINUOUS
 62
     7
 10
111.3536648289278
 20
198.23308692272849
 30
0.0
 11
111.3536648289278
 21
258.23308692272849
 31
0.0
  0
LINE
  5
36
  8
0
  6
CONTINUOUS
 62
     7
 10
151.35366482892789
 20
198.23308692272849
 30
0.0
 11
151.35366482892789
 21
258.23308692272849
 31
0.0
  0
LINE
  5
37
  8
0
  6
CONTINUOUS
 62
     7
 10
143.35366482892789
 20
198.23308692272849
 30
0.0
 11
143.35366482892789
 21
258.23308692272849
 31
0.0
  0
LINE
  5
38
  8
0
  6
CONTINUOUS
 62
     7
 10
191.35366482892789
 20
198.23308692272849
 30
0.0
 11
191.35366482892789
 21
258.23308692272849
 31
0.0
  0
LINE
  5
39
  8
0
  6
CONTINUOUS
 62
     7
 10
183.35366482892789
 20
198.23308692272849
 30
0.0
 11
183.35366482892789
 21
258.23308692272849
 31
0.0
  0
LINE
  5
3B
  8
0
  6
CONTINUOUS
 62
     7
 10
223.35366482892789
 20
198.23308692272849
 30
0.0
 11
223.35366482892789
 21
258.23308692272849
 31
0.0
  0
LINE
  5
3C
  8
0
  6
CONTINUOUS
 62
     7
 10
231.35366482892789
 20
198.23308692272849
 30
0.0
 11
231.35366482892789
 21
258.23308692272849
 31
0.0
  0
POLYLINE
  5
4E
  8
0
  6
CONTINUOUS
 62
     7
 66
     1
 10
0.0
 20
0.0
 30
0.0
  0
VERTEX
  5
4F
  8
0
  6
CONTINUOUS
 62
     7
 10
99.604058828927862
 20
118.28928192272851
 30
0.0
  0
VERTEX
  5
50
  8
0
  6
CONTINUOUS
 62
     7
 10
99.604058828927862
 20
118.28928192272851
 30
0.0
  0
SEQEND
  5
51
  8
0
  6
CONTINUOUS
 62
     7
  0
LINE
  5
52
  8
0
  6
CONTINUOUS
 62
     7
 10
99.604058828927862
 20
118.28928192272851
 30
0.0
 11
99.604058828927862
 21
118.28928192272851
 31
0.0
  0
CIRCLE
  5
53
  8
0
  6
CONTINUOUS
 62
     7
 10
107.3540588289278
 20
161.8468939227285
 30
0.0
 40
3.399999999999999
  0
CIRCLE
  5
54
  8
0
  6
CONTINUOUS
 62
     7
 10
107.3540588289278
 20
121.8468939227285
 30
0.0
 40
3.399999999999999
  0
CIRCLE
  5
55
  8
0
  6
CONTINUOUS
 62
     7
 10
147.35405882892789
 20
121.8468939227285
 30
0.0
 40
3.399999999999999
  0
CIRCLE
  5
56
  8
0
  6
CONTINUOUS
 62
     7
 10
147.35405882892789
 20
161.8468939227285
 30
0.0
 40
3.399999999999999
  0
CIRCLE
  5
57
  8
0
  6
CONTINUOUS
 62
     7
 10
187.35405882892789
 20
121.8468939227285
 30
0.0
 40
3.399999999999999
  0
CIRCLE
  5
58
  8
0
  6
CONTINUOUS
 62
     7
 10
187.35405882892789
 20
161.8468939227285
 30
0.0
 40
3.399999999999999
  0
CIRCLE
  5
59
  8
0
  6
CONTINUOUS
 62
     7
 10
227.35405882892789
 20
161.8468939227285
 30
0.0
 40
3.399999999999999
  0
CIRCLE
  5
5A
  8
0
  6
CONTINUOUS
 62
     7
 10
227.35405882892789
 20
121.8468939227285
 30
0.0
 40
3.399999999999999
  0
LINE
  5
5F
  8
0
  6
CONTINUOUS
 62
     7
 10
72.196383744124148
 20
117.8468949227285
 30
0.0
 11
12.19638374412415
 21
117.8468949227285
 31
0.0
  0
LINE
  5
60
  8
0
  6
CONTINUOUS
 62
     7
 10
72.196383744124148
 20
125.8468949227285
 30
0.0
 11
12.19638374412415
 21
125.8468949227285
 31
0.0
  0
LINE
  5
61
  8
0
  6
CONTINUOUS
 62
     7
 10
12.19638374412415
 20
181.8468939227285
 30
0.0
 11
12.19638374412415
 21
101.8468939227285
 31
0.0
  0
LINE
  5
62
  8
0
  6
CONTINUOUS
 62
     7
 10
72.196383744124148
 20
157.8468929227285
 30
0.0
 11
12.19638374412415
 21
157.8468929227285
 31
0.0
  0
LINE
  5
63
  8
0
  6
CONTINUOUS
 62
     7
 10
72.196383744124148
 20
165.8468929227285
 30
0.0
 11
12.19638374412415
 21
165.8468929227285
 31
0.0
  0
LINE
  5
64
  8
0
  6
CONTINUOUS
 62
     7
 10
72.196383744124148
 20
181.8468939227285
 30
0.0
 11
72.196383744124148
 21
101.8468939227285
 31
0.0
  0
LINE
  5
66
  8
0
  6
CENTER
 62
     1
 10
82.355519828927854
 20
121.8468939227285
 30
0.0
 11
252.35551982892781
 21
121.8468939227285
 31
0.0
  0
LINE
  5
67
  8
0
  6
CENTER
 62
     1
 10
107.3540588289278
 20
96.848354922728532
 30
0.0
 11
107.3540588289278
 21
186.8483549227285
 31
0.0
  0
LINE
  5
68
  8
0
  6
CENTER
 62
     1
 10
82.355519828927854
 20
161.8468939227285
 30
0.0
 11
252.35551982892781
 21
161.8468939227285
 31
0.0
  0
LINE
  5
69
  8
0
  6
CENTER
 62
     1
 10
147.35405882892789
 20
96.848354922728532
 30
0.0
 11
147.35405882892789
 21
186.8483549227285
 31
0.0
  0
LINE
  5
6A
  8
0
  6
CENTER
 62
     1
 10
187.35405882892789
 20
96.848354922728532
 30
0.0
 11
187.35405882892789
 21
186.8483549227285
 31
0.0
  0
LINE
  5
6B
  8
0
  6
CENTER
 62
     1
 10
227.35405882892789
 20
96.848354922728532
 30
0.0
 11
227.35405882892789
 21
186.8483549227285
 31
0.0
  0
LINE
  5
6C
  8
0
  6
CENTER
 62
     1
 10
77.196383744124148
 20
121.8468949227285
 30
0.0
 11
7.1963837441241489
 21
121.8468949227285
 31
0.0
  0
LINE
  5
6D
  8
0
  6
CENTER
 62
     1
 10
77.196383744124148
 20
161.8468929227285
 30
0.0
 11
7.1963837441241489
 21
161.8468929227285
 31
0.0
  0
LINE
  5
72
  8
0
  6
CENTER
 62
     1
 10
227.35366482892789
 20
190.7350869227285
 30
0.0
 11
227.35366482892789
 21
260.7350869227285
 31
0.0
  0
LINE
  5
73
  8
0
  6
CENTER
 62
     1
 10
187.35366482892789
 20
190.7350869227285
 30
0.0
 11
187.35366482892789
 21
260.7350869227285
 31
0.0
  0
LINE
  5
74
  8
0
  6
CENTER
 62
     1
 10
147.35366482892789
 20
190.7350869227285
 30
0.0
 11
147.35366482892789
 21
260.7350869227285
 31
0.0
  0
LINE
  5
75
  8
0
  6
CENTER
 62
     1
 10
107.3536648289278
 20
190.7350869227285
 30
0.0
 11
107.3536648289278
 21
260.7350869227285
 31
0.0
  0
LINE
  5
78
  8
0
  6
CONTINUOUS
 62
     7
 10
157.35405882892789
 20
107.65450492272851
 30
0.0
 11
157.35405882892789
 21
106.3468939227285
 31
0.0
  0
ARC
  5
79
  8
0
  6
CONTINUOUS
 62
     7
 10
154.85406069661579
 20
106.3468920550405
 30
0.0
 40
2.4999981323127409
 50
269.99995719571308
 51
0.0000428042869152
  0
ARC
  5
7A
  8
0
  6
CONTINUOUS
 62
     7
 10
154.85405845539029
 20
104.3468935491909
 30
0.0
 40
0.4999996264625512
 50
179.99995719571339
 51
270.00004280428823
  0
LINE
  5
7B
  8
0
  6
CONTINUOUS
 62
     7
 10
154.35405882892789
 20
104.3468939227285
 30
0.0
 11
154.35405882892789
 21
105.8468939227285
 31
0.0
  0
ARC
  5
7C
  8
0
  6
CONTINUOUS
 62
     7
 10
153.85405920246549
 20
105.8468942962661
 30
0.0
 40
0.4999996264625369
 50
359.99995719571342
 51
90.000042804288213
  0
LINE
  5
7D
  8
0
  6
CONTINUOUS
 62
     7
 10
153.85405882892789
 20
106.3468939227285
 30
0.0
 11
152.35405882892789
 21
106.3468939227285
 31
0.0
  0
ARC
  5
7E
  8
0
  6
CONTINUOUS
 62
     7
 10
152.35405808185271
 20
105.3468946698037
 30
0.0
 40
0.9999992529251022
 50
89.999957195713435
 51
180.00004280428661
  0
LINE
  5
7F
  8
0
  6
CONTINUOUS
 62
     7
 10
151.35405882892789
 20
105.3468939227285
 30
0.0
 11
151.35405882892789
 21
103.3483549227285
 31
0.0
  0
LINE
  5
83
  8
0
  6
CONTINUOUS
 62
     7
 10
183.35405882892789
 20
103.3483549227285
 30
0.0
 11
183.35405882892789
 21
105.3468939227285
 31
0.0
  0
ARC
  5
84
  8
0
  6
CONTINUOUS
 62
     7
 10
182.3540595760031
 20
105.3468946698037
 30
0.0
 40
0.9999992529251022
 50
359.99995719571342
 51
90.000042804286579
  0
LINE
  5
85
  8
0
  6
CONTINUOUS
 62
     7
 10
182.35405882892789
 20
106.3468939227285
 30
0.0
 11
180.85405882892789
 21
106.3468939227285
 31
0.0
  0
ARC
  5
86
  8
0
  6
CONTINUOUS
 62
     7
 10
180.85405845539029
 20
105.8468942962661
 30
0.0
 40
0.4999996264625512
 50
89.999957195711787
 51
180.00004280428661
  0
LINE
  5
87
  8
0
  6
CONTINUOUS
 62
     7
 10
180.35405882892789
 20
105.8468939227285
 30
0.0
 11
180.35405882892789
 21
104.3468939227285
 31
0.0
  0
ARC
  5
88
  8
0
  6
CONTINUOUS
 62
     7
 10
179.85405920246549
 20
104.3468935491909
 30
0.0
 40
0.4999996264625369
 50
269.99995719571177
 51
0.0000428042865895
  0
ARC
  5
89
  8
0
  6
CONTINUOUS
 62
     7
 10
179.85405696123991
 20
106.3468920550405
 30
0.0
 40
2.4999981323127409
 50
179.99995719571311
 51
270.00004280428692
  0
LINE
  5
8A
  8
0
  6
CONTINUOUS
 62
     7
 10
177.35405882892789
 20
106.3468939227285
 30
0.0
 11
177.35405882892789
 21
107.65450492272851
 31
0.0
  0
ARC
  5
8B
  8
0
  6
CONTINUOUS
 62
     7
 10
182.3540674272196
 20
107.6545015493343
 30
0.0
 40
5.0000085982928804
 50
135.00004233647181
 51
179.9999613438163
  0
LINE
  5
8C
  8
0
  6
CONTINUOUS
 62
     7
 10
178.81852482892791
 20
111.1900389227285
 30
0.0
 11
180.26091282892779
 21
112.6324269227285
 31
0.0
  0
ARC
  5
8D
  8
0
  6
CONTINUOUS
 62
     7
 10
183.79645140943131
 20
109.0968848244368
 30
0.0
 40
5.0000090982938392
 50
90.00005248860738
 51
134.99997149595191
  0
LINE
  5
8E
  8
0
  6
CONTINUOUS
 62
     7
 10
183.7964468289278
 20
114.0968939227285
 30
0.0
 11
190.9116708289279
 21
114.0968939227285
 31
0.0
  0
ARC
  5
8F
  8
0
  6
CONTINUOUS
 62
     7
 10
190.91166624842441
 20
109.0968848244368
 30
0.0
 40
5.0000090982938392
 50
45.000028504048082
 51
89.999947511392605
  0
LINE
  5
90
  8
0
  6
CONTINUOUS
 62
     7
 10
194.44720482892791
 20
112.6324269227285
 30
0.0
 11
195.8895928289279
 21
111.1900389227285
 31
0.0
  0
ARC
  5
91
  8
0
  6
CONTINUOUS
 62
     7
 10
192.35405023063609
 20
107.6545015493343
 30
0.0
 40
5.0000085982929079
 50
0.0000386561839953
 51
44.999957663528399
  0
LINE
  5
92
  8
0
  6
CONTINUOUS
 62
     7
 10
197.35405882892789
 20
107.65450492272851
 30
0.0
 11
197.35405882892789
 21
106.3468939227285
 31
0.0
  0
ARC
  5
93
  8
0
  6
CONTINUOUS
 62
     7
 10
194.85406069661579
 20
106.3468920550405
 30
0.0
 40
2.4999981323127409
 50
269.99995719571308
 51
0.0000428042869152
  0
ARC
  5
94
  8
0
  6
CONTINUOUS
 62
     7
 10
194.85405845539029
 20
104.3468935491909
 30
0.0
 40
0.4999996264625512
 50
179.99995719571339
 51
270.00004280428823
  0
LINE
  5
95
  8
0
  6
CONTINUOUS
 62
     7
 10
194.35405882892789
 20
104.3468939227285
 30
0.0
 11
194.35405882892789
 21
105.8468939227285
 31
0.0
  0
ARC
  5
96
  8
0
  6
CONTINUOUS
 62
     7
 10
193.85405920246549
 20
105.8468942962661
 30
0.0
 40
0.4999996264625369
 50
359.99995719571342
 51
90.000042804288213
  0
LINE
  5
97
  8
0
  6
CONTINUOUS
 62
     7
 10
193.85405882892789
 20
106.3468939227285
 30
0.0
 11
192.35405882892789
 21
106.3468939227285
 31
0.0
  0
ARC
  5
98
  8
0
  6
CONTINUOUS
 62
     7
 10
192.35405808185271
 20
105.3468946698037
 30
0.0
 40
0.9999992529251022
 50
89.999957195713435
 51
180.00004280428661
  0
LINE
  5
99
  8
0
  6
CONTINUOUS
 62
     7
 10
191.35405882892789
 20
105.3468939227285
 30
0.0
 11
191.35405882892789
 21
103.3483549227285
 31
0.0
  0
LINE
  5
9D
  8
0
  6
CONTINUOUS
 62
     7
 10
223.35405882892789
 20
103.3483549227285
 30
0.0
 11
223.35405882892789
 21
105.3468939227285
 31
0.0
  0
ARC
  5
9E
  8
0
  6
CONTINUOUS
 62
     7
 10
222.3540595760031
 20
105.3468946698037
 30
0.0
 40
0.9999992529251022
 50
359.99995719571342
 51
90.000042804286579
  0
LINE
  5
9F
  8
0
  6
CONTINUOUS
 62
     7
 10
222.35405882892789
 20
106.3468939227285
 30
0.0
 11
220.85405882892789
 21
106.3468939227285
 31
0.0
  0
ARC
  5
A0
  8
0
  6
CONTINUOUS
 62
     7
 10
220.85405845539029
 20
105.8468942962661
 30
0.0
 40
0.4999996264625512
 50
89.999957195711787
 51
180.00004280428661
  0
LINE
  5
A1
  8
0
  6
CONTINUOUS
 62
     7
 10
220.35405882892789
 20
105.8468939227285
 30
0.0
 11
220.35405882892789
 21
104.3468939227285
 31
0.0
  0
ARC
  5
A2
  8
0
  6
CONTINUOUS
 62
     7
 10
219.85405920246549
 20
104.3468935491909
 30
0.0
 40
0.4999996264625369
 50
269.99995719571177
 51
0.0000428042865895
  0
ARC
  5
A3
  8
0
  6
CONTINUOUS
 62
     7
 10
219.85405696123999
 20
106.3468920550405
 30
0.0
 40
2.4999981323127409
 50
179.99995719571311
 51
270.00004280428692
  0
LINE
  5
A4
  8
0
  6
CONTINUOUS
 62
     7
 10
217.35405882892789
 20
106.3468939227285
 30
0.0
 11
217.35405882892789
 21
107.65450492272851
 31
0.0
  0
ARC
  5
A5
  8
0
  6
CONTINUOUS
 62
     7
 10
222.35406742721969
 20
107.6545015493343
 30
0.0
 40
5.0000085982929079
 50
135.00004233647161
 51
179.99996134381601
  0
LINE
  5
A6
  8
0
  6
CONTINUOUS
 62
     7
 10
218.81852482892791
 20
111.1900389227285
 30
0.0
 11
220.2609128289279
 21
112.6324269227285
 31
0.0
  0
ARC
  5
A7
  8
0
  6
CONTINUOUS
 62
     7
 10
223.79645140943131
 20
109.0968848244368
 30
0.0
 40
5.0000090982938392
 50
90.00005248860738
 51
134.99997149595191
  0
LINE
  5
A8
  8
0
  6
CONTINUOUS
 62
     7
 10
223.79644682892791
 20
114.0968939227285
 30
0.0
 11
230.9116708289279
 21
114.0968939227285
 31
0.0
  0
ARC
  5
A9
  8
0
  6
CONTINUOUS
 62
     7
 10
230.9116662484245
 20
109.0968848244368
 30
0.0
 40
5.0000090982938392
 50
45.000028504048082
 51
89.999947511392605
  0
LINE
  5
AA
  8
0
  6
CONTINUOUS
 62
     7
 10
234.44720482892791
 20
112.6324269227285
 30
0.0
 11
235.8895928289279
 21
111.1900389227285
 31
0.0
  0
ARC
  5
AB
  8
0
  6
CONTINUOUS
 62
     7
 10
232.35405023063609
 20
107.6545015493343
 30
0.0
 40
5.0000085982929079
 50
0.0000386561836696
 51
44.999957663527951
  0
LINE
  5
AC
  8
0
  6
CONTINUOUS
 62
     7
 10
237.35405882892789
 20
107.65450492272851
 30
0.0
 11
237.35405882892789
 21
106.3468939227285
 31
0.0
  0
ARC
  5
AD
  8
0
  6
CONTINUOUS
 62
     7
 10
234.85406069661579
 20
106.3468920550405
 30
0.0
 40
2.4999981323127409
 50
269.99995719571382
 51
0.0000428042872409
  0
ARC
  5
AE
  8
0
  6
CONTINUOUS
 62
     7
 10
234.85405845539029
 20
104.3468935491909
 30
0.0
 40
0.4999996264625512
 50
179.99995719571339
 51
270.00004280428823
  0
LINE
  5
AF
  8
0
  6
CONTINUOUS
 62
     7
 10
234.35405882892789
 20
104.3468939227285
 30
0.0
 11
234.35405882892789
 21
105.8468939227285
 31
0.0
  0
ARC
  5
B0
  8
0
  6
CONTINUOUS
 62
     7
 10
233.85405920246549
 20
105.8468942962661
 30
0.0
 40
0.4999996264625369
 50
359.99995719571342
 51
90.000042804288213
  0
LINE
  5
B1
  8
0
  6
CONTINUOUS
 62
     7
 10
233.85405882892789
 20
106.3468939227285
 30
0.0
 11
232.35405882892789
 21
106.3468939227285
 31
0.0
  0
ARC
  5
B2
  8
0
  6
CONTINUOUS
 62
     7
 10
232.35405808185271
 20
105.3468946698037
 30
0.0
 40
0.9999992529251022
 50
89.999957195713435
 51
180.00004280428661
  0
LINE
  5
B3
  8
0
  6
CONTINUOUS
 62
     7
 10
231.35405882892789
 20
105.3468939227285
 30
0.0
 11
231.35405882892789
 21
103.3483549227285
 31
0.0
  0
LINE
  5
B9
  8
0
  6
CONTINUOUS
 62
     7
 10
245.85405882892789
 20
117.8468939227285
 30
0.0
 11
243.85405882892789
 21
117.8468939227285
 31
0.0
  0
ARC
  5
BA
  8
0
  6
CONTINUOUS
 62
     7
 10
243.85405808185271
 20
116.8468946698037
 30
0.0
 40
0.9999992529251022
 50
89.999957195711787
 51
180.00004280428661
  0
LINE
  5
BB
  8
0
  6
CONTINUOUS
 62
     7
 10
242.8540588289278
 20
116.8468939227285
 30
0.0
 11
242.8540588289278
 21
115.3468939227285
 31
0.0
  0
ARC
  5
BC
  8
0
  6
CONTINUOUS
 62
     7
 10
243.3540584553902
 20
115.3468935491909
 30
0.0
 40
0.4999996264625369
 50
179.99995719571339
 51
270.00004280428823
  0
LINE
  5
BD
  8
0
  6
CONTINUOUS
 62
     7
 10
243.35405882892789
 20
114.8468939227285
 30
0.0
 11
244.85405882892789
 21
114.8468939227285
 31
0.0
  0
ARC
  5
BE
  8
0
  6
CONTINUOUS
 62
     7
 10
244.85405920246549
 20
114.3468942962661
 30
0.0
 40
0.4999996264625512
 50
359.99995719571342
 51
90.000042804288213
  0
ARC
  5
BF
  8
0
  6
CONTINUOUS
 62
     7
 10
242.85406069661579
 20
114.3468920550406
 30
0.0
 40
2.4999981323127409
 50
269.99995719571308
 51
0.0000428042869152
  0
LINE
  5
C0
  8
0
  6
CONTINUOUS
 62
     7
 10
242.8540588289278
 20
111.8468939227285
 30
0.0
 11
241.5464468289278
 21
111.8468939227285
 31
0.0
  0
ARC
  5
C1
  8
0
  6
CONTINUOUS
 62
     7
 10
241.54645020232209
 20
116.8469025210203
 30
0.0
 40
5.0000085982928661
 50
225.00004233647149
 51
269.99996134381598
  0
LINE
  5
C2
  8
0
  6
CONTINUOUS
 62
     7
 10
238.0109128289279
 20
113.3113599227285
 30
0.0
 11
236.56852482892791
 21
114.75374792272849
 31
0.0
  0
ARC
  5
C3
  8
0
  6
CONTINUOUS
 62
     7
 10
240.10406742721969
 20
118.2892852961227
 30
0.0
 40
5.000008598292899
 50
180.00003865618379
 51
224.99995766352831
  0
LINE
  5
C4
  8
0
  6
CONTINUOUS
 62
     7
 10
235.10405882892789
 20
118.28928192272851
 30
0.0
 11
235.10405882892789
 21
125.40450492272851
 31
0.0
  0
ARC
  5
C5
  8
0
  6
CONTINUOUS
 62
     7
 10
240.10406742721969
 20
125.4045015493343
 30
0.0
 40
5.0000085982929079
 50
135.00004233647161
 51
179.99996134381621
  0
LINE
  5
C6
  8
0
  6
CONTINUOUS
 62
     7
 10
236.56852482892791
 20
128.94003892272849
 30
0.0
 11
238.0109128289279
 21
130.38242692272851
 31
0.0
  0
ARC
  5
C7
  8
0
  6
CONTINUOUS
 62
     7
 10
241.5464514094312
 20
126.8468848244368
 30
0.0
 40
5.0000090982938277
 50
90.000052488607068
 51
134.99997149595151
  0
LINE
  5
C8
  8
0
  6
CONTINUOUS
 62
     7
 10
241.5464468289278
 20
131.8468939227285
 30
0.0
 11
242.8540588289278
 21
131.8468939227285
 31
0.0
  0
ARC
  5
C9
  8
0
  6
CONTINUOUS
 62
     7
 10
242.85406069661579
 20
129.34689579041651
 30
0.0
 40
2.4999981323127409
 50
359.99995719571308
 51
90.000042804286906
  0
ARC
  5
CA
  8
0
  6
CONTINUOUS
 62
     7
 10
244.85405920246549
 20
129.3468935491909
 30
0.0
 40
0.4999996264625369
 50
269.99995719571177
 51
0.0000428042865895
  0
LINE
  5
CB
  8
0
  6
CONTINUOUS
 62
     7
 10
244.85405882892789
 20
128.8468939227285
 30
0.0
 11
243.35405882892789
 21
128.8468939227285
 31
0.0
  0
ARC
  5
CC
  8
0
  6
CONTINUOUS
 62
     7
 10
243.3540584553902
 20
128.3468942962661
 30
0.0
 40
0.4999996264625512
 50
89.999957195711787
 51
180.00004280428661
  0
LINE
  5
CD
  8
0
  6
CONTINUOUS
 62
     7
 10
242.8540588289278
 20
128.3468939227285
 30
0.0
 11
242.8540588289278
 21
126.8468939227285
 31
0.0
  0
ARC
  5
CE
  8
0
  6
CONTINUOUS
 62
     7
 10
243.85405808185271
 20
126.84689317565331
 30
0.0
 40
0.9999992529250737
 50
179.99995719571339
 51
270.00004280428823
  0
LINE
  5
CF
  8
0
  6
CONTINUOUS
 62
     7
 10
243.85405882892789
 20
125.8468939227285
 30
0.0
 11
245.85405882892789
 21
125.8468939227285
 31
0.0
  0
LINE
  5
D4
  8
0
  6
CONTINUOUS
 62
     7
 10
245.85405882892789
 20
157.8468939227285
 30
0.0
 11
243.85405882892789
 21
157.8468939227285
 31
0.0
  0
ARC
  5
D5
  8
0
  6
CONTINUOUS
 62
     7
 10
243.85405808185271
 20
156.8468946698037
 30
0.0
 40
0.9999992529251022
 50
89.999957195711787
 51
180.00004280428661
  0
LINE
  5
D6
  8
0
  6
CONTINUOUS
 62
     7
 10
242.8540588289278
 20
156.8468939227285
 30
0.0
 11
242.8540588289278
 21
155.3468939227285
 31
0.0
  0
ARC
  5
D7
  8
0
  6
CONTINUOUS
 62
     7
 10
243.3540584553902
 20
155.3468935491909
 30
0.0
 40
0.4999996264625369
 50
179.99995719571169
 51
270.00004280428823
  0
LINE
  5
D8
  8
0
  6
CONTINUOUS
 62
     7
 10
243.35405882892789
 20
154.8468939227285
 30
0.0
 11
244.85405882892789
 21
154.8468939227285
 31
0.0
  0
ARC
  5
D9
  8
0
  6
CONTINUOUS
 62
     7
 10
244.85405920246549
 20
154.3468942962661
 30
0.0
 40
0.4999996264625369
 50
359.99995719571177
 51
90.000042804288213
  0
ARC
  5
DA
  8
0
  6
CONTINUOUS
 62
     7
 10
242.85406069661579
 20
154.34689205504051
 30
0.0
 40
2.4999981323127409
 50
269.99995719571308
 51
0.0000428042869152
  0
LINE
  5
DB
  8
0
  6
CONTINUOUS
 62
     7
 10
242.8540588289278
 20
151.8468939227285
 30
0.0
 11
241.5464468289278
 21
151.8468939227285
 31
0.0
  0
ARC
  5
DC
  8
0
  6
CONTINUOUS
 62
     7
 10
241.54645020232209
 20
156.84690252102021
 30
0.0
 40
5.0000085982928804
 50
225.00004233647149
 51
269.99996134381598
  0
LINE
  5
DD
  8
0
  6
CONTINUOUS
 62
     7
 10
238.0109128289279
 20
153.31135992272851
 30
0.0
 11
236.56852482892791
 21
154.75374792272851
 31
0.0
  0
ARC
  5
DE
  8
0
  6
CONTINUOUS
 62
     7
 10
240.10406742721969
 20
158.28928529612281
 30
0.0
 40
5.0000085982929177
 50
180.00003865618399
 51
224.99995766352859
  0
LINE
  5
DF
  8
0
  6
CONTINUOUS
 62
     7
 10
235.10405882892789
 20
158.28928192272849
 30
0.0
 11
235.10405882892789
 21
165.40450492272851
 31
0.0
  0
ARC
  5
E0
  8
0
  6
CONTINUOUS
 62
     7
 10
240.10406742721969
 20
165.4045015493343
 30
0.0
 40
5.0000085982929079
 50
135.00004233647169
 51
179.9999613438163
  0
LINE
  5
E1
  8
0
  6
CONTINUOUS
 62
     7
 10
236.56852482892791
 20
168.94003892272849
 30
0.0
 11
238.0109128289279
 21
170.38242692272851
 31
0.0
  0
ARC
  5
E2
  8
0
  6
CONTINUOUS
 62
     7
 10
241.5464514094312
 20
166.84688482443681
 30
0.0
 40
5.000009098293817
 50
90.000052488607068
 51
134.99997149595171
  0
LINE
  5
E3
  8
0
  6
CONTINUOUS
 62
     7
 10
241.5464468289278
 20
171.8468939227285
 30
0.0
 11
242.8540588289278
 21
171.8468939227285
 31
0.0
  0
ARC
  5
E4
  8
0
  6
CONTINUOUS
 62
     7
 10
242.85406069661579
 20
169.34689579041651
 30
0.0
 40
2.4999981323127409
 50
359.99995719571308
 51
90.000042804286906
  0
ARC
  5
E5
  8
0
  6
CONTINUOUS
 62
     7
 10
244.85405920246549
 20
169.3468935491909
 30
0.0
 40
0.4999996264625369
 50
269.99995719571177
 51
0.0000428042882179
  0
LINE
  5
E6
  8
0
  6
CONTINUOUS
 62
     7
 10
244.85405882892789
 20
168.8468939227285
 30
0.0
 11
243.35405882892789
 21
168.8468939227285
 31
0.0
  0
ARC
  5
E7
  8
0
  6
CONTINUOUS
 62
     7
 10
243.3540584553902
 20
168.3468942962661
 30
0.0
 40
0.4999996264625369
 50
89.999957195711787
 51
180.0000428042882
  0
LINE
  5
E8
  8
0
  6
CONTINUOUS
 62
     7
 10
242.8540588289278
 20
168.3468939227285
 30
0.0
 11
242.8540588289278
 21
166.8468939227285
 31
0.0
  0
ARC
  5
E9
  8
0
  6
CONTINUOUS
 62
     7
 10
243.85405808185271
 20
166.84689317565329
 30
0.0
 40
0.9999992529250737
 50
179.99995719571339
 51
270.00004280428823
  0
LINE
  5
EA
  8
0
  6
CONTINUOUS
 62
     7
 10
243.85405882892789
 20
165.8468939227285
 30
0.0
 11
245.85405882892789
 21
165.8468939227285
 31
0.0
  0
LINE
  5
F0
  8
0
  6
CONTINUOUS
 62
     7
 10
231.35405882892789
 20
180.3468939227285
 30
0.0
 11
231.35405882892789
 21
178.3468939227285
 31
0.0
  0
ARC
  5
F1
  8
0
  6
CONTINUOUS
 62
     7
 10
232.35405808185271
 20
178.34689317565329
 30
0.0
 40
0.9999992529251022
 50
179.99995719571339
 51
270.00004280428658
  0
LINE
  5
F2
  8
0
  6
CONTINUOUS
 62
     7
 10
232.35405882892789
 20
177.3468939227285
 30
0.0
 11
233.85405882892789
 21
177.3468939227285
 31
0.0
  0
ARC
  5
F3
  8
0
  6
CONTINUOUS
 62
     7
 10
233.85405920246549
 20
177.8468935491909
 30
0.0
 40
0.4999996264625369
 50
269.99995719571177
 51
0.0000428042882179
  0
LINE
  5
F4
  8
0
  6
CONTINUOUS
 62
     7
 10
234.35405882892789
 20
177.8468939227285
 30
0.0
 11
234.35405882892789
 21
179.3468939227285
 31
0.0
  0
ARC
  5
F5
  8
0
  6
CONTINUOUS
 62
     7
 10
234.85405845539029
 20
179.3468942962661
 30
0.0
 40
0.4999996264625369
 50
89.999957195711787
 51
180.0000428042882
  0
ARC
  5
F6
  8
0
  6
CONTINUOUS
 62
     7
 10
234.85406069661579
 20
177.34689579041651
 30
0.0
 40
2.4999981323127121
 50
359.99995719571251
 51
90.000042804286267
  0
LINE
  5
F7
  8
0
  6
CONTINUOUS
 62
     7
 10
237.35405882892789
 20
177.3468939227285
 30
0.0
 11
237.35405882892789
 21
176.03928192272849
 31
0.0
  0
ARC
  5
F8
  8
0
  6
CONTINUOUS
 62
     7
 10
232.35405023063609
 20
176.0392852961227
 30
0.0
 40
5.0000085982929079
 50
315.00004233647201
 51
359.99996134381638
  0
LINE
  5
F9
  8
0
  6
CONTINUOUS
 62
     7
 10
235.8895928289279
 20
172.50374792272851
 30
0.0
 11
234.44720482892791
 21
171.06135992272851
 31
0.0
  0
ARC
  5
FA
  8
0
  6
CONTINUOUS
 62
     7
 10
230.91166745553369
 20
174.59690252102021
 30
0.0
 40
5.0000085982928777
 50
270.00003865618402
 51
314.99995766352851
  0
LINE
  5
FB
  8
0
  6
CONTINUOUS
 62
     7
 10
230.9116708289279
 20
169.5968939227285
 30
0.0
 11
223.79644682892791
 21
169.5968939227285
 31
0.0
  0
ARC
  5
FC
  8
0
  6
CONTINUOUS
 62
     7
 10
223.79645020232209
 20
174.59690252102021
 30
0.0
 40
5.0000085982928804
 50
225.00004233647149
 51
269.99996134381598
  0
LINE
  5
FD
  8
0
  6
CONTINUOUS
 62
     7
 10
220.2609128289279
 20
171.06135992272851
 30
0.0
 11
218.81852482892791
 21
172.50374792272851
 31
0.0
  0
ARC
  5
FE
  8
0
  6
CONTINUOUS
 62
     7
 10
222.35406742721969
 20
176.03928529612281
 30
0.0
 40
5.0000085982929177
 50
180.00003865618399
 51
224.99995766352859
  0
LINE
  5
FF
  8
0
  6
CONTINUOUS
 62
     7
 10
217.35405882892789
 20
176.03928192272849
 30
0.0
 11
217.35405882892789
 21
177.3468939227285
 31
0.0
  0
ARC
  5
100
  8
0
  6
CONTINUOUS
 62
     7
 10
219.85405696123999
 20
177.34689579041651
 30
0.0
 40
2.4999981323127409
 50
89.999957195713066
 51
180.00004280428689
  0
ARC
  5
101
  8
0
  6
CONTINUOUS
 62
     7
 10
219.85405920246549
 20
179.3468942962661
 30
0.0
 40
0.4999996264625369
 50
359.99995719571177
 51
90.000042804288213
  0
LINE
  5
102
  8
0
  6
CONTINUOUS
 62
     7
 10
220.35405882892789
 20
179.3468939227285
 30
0.0
 11
220.35405882892789
 21
177.8468939227285
 31
0.0
  0
ARC
  5
103
  8
0
  6
CONTINUOUS
 62
     7
 10
220.85405845539029
 20
177.8468935491909
 30
0.0
 40
0.4999996264625369
 50
179.99995719571169
 51
270.00004280428823
  0
LINE
  5
104
  8
0
  6
CONTINUOUS
 62
     7
 10
220.85405882892789
 20
177.3468939227285
 30
0.0
 11
222.35405882892789
 21
177.3468939227285
 31
0.0
  0
ARC
  5
105
  8
0
  6
CONTINUOUS
 62
     7
 10
222.3540595760031
 20
178.34689317565329
 30
0.0
 40
0.9999992529251022
 50
269.99995719571342
 51
0.0000428042865895
  0
LINE
  5
106
  8
0
  6
CONTINUOUS
 62
     7
 10
223.35405882892789
 20
178.3468939227285
 30
0.0
 11
223.35405882892789
 21
180.3468939227285
 31
0.0
  0
LINE
  5
10A
  8
0
  6
CONTINUOUS
 62
     7
 10
191.35405882892789
 20
180.3468939227285
 30
0.0
 11
191.35405882892789
 21
178.3468939227285
 31
0.0
  0
ARC
  5
10B
  8
0
  6
CONTINUOUS
 62
     7
 10
192.35405808185271
 20
178.34689317565329
 30
0.0
 40
0.9999992529251022
 50
179.99995719571339
 51
270.00004280428658
  0
LINE
  5
10C
  8
0
  6
CONTINUOUS
 62
     7
 10
192.35405882892789
 20
177.3468939227285
 30
0.0
 11
193.85405882892789
 21
177.3468939227285
 31
0.0
  0
ARC
  5
10D
  8
0
  6
CONTINUOUS
 62
     7
 10
193.85405920246549
 20
177.8468935491909
 30
0.0
 40
0.4999996264625369
 50
269.99995719571177
 51
0.0000428042882179
  0
LINE
  5
10E
  8
0
  6
CONTINUOUS
 62
     7
 10
194.35405882892789
 20
177.8468939227285
 30
0.0
 11
194.35405882892789
 21
179.3468939227285
 31
0.0
  0
ARC
  5
10F
  8
0
  6
CONTINUOUS
 62
     7
 10
194.85405845539029
 20
179.3468942962661
 30
0.0
 40
0.4999996264625369
 50
89.999957195711787
 51
180.0000428042882
  0
ARC
  5
110
  8
0
  6
CONTINUOUS
 62
     7
 10
194.85406069661579
 20
177.34689579041651
 30
0.0
 40
2.4999981323127409
 50
359.99995719571308
 51
90.000042804286906
  0
LINE
  5
111
  8
0
  6
CONTINUOUS
 62
     7
 10
197.35405882892789
 20
177.3468939227285
 30
0.0
 11
197.35405882892789
 21
176.03928192272849
 31
0.0
  0
ARC
  5
112
  8
0
  6
CONTINUOUS
 62
     7
 10
192.35405023063609
 20
176.03928529612281
 30
0.0
 40
5.0000085982929079
 50
315.00004233647149
 51
359.99996134381598
  0
LINE
  5
113
  8
0
  6
CONTINUOUS
 62
     7
 10
195.8895928289279
 20
172.50374792272851
 30
0.0
 11
194.44720482892791
 21
171.06135992272851
 31
0.0
  0
ARC
  5
114
  8
0
  6
CONTINUOUS
 62
     7
 10
190.91166745553369
 20
174.59690252102021
 30
0.0
 40
5.0000085982928777
 50
270.00003865618402
 51
314.99995766352851
  0
LINE
  5
115
  8
0
  6
CONTINUOUS
 62
     7
 10
190.9116708289279
 20
169.5968939227285
 30
0.0
 11
183.7964468289278
 21
169.5968939227285
 31
0.0
  0
ARC
  5
116
  8
0
  6
CONTINUOUS
 62
     7
 10
183.79645020232209
 20
174.59690252102021
 30
0.0
 40
5.0000085982928804
 50
225.00004233647149
 51
269.99996134381598
  0
LINE
  5
117
  8
0
  6
CONTINUOUS
 62
     7
 10
180.26091282892779
 20
171.06135992272851
 30
0.0
 11
178.81852482892791
 21
172.50374792272851
 31
0.0
  0
ARC
  5
118
  8
0
  6
CONTINUOUS
 62
     7
 10
182.3540674272196
 20
176.0392852961227
 30
0.0
 40
5.000008598292899
 50
180.0000386561837
 51
224.99995766352831
  0
LINE
  5
119
  8
0
  6
CONTINUOUS
 62
     7
 10
177.35405882892789
 20
176.03928192272849
 30
0.0
 11
177.35405882892789
 21
177.3468939227285
 31
0.0
  0
ARC
  5
11A
  8
0
  6
CONTINUOUS
 62
     7
 10
179.85405696123991
 20
177.34689579041651
 30
0.0
 40
2.4999981323127409
 50
89.999957195713066
 51
180.00004280428689
  0
ARC
  5
11B
  8
0
  6
CONTINUOUS
 62
     7
 10
179.85405920246549
 20
179.3468942962661
 30
0.0
 40
0.4999996264625369
 50
359.99995719571177
 51
90.000042804288213
  0
LINE
  5
11C
  8
0
  6
CONTINUOUS
 62
     7
 10
180.35405882892789
 20
179.3468939227285
 30
0.0
 11
180.35405882892789
 21
177.8468939227285
 31
0.0
  0
ARC
  5
11D
  8
0
  6
CONTINUOUS
 62
     7
 10
180.85405845539029
 20
177.8468935491909
 30
0.0
 40
0.4999996264625369
 50
179.99995719571169
 51
270.00004280428823
  0
LINE
  5
11E
  8
0
  6
CONTINUOUS
 62
     7
 10
180.85405882892789
 20
177.3468939227285
 30
0.0
 11
182.35405882892789
 21
177.3468939227285
 31
0.0
  0
ARC
  5
11F
  8
0
  6
CONTINUOUS
 62
     7
 10
182.3540595760031
 20
178.34689317565329
 30
0.0
 40
0.9999992529251022
 50
269.99995719571342
 51
0.0000428042865895
  0
LINE
  5
120
  8
0
  6
CONTINUOUS
 62
     7
 10
183.35405882892789
 20
178.3468939227285
 30
0.0
 11
183.35405882892789
 21
180.3468939227285
 31
0.0
  0
LINE
  5
124
  8
0
  6
CONTINUOUS
 62
     7
 10
151.35405882892789
 20
180.3468939227285
 30
0.0
 11
151.35405882892789
 21
178.3468939227285
 31
0.0
  0
ARC
  5
125
  8
0
  6
CONTINUOUS
 62
     7
 10
152.35405808185271
 20
178.34689317565329
 30
0.0
 40
0.9999992529251022
 50
179.99995719571339
 51
270.00004280428658
  0
LINE
  5
126
  8
0
  6
CONTINUOUS
 62
     7
 10
152.35405882892789
 20
177.3468939227285
 30
0.0
 11
153.85405882892789
 21
177.3468939227285
 31
0.0
  0
ARC
  5
127
  8
0
  6
CONTINUOUS
 62
     7
 10
153.85405920246549
 20
177.8468935491909
 30
0.0
 40
0.4999996264625369
 50
269.99995719571177
 51
0.0000428042882179
  0
LINE
  5
128
  8
0
  6
CONTINUOUS
 62
     7
 10
154.35405882892789
 20
177.8468939227285
 30
0.0
 11
154.35405882892789
 21
179.3468939227285
 31
0.0
  0
ARC
  5
129
  8
0
  6
CONTINUOUS
 62
     7
 10
154.85405845539029
 20
179.3468942962661
 30
0.0
 40
0.4999996264625369
 50
89.999957195711787
 51
180.0000428042882
  0
ARC
  5
12A
  8
0
  6
CONTINUOUS
 62
     7
 10
154.85406069661579
 20
177.34689579041651
 30
0.0
 40
2.4999981323127409
 50
359.99995719571308
 51
90.000042804286906
  0
LINE
  5
12B
  8
0
  6
CONTINUOUS
 62
     7
 10
157.35405882892789
 20
177.3468939227285
 30
0.0
 11
157.35405882892789
 21
176.03928192272849
 31
0.0
  0
ARC
  5
12C
  8
0
  6
CONTINUOUS
 62
     7
 10
152.35405023063609
 20
176.03928529612281
 30
0.0
 40
5.0000085982929079
 50
315.00004233647149
 51
359.99996134381598
  0
LINE
  5
12D
  8
0
  6
CONTINUOUS
 62
     7
 10
155.8895928289279
 20
172.50374792272851
 30
0.0
 11
154.44720482892791
 21
171.06135992272851
 31
0.0
  0
ARC
  5
12E
  8
0
  6
CONTINUOUS
 62
     7
 10
150.9116674555336
 20
174.5969025210203
 30
0.0
 40
5.0000085982929177
 50
270.00003865618402
 51
314.99995766352851
  0
LINE
  5
12F
  8
0
  6
CONTINUOUS
 62
     7
 10
150.91167082892781
 20
169.5968939227285
 30
0.0
 11
143.7964468289278
 21
169.5968939227285
 31
0.0
  0
LINE
  5
130
  8
0
  6
CONTINUOUS
 62
     7
 10
143.7964468289278
 20
169.5968939227285
 30
0.0
 11
143.7964468289278
 21
169.5968939227285
 31
0.0
  0
LINE
  5
131
  8
0
  6
CONTINUOUS
 62
     7
 10
143.7964468289278
 20
169.5968939227285
 30
0.0
 11
143.7964468289278
 21
169.5968939227285
 31
0.0
  0
ARC
  5
132
  8
0
  6
CONTINUOUS
 62
     7
 10
143.79645020232209
 20
174.59690252102021
 30
0.0
 40
5.0000085982928804
 50
225.00004233647149
 51
269.99996134381598
  0
LINE
  5
133
  8
0
  6
CONTINUOUS
 62
     7
 10
140.26091282892779
 20
171.06135992272851
 30
0.0
 11
138.81852482892779
 21
172.50374792272851
 31
0.0
  0
ARC
  5
134
  8
0
  6
CONTINUOUS
 62
     7
 10
142.3540674272196
 20
176.0392852961227
 30
0.0
 40
5.000008598292899
 50
180.0000386561837
 51
224.99995766352831
  0
LINE
  5
135
  8
0
  6
CONTINUOUS
 62
     7
 10
137.35405882892789
 20
176.03928192272849
 30
0.0
 11
137.35405882892789
 21
177.3468939227285
 31
0.0
  0
ARC
  5
136
  8
0
  6
CONTINUOUS
 62
     7
 10
139.85405696123991
 20
177.34689579041651
 30
0.0
 40
2.4999981323127409
 50
89.999957195713066
 51
180.00004280428689
  0
ARC
  5
137
  8
0
  6
CONTINUOUS
 62
     7
 10
139.85405920246549
 20
179.3468942962661
 30
0.0
 40
0.4999996264625369
 50
359.99995719571177
 51
90.000042804288213
  0
LINE
  5
138
  8
0
  6
CONTINUOUS
 62
     7
 10
140.35405882892789
 20
179.3468939227285
 30
0.0
 11
140.35405882892789
 21
177.8468939227285
 31
0.0
  0
ARC
  5
139
  8
0
  6
CONTINUOUS
 62
     7
 10
140.85405845539029
 20
177.8468935491909
 30
0.0
 40
0.4999996264625369
 50
179.99995719571169
 51
270.00004280428823
  0
LINE
  5
13A
  8
0
  6
CONTINUOUS
 62
     7
 10
140.85405882892789
 20
177.3468939227285
 30
0.0
 11
142.35405882892789
 21
177.3468939227285
 31
0.0
  0
ARC
  5
13B
  8
0
  6
CONTINUOUS
 62
     7
 10
142.35405957600301
 20
178.34689317565329
 30
0.0
 40
0.9999992529251022
 50
269.99995719571342
 51
0.0000428042865895
  0
LINE
  5
13C
  8
0
  6
CONTINUOUS
 62
     7
 10
143.35405882892789
 20
178.3468939227285
 30
0.0
 11
143.35405882892789
 21
180.3468939227285
 31
0.0
  0
LINE
  5
140
  8
0
  6
CONTINUOUS
 62
     7
 10
111.3540588289278
 20
180.3468939227285
 30
0.0
 11
111.3540588289278
 21
178.3468939227285
 31
0.0
  0
ARC
  5
141
  8
0
  6
CONTINUOUS
 62
     7
 10
112.3540580818527
 20
178.34689317565329
 30
0.0
 40
0.9999992529251022
 50
179.99995719571339
 51
270.00004280428658
  0
LINE
  5
142
  8
0
  6
CONTINUOUS
 62
     7
 10
112.3540588289278
 20
177.3468939227285
 30
0.0
 11
113.8540588289278
 21
177.3468939227285
 31
0.0
  0
ARC
  5
143
  8
0
  6
CONTINUOUS
 62
     7
 10
113.85405920246539
 20
177.8468935491909
 30
0.0
 40
0.4999996264625369
 50
269.99995719571177
 51
0.0000428042882179
  0
LINE
  5
144
  8
0
  6
CONTINUOUS
 62
     7
 10
114.3540588289278
 20
177.8468939227285
 30
0.0
 11
114.3540588289278
 21
179.3468939227285
 31
0.0
  0
ARC
  5
145
  8
0
  6
CONTINUOUS
 62
     7
 10
114.8540584553902
 20
179.3468942962661
 30
0.0
 40
0.4999996264625369
 50
89.999957195711787
 51
180.0000428042882
  0
ARC
  5
146
  8
0
  6
CONTINUOUS
 62
     7
 10
114.8540606966158
 20
177.34689579041651
 30
0.0
 40
2.4999981323127409
 50
359.99995719571308
 51
90.000042804286906
  0
LINE
  5
147
  8
0
  6
CONTINUOUS
 62
     7
 10
117.3540588289279
 20
177.3468939227285
 30
0.0
 11
117.3540588289279
 21
176.03928192272849
 31
0.0
  0
ARC
  5
148
  8
0
  6
CONTINUOUS
 62
     7
 10
112.3540502306361
 20
176.03928529612281
 30
0.0
 40
5.0000085982929079
 50
315.00004233647149
 51
359.99996134381598
  0
LINE
  5
149
  8
0
  6
CONTINUOUS
 62
     7
 10
115.8895928289278
 20
172.50374792272851
 30
0.0
 11
114.4472048289278
 21
171.06135992272851
 31
0.0
  0
ARC
  5
14A
  8
0
  6
CONTINUOUS
 62
     7
 10
110.9116674555336
 20
174.5969025210203
 30
0.0
 40
5.0000085982929177
 50
270.00003865618402
 51
314.99995766352851
  0
LINE
  5
14B
  8
0
  6
CONTINUOUS
 62
     7
 10
110.9116708289278
 20
169.5968939227285
 30
0.0
 11
103.7964468289278
 21
169.5968939227285
 31
0.0
  0
ARC
  5
14C
  8
0
  6
CONTINUOUS
 62
     7
 10
103.79645020232211
 20
174.59690252102021
 30
0.0
 40
5.0000085982928804
 50
225.00004233647149
 51
269.99996134381598
  0
LINE
  5
14D
  8
0
  6
CONTINUOUS
 62
     7
 10
100.2609128289278
 20
171.06135992272851
 30
0.0
 11
98.818524828927835
 21
172.50374792272851
 31
0.0
  0
ARC
  5
14E
  8
0
  6
CONTINUOUS
 62
     7
 10
102.3540674272196
 20
176.0392852961227
 30
0.0
 40
5.0000085982929177
 50
180.0000386561837
 51
224.99995766352811
  0
LINE
  5
14F
  8
0
  6
CONTINUOUS
 62
     7
 10
97.354058828927833
 20
176.03928192272849
 30
0.0
 11
97.354058828927833
 21
177.3468939227285
 31
0.0
  0
ARC
  5
150
  8
0
  6
CONTINUOUS
 62
     7
 10
99.854056961239905
 20
177.34689579041651
 30
0.0
 40
2.4999981323127409
 50
89.999957195713066
 51
180.00004280428689
  0
ARC
  5
151
  8
0
  6
CONTINUOUS
 62
     7
 10
99.854059202465436
 20
179.3468942962661
 30
0.0
 40
0.4999996264625369
 50
359.99995719571177
 51
90.000042804286579
  0
LINE
  5
152
  8
0
  6
CONTINUOUS
 62
     7
 10
100.3540588289278
 20
179.3468939227285
 30
0.0
 11
100.3540588289278
 21
177.8468939227285
 31
0.0
  0
ARC
  5
153
  8
0
  6
CONTINUOUS
 62
     7
 10
100.8540584553902
 20
177.8468935491909
 30
0.0
 40
0.4999996264625512
 50
179.99995719571169
 51
270.00004280428658
  0
LINE
  5
154
  8
0
  6
CONTINUOUS
 62
     7
 10
100.8540588289278
 20
177.3468939227285
 30
0.0
 11
102.3540588289278
 21
177.3468939227285
 31
0.0
  0
ARC
  5
155
  8
0
  6
CONTINUOUS
 62
     7
 10
102.354059576003
 20
178.34689317565329
 30
0.0
 40
0.9999992529251022
 50
269.99995719571342
 51
0.0000428042865895
  0
LINE
  5
156
  8
0
  6
CONTINUOUS
 62
     7
 10
103.3540588289278
 20
178.3468939227285
 30
0.0
 11
103.3540588289278
 21
180.3468939227285
 31
0.0
  0
LINE
  5
15C
  8
0
  6
CONTINUOUS
 62
     7
 10
88.855519828927825
 20
165.8468939227285
 30
0.0
 11
90.854058828927833
 21
165.8468939227285
 31
0.0
  0
ARC
  5
15D
  8
0
  6
CONTINUOUS
 62
     7
 10
90.854059576003024
 20
166.84689317565329
 30
0.0
 40
0.9999992529251022
 50
269.99995719571342
 51
0.0000428042865895
  0
LINE
  5
15E
  8
0
  6
CONTINUOUS
 62
     7
 10
91.854058828927847
 20
166.8468939227285
 30
0.0
 11
91.854058828927847
 21
168.3468939227285
 31
0.0
  0
ARC
  5
15F
  8
0
  6
CONTINUOUS
 62
     7
 10
91.354059202465436
 20
168.3468942962661
 30
0.0
 40
0.4999996264625512
 50
359.99995719571177
 51
90.000042804286579
  0
LINE
  5
160
  8
0
  6
CONTINUOUS
 62
     7
 10
91.354058828927847
 20
168.8468939227285
 30
0.0
 11
89.854058828927833
 21
168.8468939227285
 31
0.0
  0
ARC
  5
161
  8
0
  6
CONTINUOUS
 62
     7
 10
89.854058455390245
 20
169.3468935491909
 30
0.0
 40
0.4999996264625369
 50
179.99995719571169
 51
270.00004280428658
  0
ARC
  5
162
  8
0
  6
CONTINUOUS
 62
     7
 10
91.854056961239891
 20
169.34689579041651
 30
0.0
 40
2.4999981323127409
 50
89.999957195713066
 51
180.00004280428689
  0
LINE
  5
163
  8
0
  6
CONTINUOUS
 62
     7
 10
91.854058828927847
 20
171.8468939227285
 30
0.0
 11
93.161670828927839
 21
171.8468939227285
 31
0.0
  0
ARC
  5
164
  8
0
  6
CONTINUOUS
 62
     7
 10
93.161666248424453
 20
166.84688482443681
 30
0.0
 40
5.0000090982938392
 50
45.000028504048423
 51
89.999947511393088
  0
LINE
  5
165
  8
0
  6
CONTINUOUS
 62
     7
 10
96.697204828927852
 20
170.38242692272851
 30
0.0
 11
98.139592828927832
 21
168.94003892272849
 31
0.0
  0
ARC
  5
166
  8
0
  6
CONTINUOUS
 62
     7
 10
94.604050230636048
 20
165.4045015493343
 30
0.0
 40
5.0000085982929079
 50
0.0000386561836696
 51
44.999957663528171
  0
LINE
  5
167
  8
0
  6
CONTINUOUS
 62
     7
 10
99.604058828927862
 20
165.40450492272851
 30
0.0
 11
99.604058828927862
 21
158.28928192272849
 31
0.0
  0
ARC
  5
168
  8
0
  6
CONTINUOUS
 62
     7
 10
94.604050230636048
 20
158.28928529612281
 30
0.0
 40
5.0000085982929221
 50
315.00004233647161
 51
359.99996134381598
  0
LINE
  5
169
  8
0
  6
CONTINUOUS
 62
     7
 10
98.139592828927832
 20
154.75374792272851
 30
0.0
 11
96.697204828927852
 21
153.31135992272851
 31
0.0
  0
ARC
  5
16A
  8
0
  6
CONTINUOUS
 62
     7
 10
93.161667455533617
 20
156.8469025210203
 30
0.0
 40
5.0000085982929079
 50
270.0000386561839
 51
314.99995766352851
  0
LINE
  5
16B
  8
0
  6
CONTINUOUS
 62
     7
 10
93.161670828927839
 20
151.8468939227285
 30
0.0
 11
91.854058828927847
 21
151.8468939227285
 31
0.0
  0
ARC
  5
16C
  8
0
  6
CONTINUOUS
 62
     7
 10
91.854056961239891
 20
154.34689205504051
 30
0.0
 40
2.4999981323127409
 50
179.99995719571311
 51
270.00004280428692
  0
ARC
  5
16D
  8
0
  6
CONTINUOUS
 62
     7
 10
89.854058455390245
 20
154.3468942962661
 30
0.0
 40
0.4999996264625512
 50
89.999957195713435
 51
180.0000428042882
  0
LINE
  5
16E
  8
0
  6
CONTINUOUS
 62
     7
 10
89.854058828927833
 20
154.8468939227285
 30
0.0
 11
91.354058828927847
 21
154.8468939227285
 31
0.0
  0
ARC
  5
16F
  8
0
  6
CONTINUOUS
 62
     7
 10
91.354059202465436
 20
155.3468935491909
 30
0.0
 40
0.4999996264625369
 50
269.99995719571342
 51
0.0000428042882179
  0
LINE
  5
170
  8
0
  6
CONTINUOUS
 62
     7
 10
91.854058828927847
 20
155.3468939227285
 30
0.0
 11
91.854058828927847
 21
156.8468939227285
 31
0.0
  0
ARC
  5
171
  8
0
  6
CONTINUOUS
 62
     7
 10
90.854059576003024
 20
156.8468946698037
 30
0.0
 40
0.9999992529251022
 50
359.99995719571342
 51
90.000042804286579
  0
LINE
  5
172
  8
0
  6
CONTINUOUS
 62
     7
 10
90.854058828927833
 20
157.8468939227285
 30
0.0
 11
88.855519828927825
 21
157.8468939227285
 31
0.0
  0
LINE
  5
176
  8
0
  6
CONTINUOUS
 62
     7
 10
88.855519828927825
 20
125.8468939227285
 30
0.0
 11
90.854058828927833
 21
125.8468939227285
 31
0.0
  0
ARC
  5
177
  8
0
  6
CONTINUOUS
 62
     7
 10
90.854059576003024
 20
126.84689317565331
 30
0.0
 40
0.9999992529251022
 50
269.99995719571342
 51
0.0000428042865895
  0
LINE
  5
178
  8
0
  6
CONTINUOUS
 62
     7
 10
91.854058828927847
 20
126.8468939227285
 30
0.0
 11
91.854058828927847
 21
128.3468939227285
 31
0.0
  0
ARC
  5
179
  8
0
  6
CONTINUOUS
 62
     7
 10
91.354059202465436
 20
128.3468942962661
 30
0.0
 40
0.4999996264625512
 50
359.99995719571342
 51
90.000042804286579
  0
LINE
  5
17A
  8
0
  6
CONTINUOUS
 62
     7
 10
91.354058828927847
 20
128.8468939227285
 30
0.0
 11
89.854058828927833
 21
128.8468939227285
 31
0.0
  0
ARC
  5
17B
  8
0
  6
CONTINUOUS
 62
     7
 10
89.854058455390245
 20
129.3468935491909
 30
0.0
 40
0.4999996264625512
 50
179.99995719571339
 51
270.00004280428658
  0
ARC
  5
17C
  8
0
  6
CONTINUOUS
 62
     7
 10
91.854056961239891
 20
129.34689579041651
 30
0.0
 40
2.4999981323127409
 50
89.999957195713066
 51
180.00004280428689
  0
LINE
  5
17D
  8
0
  6
CONTINUOUS
 62
     7
 10
91.854058828927847
 20
131.8468939227285
 30
0.0
 11
93.161670828927839
 21
131.8468939227285
 31
0.0
  0
ARC
  5
17E
  8
0
  6
CONTINUOUS
 62
     7
 10
93.161666248424424
 20
126.8468848244367
 30
0.0
 40
5.000009098293881
 50
45.000028504048537
 51
89.999947511392932
  0
LINE
  5
17F
  8
0
  6
CONTINUOUS
 62
     7
 10
96.697204828927852
 20
130.38242692272851
 30
0.0
 11
98.139592828927832
 21
128.94003892272849
 31
0.0
  0
ARC
  5
180
  8
0
  6
CONTINUOUS
 62
     7
 10
94.604050230636048
 20
125.4045015493343
 30
0.0
 40
5.0000085982929177
 50
0.0000386561838325
 51
44.999957663528292
  0
LINE
  5
181
  8
0
  6
CONTINUOUS
 62
     7
 10
99.604058828927862
 20
125.40450492272851
 30
0.0
 11
99.604058828927862
 21
118.28928192272851
 31
0.0
  0
LINE
  5
182
  8
0
  6
CONTINUOUS
 62
     7
 10
99.604058828927862
 20
118.28928192272851
 30
0.0
 11
99.604058828927862
 21
118.28928192272851
 31
0.0
  0
ARC
  5
183
  8
0
  6
CONTINUOUS
 62
     7
 10
94.604050230636076
 20
118.2892852961227
 30
0.0
 40
5.0000085982929079
 50
315.00004233647172
 51
359.99996134381621
  0
LINE
  5
184
  8
0
  6
CONTINUOUS
 62
     7
 10
98.139592828927832
 20
114.75374792272849
 30
0.0
 11
96.697204828927852
 21
113.3113599227285
 31
0.0
  0
ARC
  5
185
  8
0
  6
CONTINUOUS
 62
     7
 10
93.161667455533632
 20
116.8469025210203
 30
0.0
 40
5.0000085982929079
 50
270.00003865618368
 51
314.99995766352811
  0
LINE
  5
186
  8
0
  6
CONTINUOUS
 62
     7
 10
93.161670828927839
 20
111.8468939227285
 30
0.0
 11
91.854058828927847
 21
111.8468939227285
 31
0.0
  0
ARC
  5
187
  8
0
  6
CONTINUOUS
 62
     7
 10
91.854056961239891
 20
114.3468920550406
 30
0.0
 40
2.4999981323127409
 50
179.99995719571311
 51
270.00004280428692
  0
ARC
  5
188
  8
0
  6
CONTINUOUS
 62
     7
 10
89.854058455390245
 20
114.3468942962661
 30
0.0
 40
0.4999996264625512
 50
89.999957195713435
 51
180.00004280428661
  0
LINE
  5
189
  8
0
  6
CONTINUOUS
 62
     7
 10
89.854058828927833
 20
114.8468939227285
 30
0.0
 11
91.354058828927847
 21
114.8468939227285
 31
0.0
  0
ARC
  5
18A
  8
0
  6
CONTINUOUS
 62
     7
 10
91.354059202465436
 20
115.3468935491909
 30
0.0
 40
0.4999996264625512
 50
269.99995719571342
 51
0.0000428042865895
  0
LINE
  5
18B
  8
0
  6
CONTINUOUS
 62
     7
 10
91.854058828927847
 20
115.3468939227285
 30
0.0
 11
91.854058828927847
 21
116.8468939227285
 31
0.0
  0
ARC
  5
18C
  8
0
  6
CONTINUOUS
 62
     7
 10
90.854059576003024
 20
116.8468946698037
 30
0.0
 40
0.9999992529251022
 50
359.99995719571342
 51
90.000042804286579
  0
LINE
  5
18D
  8
0
  6
CONTINUOUS
 62
     7
 10
90.854058828927833
 20
117.8468939227285
 30
0.0
 11
88.855519828927825
 21
117.8468939227285
 31
0.0
  0
LINE
  5
193
  8
0
  6
CONTINUOUS
 62
     7
 10
103.3540588289278
 20
103.3483549227285
 30
0.0
 11
103.3540588289278
 21
105.3468939227285
 31
0.0
  0
ARC
  5
194
  8
0
  6
CONTINUOUS
 62
     7
 10
102.354059576003
 20
105.3468946698037
 30
0.0
 40
0.9999992529251022
 50
359.99995719571342
 51
90.000042804286579
  0
LINE
  5
195
  8
0
  6
CONTINUOUS
 62
     7
 10
102.3540588289278
 20
106.3468939227285
 30
0.0
 11
100.8540588289278
 21
106.3468939227285
 31
0.0
  0
ARC
  5
196
  8
0
  6
CONTINUOUS
 62
     7
 10
100.8540584553902
 20
105.8468942962661
 30
0.0
 40
0.4999996264625512
 50
89.999957195713435
 51
180.00004280428661
  0
LINE
  5
197
  8
0
  6
CONTINUOUS
 62
     7
 10
100.3540588289278
 20
105.8468939227285
 30
0.0
 11
100.3540588289278
 21
104.3468939227285
 31
0.0
  0
ARC
  5
198
  8
0
  6
CONTINUOUS
 62
     7
 10
99.854059202465436
 20
104.3468935491909
 30
0.0
 40
0.4999996264625512
 50
269.99995719571342
 51
0.0000428042865895
  0
ARC
  5
199
  8
0
  6
CONTINUOUS
 62
     7
 10
99.854056961239905
 20
106.3468920550405
 30
0.0
 40
2.4999981323127409
 50
179.99995719571311
 51
270.00004280428692
  0
LINE
  5
19A
  8
0
  6
CONTINUOUS
 62
     7
 10
97.354058828927833
 20
106.3468939227285
 30
0.0
 11
97.354058828927833
 21
107.65450492272851
 31
0.0
  0
ARC
  5
19B
  8
0
  6
CONTINUOUS
 62
     7
 10
102.3540674272196
 20
107.6545015493343
 30
0.0
 40
5.0000085982928937
 50
135.00004233647189
 51
179.9999613438163
  0
LINE
  5
19C
  8
0
  6
CONTINUOUS
 62
     7
 10
98.818524828927835
 20
111.1900389227285
 30
0.0
 11
100.2609128289278
 21
112.6324269227285
 31
0.0
  0
ARC
  5
19D
  8
0
  6
CONTINUOUS
 62
     7
 10
103.7964514094313
 20
109.0968848244368
 30
0.0
 40
5.0000090982938392
 50
90.00005248860738
 51
134.99997149595191
  0
LINE
  5
19E
  8
0
  6
CONTINUOUS
 62
     7
 10
103.7964468289278
 20
114.0968939227285
 30
0.0
 11
110.9116708289278
 21
114.0968939227285
 31
0.0
  0
ARC
  5
19F
  8
0
  6
CONTINUOUS
 62
     7
 10
110.9116662484244
 20
109.0968848244367
 30
0.0
 40
5.000009098293881
 50
45.000028504048203
 51
89.999947511392605
  0
LINE
  5
1A0
  8
0
  6
CONTINUOUS
 62
     7
 10
114.4472048289278
 20
112.6324269227285
 30
0.0
 11
115.8895928289278
 21
111.1900389227285
 31
0.0
  0
ARC
  5
1A1
  8
0
  6
CONTINUOUS
 62
     7
 10
112.3540502306361
 20
107.6545015493343
 30
0.0
 40
5.0000085982929079
 50
0.0000386561839953
 51
44.999957663528399
  0
LINE
  5
1A2
  8
0
  6
CONTINUOUS
 62
     7
 10
117.3540588289279
 20
107.65450492272851
 30
0.0
 11
117.3540588289279
 21
106.3468939227285
 31
0.0
  0
ARC
  5
1A3
  8
0
  6
CONTINUOUS
 62
     7
 10
114.8540606966158
 20
106.3468920550405
 30
0.0
 40
2.4999981323127409
 50
269.99995719571308
 51
0.0000428042869152
  0
ARC
  5
1A4
  8
0
  6
CONTINUOUS
 62
     7
 10
114.8540584553902
 20
104.3468935491909
 30
0.0
 40
0.4999996264625512
 50
179.99995719571339
 51
270.00004280428823
  0
LINE
  5
1A5
  8
0
  6
CONTINUOUS
 62
     7
 10
114.3540588289278
 20
104.3468939227285
 30
0.0
 11
114.3540588289278
 21
105.8468939227285
 31
0.0
  0
ARC
  5
1A6
  8
0
  6
CONTINUOUS
 62
     7
 10
113.85405920246539
 20
105.8468942962661
 30
0.0
 40
0.4999996264625369
 50
359.99995719571342
 51
90.000042804288213
  0
LINE
  5
1A7
  8
0
  6
CONTINUOUS
 62
     7
 10
113.8540588289278
 20
106.3468939227285
 30
0.0
 11
112.3540588289278
 21
106.3468939227285
 31
0.0
  0
ARC
  5
1A8
  8
0
  6
CONTINUOUS
 62
     7
 10
112.3540580818527
 20
105.3468946698037
 30
0.0
 40
0.9999992529251022
 50
89.999957195713435
 51
180.00004280428661
  0
LINE
  5
1A9
  8
0
  6
CONTINUOUS
 62
     7
 10
111.3540588289278
 20
105.3468939227285
 30
0.0
 11
111.3540588289278
 21
103.3483549227285
 31
0.0
  0
LINE
  5
1AD
  8
0
  6
CONTINUOUS
 62
     7
 10
143.35405882892789
 20
103.3483549227285
 30
0.0
 11
143.35405882892789
 21
105.3468939227285
 31
0.0
  0
ARC
  5
1AE
  8
0
  6
CONTINUOUS
 62
     7
 10
142.35405957600301
 20
105.3468946698037
 30
0.0
 40
0.9999992529251022
 50
359.99995719571342
 51
90.000042804286579
  0
LINE
  5
1AF
  8
0
  6
CONTINUOUS
 62
     7
 10
142.35405882892789
 20
106.3468939227285
 30
0.0
 11
140.85405882892789
 21
106.3468939227285
 31
0.0
  0
ARC
  5
1B0
  8
0
  6
CONTINUOUS
 62
     7
 10
140.85405845539029
 20
105.8468942962661
 30
0.0
 40
0.4999996264625512
 50
89.999957195711787
 51
180.00004280428661
  0
LINE
  5
1B1
  8
0
  6
CONTINUOUS
 62
     7
 10
140.35405882892789
 20
105.8468939227285
 30
0.0
 11
140.35405882892789
 21
104.3468939227285
 31
0.0
  0
ARC
  5
1B2
  8
0
  6
CONTINUOUS
 62
     7
 10
139.85405920246549
 20
104.3468935491909
 30
0.0
 40
0.4999996264625369
 50
269.99995719571177
 51
0.0000428042865895
  0
ARC
  5
1B3
  8
0
  6
CONTINUOUS
 62
     7
 10
139.85405696123991
 20
106.3468920550405
 30
0.0
 40
2.4999981323127409
 50
179.99995719571311
 51
270.00004280428692
  0
LINE
  5
1B4
  8
0
  6
CONTINUOUS
 62
     7
 10
137.35405882892789
 20
106.3468939227285
 30
0.0
 11
137.35405882892789
 21
107.65450492272851
 31
0.0
  0
ARC
  5
1B5
  8
0
  6
CONTINUOUS
 62
     7
 10
142.3540674272196
 20
107.6545015493343
 30
0.0
 40
5.0000085982928804
 50
135.00004233647181
 51
179.9999613438163
  0
LINE
  5
1B6
  8
0
  6
CONTINUOUS
 62
     7
 10
138.81852482892779
 20
111.1900389227285
 30
0.0
 11
140.26091282892779
 21
112.6324269227285
 31
0.0
  0
ARC
  5
1B7
  8
0
  6
CONTINUOUS
 62
     7
 10
143.79645140943131
 20
109.0968848244368
 30
0.0
 40
5.0000090982938392
 50
90.00005248860738
 51
134.99997149595191
  0
LINE
  5
1B8
  8
0
  6
CONTINUOUS
 62
     7
 10
143.7964468289278
 20
114.0968939227285
 30
0.0
 11
150.91167082892781
 21
114.0968939227285
 31
0.0
  0
ARC
  5
1B9
  8
0
  6
CONTINUOUS
 62
     7
 10
150.91166624842441
 20
109.0968848244367
 30
0.0
 40
5.000009098293881
 50
45.000028504048203
 51
89.999947511392605
  0
LINE
  5
1BA
  8
0
  6
CONTINUOUS
 62
     7
 10
154.44720482892791
 20
112.6324269227285
 30
0.0
 11
155.8895928289279
 21
111.1900389227285
 31
0.0
  0
ARC
  5
1BB
  8
0
  6
CONTINUOUS
 62
     7
 10
152.35405023063609
 20
107.6545015493343
 30
0.0
 40
5.0000085982929079
 50
0.0000386561839953
 51
44.999957663528399
  0
LINE
  5
1BC
  8
0
  6
CONTINUOUS
 62
     7
 10
95.55405882892785
 20
103.64689392272849
 30
0.0
 11
91.354058828927847
 21
103.64689392272849
 31
0.0
  0
ARC
  5
1BD
  8
0
  6
CONTINUOUS
 62
     7
 10
91.354057185362436
 20
105.8468922791631
 30
0.0
 40
2.1999983564352039
 50
179.9999571957128
 51
270.0000428042872
  0
LINE
  5
1BE
  8
0
  6
CONTINUOUS
 62
     7
 10
89.154058828927845
 20
105.8468939227285
 30
0.0
 11
89.154058828927845
 21
110.0468939227285
 31
0.0
  0
LINE
  5
1BF
  8
0
  6
CONTINUOUS
 62
     7
 10
89.154058828927845
 20
110.0468939227285
 30
0.0
 11
95.55405882892785
 21
110.0468939227285
 31
0.0
  0
LINE
  5
1C0
  8
0
  6
CONTINUOUS
 62
     7
 10
95.55405882892785
 20
110.0468939227285
 30
0.0
 11
95.55405882892785
 21
103.64689392272849
 31
0.0
  0
LINE
  5
1C1
  8
0
  6
CONTINUOUS
 62
     7
 10
95.55405882892785
 20
180.04689392272849
 30
0.0
 11
91.354058828927847
 21
180.04689392272849
 31
0.0
  0
ARC
  5
1C2
  8
0
  6
CONTINUOUS
 62
     7
 10
91.354057185362436
 20
177.84689556629391
 30
0.0
 40
2.199998356435219
 50
89.999957195712824
 51
180.00004280428641
  0
LINE
  5
1C3
  8
0
  6
CONTINUOUS
 62
     7
 10
89.154058828927845
 20
177.8468939227285
 30
0.0
 11
89.154058828927845
 21
173.64689392272851
 31
0.0
  0
LINE
  5
1C4
  8
0
  6
CONTINUOUS
 62
     7
 10
89.154058828927845
 20
173.64689392272851
 30
0.0
 11
95.55405882892785
 21
173.64689392272851
 31
0.0
  0
LINE
  5
1C5
  8
0
  6
CONTINUOUS
 62
     7
 10
95.55405882892785
 20
173.64689392272851
 30
0.0
 11
95.55405882892785
 21
180.04689392272849
 31
0.0
  0
LINE
  5
1C6
  8
0
  6
CONTINUOUS
 62
     7
 10
143.38832982892791
 20
154.0968939227285
 30
0.0
 11
139.60405882892789
 21
157.88116492272849
 31
0.0
  0
LINE
  5
1C7
  8
0
  6
CONTINUOUS
 62
     7
 10
139.60405882892789
 20
157.88116492272849
 30
0.0
 11
139.60405882892789
 21
165.12166292272849
 31
0.0
  0
ARC
  5
1C8
  8
0
  6
CONTINUOUS
 62
     7
 10
134.60405023063609
 20
165.12165954933431
 30
0.0
 40
5.0000085982928804
 50
0.0000386561839953
 51
44.999957663528519
  0
LINE
  5
1C9
  8
0
  6
CONTINUOUS
 62
     7
 10
138.1395928289279
 20
168.6571969227285
 30
0.0
 11
135.61852482892789
 21
171.17826392272849
 31
0.0
  0
ARC
  5
1CA
  8
0
  6
CONTINUOUS
 62
     7
 10
139.15406742721959
 20
174.71380129612271
 30
0.0
 40
5.0000085982928777
 50
180.0000386561837
 51
224.99995766352811
  0
LINE
  5
1CB
  8
0
  6
CONTINUOUS
 62
     7
 10
134.1540588289279
 20
174.7137979227285
 30
0.0
 11
134.1540588289279
 21
175.3468939227285
 31
0.0
  0
ARC
  5
1CC
  8
0
  6
CONTINUOUS
 62
     7
 10
131.6540606966158
 20
175.34689579041651
 30
0.0
 40
2.4999981323127409
 50
359.99995719571308
 51
90.000042804286906
  0
LINE
  5
1CD
  8
0
  6
CONTINUOUS
 62
     7
 10
131.65405882892779
 20
177.8468939227285
 30
0.0
 11
123.05405882892789
 21
177.8468939227285
 31
0.0
  0
ARC
  5
1CE
  8
0
  6
CONTINUOUS
 62
     7
 10
123.05405696123989
 20
175.34689579041651
 30
0.0
 40
2.4999981323127409
 50
89.999957195713066
 51
180.00004280428689
  0
LINE
  5
1CF
  8
0
  6
CONTINUOUS
 62
     7
 10
120.55405882892779
 20
175.3468939227285
 30
0.0
 11
120.55405882892779
 21
174.7137979227285
 31
0.0
  0
ARC
  5
1D0
  8
0
  6
CONTINUOUS
 62
     7
 10
115.55405023063609
 20
174.71380129612271
 30
0.0
 40
5.0000085982928804
 50
315.00004233647149
 51
359.99996134381598
  0
LINE
  5
1D1
  8
0
  6
CONTINUOUS
 62
     7
 10
119.08959282892781
 20
171.17826392272849
 30
0.0
 11
116.56852482892781
 21
168.6571969227285
 31
0.0
  0
ARC
  5
1D2
  8
0
  6
CONTINUOUS
 62
     7
 10
120.1040674272195
 20
165.12165954933431
 30
0.0
 40
5.0000085982928582
 50
135.00004233647169
 51
179.9999613438163
  0
LINE
  5
1D3
  8
0
  6
CONTINUOUS
 62
     7
 10
115.1040588289278
 20
165.12166292272849
 30
0.0
 11
115.1040588289278
 21
157.88116492272849
 31
0.0
  0
LINE
  5
1D4
  8
0
  6
CONTINUOUS
 62
     7
 10
115.1040588289278
 20
157.88116492272849
 30
0.0
 11
111.3197878289278
 21
154.0968939227285
 31
0.0
  0
LINE
  5
1D5
  8
0
  6
CONTINUOUS
 62
     7
 10
111.3197878289278
 20
154.0968939227285
 30
0.0
 11
104.0792898289278
 21
154.0968939227285
 31
0.0
  0
ARC
  5
1D6
  8
0
  6
CONTINUOUS
 62
     7
 10
104.0792944094312
 20
149.09688482443681
 30
0.0
 40
5.0000090982938392
 50
90.000052488606897
 51
134.99997149595151
  0
LINE
  5
1D7
  8
0
  6
CONTINUOUS
 62
     7
 10
100.5437558289278
 20
152.63242692272851
 30
0.0
 11
98.022687828927857
 21
150.1113599227285
 31
0.0
  0
ARC
  5
1D8
  8
0
  6
CONTINUOUS
 62
     7
 10
94.487150455533609
 20
153.64690252102031
 30
0.0
 40
5.0000085982929079
 50
270.0000386561839
 51
314.99995766352851
  0
LINE
  5
1D9
  8
0
  6
CONTINUOUS
 62
     7
 10
94.487153828927845
 20
148.64689392272851
 30
0.0
 11
93.854058828927847
 21
148.64689392272851
 31
0.0
  0
ARC
  5
1DA
  8
0
  6
CONTINUOUS
 62
     7
 10
93.854056961239891
 20
146.14689579041641
 30
0.0
 40
2.4999981323127409
 50
89.999957195713066
 51
180.00004280428689
  0
LINE
  5
1DB
  8
0
  6
CONTINUOUS
 62
     7
 10
91.354058828927847
 20
146.14689392272851
 30
0.0
 11
91.354058828927847
 21
137.54689392272849
 31
0.0
  0
ARC
  5
1DC
  8
0
  6
CONTINUOUS
 62
     7
 10
93.854056961239891
 20
137.54689205504059
 30
0.0
 40
2.4999981323127409
 50
179.99995719571311
 51
270.00004280428692
  0
LINE
  5
1DD
  8
0
  6
CONTINUOUS
 62
     7
 10
93.854058828927847
 20
135.04689392272849
 30
0.0
 11
94.487153828927845
 21
135.04689392272849
 31
0.0
  0
ARC
  5
1DE
  8
0
  6
CONTINUOUS
 62
     7
 10
94.487149248424444
 20
130.04688482443669
 30
0.0
 40
5.0000090982938667
 50
45.000028504048423
 51
89.999947511392932
  0
LINE
  5
1DF
  8
0
  6
CONTINUOUS
 62
     7
 10
98.022687828927857
 20
133.5824269227285
 30
0.0
 11
100.5437558289278
 21
131.06135992272851
 31
0.0
  0
ARC
  5
1E0
  8
0
  6
CONTINUOUS
 62
     7
 10
104.07929320232201
 20
134.5969025210203
 30
0.0
 40
5.0000085982929177
 50
225.00004233647169
 51
269.99996134381621
  0
LINE
  5
1E1
  8
0
  6
CONTINUOUS
 62
     7
 10
104.0792898289278
 20
129.5968939227285
 30
0.0
 11
111.3197878289278
 21
129.5968939227285
 31
0.0
  0
LINE
  5
1E2
  8
0
  6
CONTINUOUS
 62
     7
 10
111.3197878289278
 20
129.5968939227285
 30
0.0
 11
115.1040588289278
 21
125.8126219227285
 31
0.0
  0
LINE
  5
1E3
  8
0
  6
CONTINUOUS
 62
     7
 10
115.1040588289278
 20
125.8126219227285
 30
0.0
 11
115.1040588289278
 21
118.57212392272849
 31
0.0
  0
ARC
  5
1E4
  8
0
  6
CONTINUOUS
 62
     7
 10
120.1040674272196
 20
118.5721272961227
 30
0.0
 40
5.0000085982928804
 50
180.00003865618351
 51
224.99995766352811
  0
LINE
  5
1E5
  8
0
  6
CONTINUOUS
 62
     7
 10
116.56852482892781
 20
115.0365899227285
 30
0.0
 11
119.08959282892781
 21
112.51552292272849
 31
0.0
  0
ARC
  5
1E6
  8
0
  6
CONTINUOUS
 62
     7
 10
115.55405023063599
 20
108.9799855493343
 30
0.0
 40
5.0000085982929079
 50
0.0000386561838325
 51
44.999957663528399
  0
LINE
  5
1E7
  8
0
  6
CONTINUOUS
 62
     7
 10
120.55405882892779
 20
108.9799889227285
 30
0.0
 11
120.55405882892779
 21
108.3468939227285
 31
0.0
  0
ARC
  5
1E8
  8
0
  6
CONTINUOUS
 62
     7
 10
123.05405696123989
 20
108.3468920550406
 30
0.0
 40
2.4999981323127409
 50
179.99995719571311
 51
270.00004280428692
  0
LINE
  5
1E9
  8
0
  6
CONTINUOUS
 62
     7
 10
123.05405882892789
 20
105.8468939227285
 30
0.0
 11
131.65405882892779
 21
105.8468939227285
 31
0.0
  0
ARC
  5
1EA
  8
0
  6
CONTINUOUS
 62
     7
 10
131.6540606966158
 20
108.3468920550406
 30
0.0
 40
2.4999981323127409
 50
269.99995719571308
 51
0.0000428042869152
  0
LINE
  5
1EB
  8
0
  6
CONTINUOUS
 62
     7
 10
134.1540588289279
 20
108.3468939227285
 30
0.0
 11
134.1540588289279
 21
108.9799889227285
 31
0.0
  0
ARC
  5
1EC
  8
0
  6
CONTINUOUS
 62
     7
 10
139.15406742721959
 20
108.9799855493343
 30
0.0
 40
5.0000085982929079
 50
135.00004233647201
 51
179.99996134381649
  0
LINE
  5
1ED
  8
0
  6
CONTINUOUS
 62
     7
 10
135.61852482892789
 20
112.51552292272849
 30
0.0
 11
138.1395928289279
 21
115.0365899227285
 31
0.0
  0
ARC
  5
1EE
  8
0
  6
CONTINUOUS
 62
     7
 10
134.60405023063609
 20
118.5721272961227
 30
0.0
 40
5.000008598292899
 50
315.00004233647172
 51
359.99996134381621
  0
LINE
  5
1EF
  8
0
  6
CONTINUOUS
 62
     7
 10
139.60405882892789
 20
118.57212392272849
 30
0.0
 11
139.60405882892789
 21
125.8126219227285
 31
0.0
  0
LINE
  5
1F0
  8
0
  6
CONTINUOUS
 62
     7
 10
139.60405882892789
 20
125.8126219227285
 30
0.0
 11
143.38832982892791
 21
129.5968939227285
 31
0.0
  0
LINE
  5
1F1
  8
0
  6
CONTINUOUS
 62
     7
 10
143.38832982892791
 20
129.5968939227285
 30
0.0
 11
150.77024982892789
 21
129.5968939227285
 31
0.0
  0
ARC
  5
1F2
  8
0
  6
CONTINUOUS
 62
     7
 10
150.7702459555336
 20
134.5969013139111
 30
0.0
 40
5.0000073911840923
 50
270.00004438576252
 51
314.99996339310701
  0
LINE
  5
1F3
  8
0
  6
CONTINUOUS
 62
     7
 10
154.3057828289279
 20
131.06135992272851
 30
0.0
 11
163.32354982892781
 21
140.07912692272851
 31
0.0
  0
ARC
  5
1F4
  8
0
  6
CONTINUOUS
 62
     7
 10
161.5557859702368
 20
141.8468934227285
 30
0.0
 40
2.4999974917220542
 50
314.9999571957128
 51
45.000042804286778
  0
LINE
  5
1F5
  8
0
  6
CONTINUOUS
 62
     7
 10
163.32354982892781
 20
143.61465992272849
 30
0.0
 11
154.3057828289279
 21
152.63242692272851
 31
0.0
  0
ARC
  5
1F6
  8
0
  6
CONTINUOUS
 62
     7
 10
150.77024474842449
 20
149.09688603154601
 30
0.0
 40
5.0000078911851293
 50
45.000022774466963
 51
89.9999417818117
  0
LINE
  5
1F7
  8
0
  6
CONTINUOUS
 62
     7
 10
150.77024982892789
 20
154.0968939227285
 30
0.0
 11
143.38832982892791
 21
154.0968939227285
 31
0.0
  0
LINE
  5
1F8
  8
0
  6
CONTINUOUS
 62
     7
 10
171.65405882892779
 20
177.8468939227285
 30
0.0
 11
163.05405882892791
 21
177.8468939227285
 31
0.0
  0
ARC
  5
1F9
  8
0
  6
CONTINUOUS
 62
     7
 10
163.05405696123989
 20
175.34689579041651
 30
0.0
 40
2.4999981323127409
 50
89.999957195713066
 51
180.00004280428689
  0
LINE
  5
1FA
  8
0
  6
CONTINUOUS
 62
     7
 10
160.55405882892791
 20
175.3468939227285
 30
0.0
 11
160.55405882892791
 21
174.7137979227285
 31
0.0
  0
ARC
  5
1FB
  8
0
  6
CONTINUOUS
 62
     7
 10
155.55405023063611
 20
174.71380129612271
 30
0.0
 40
5.0000085982928804
 50
315.00004233647149
 51
359.99996134381598
  0
LINE
  5
1FC
  8
0
  6
CONTINUOUS
 62
     7
 10
159.08959282892789
 20
171.17826392272849
 30
0.0
 11
156.56852482892791
 21
168.6571969227285
 31
0.0
  0
ARC
  5
1FD
  8
0
  6
CONTINUOUS
 62
     7
 10
160.1040674272196
 20
165.12165954933431
 30
0.0
 40
5.0000085982928582
 50
135.00004233647169
 51
179.9999613438163
  0
LINE
  5
1FE
  8
0
  6
CONTINUOUS
 62
     7
 10
155.10405882892789
 20
165.12166292272849
 30
0.0
 11
155.10405882892789
 21
158.4307029227285
 31
0.0
  0
ARC
  5
1FF
  8
0
  6
CONTINUOUS
 62
     7
 10
160.1040674272196
 20
158.43070629612271
 30
0.0
 40
5.0000085982928804
 50
180.0000386561837
 51
224.99995766352831
  0
LINE
  5
200
  8
0
  6
CONTINUOUS
 62
     7
 10
156.56852482892791
 20
154.89516892272849
 30
0.0
 11
165.5862918289279
 21
145.8774019227285
 31
0.0
  0
ARC
  5
201
  8
0
  6
CONTINUOUS
 62
     7
 10
167.35405882892789
 20
147.6451662814188
 30
0.0
 40
2.4999981988282709
 50
224.99995719571291
 51
315.0000428042872
  0
LINE
  5
202
  8
0
  6
CONTINUOUS
 62
     7
 10
169.12182582892791
 20
145.8774019227285
 30
0.0
 11
178.1395928289279
 21
154.89516892272849
 31
0.0
  0
ARC
  5
203
  8
0
  6
CONTINUOUS
 62
     7
 10
174.60405023063609
 20
158.43070629612271
 30
0.0
 40
5.0000085982929177
 50
315.00004233647149
 51
359.99996134381598
  0
LINE
  5
204
  8
0
  6
CONTINUOUS
 62
     7
 10
179.60405882892789
 20
158.4307029227285
 30
0.0
 11
179.60405882892789
 21
165.12166292272849
 31
0.0
  0
ARC
  5
205
  8
0
  6
CONTINUOUS
 62
     7
 10
174.6040502306362
 20
165.12165954933431
 30
0.0
 40
5.0000085982928804
 50
0.0000386561839953
 51
44.999957663528519
  0
LINE
  5
206
  8
0
  6
CONTINUOUS
 62
     7
 10
178.1395928289279
 20
168.6571969227285
 30
0.0
 11
175.61852482892789
 21
171.17826392272849
 31
0.0
  0
ARC
  5
207
  8
0
  6
CONTINUOUS
 62
     7
 10
179.15406742721959
 20
174.71380129612271
 30
0.0
 40
5.0000085982928777
 50
180.0000386561837
 51
224.99995766352811
  0
LINE
  5
208
  8
0
  6
CONTINUOUS
 62
     7
 10
174.15405882892779
 20
174.7137979227285
 30
0.0
 11
174.15405882892779
 21
175.3468939227285
 31
0.0
  0
ARC
  5
209
  8
0
  6
CONTINUOUS
 62
     7
 10
171.6540606966158
 20
175.34689579041651
 30
0.0
 40
2.4999981323127409
 50
359.99995719571308
 51
90.000042804286906
  0
LINE
  5
20A
  8
0
  6
CONTINUOUS
 62
     7
 10
171.65405882892779
 20
177.8468939227285
 30
0.0
 11
171.65405882892779
 21
177.8468939227285
 31
0.0
  0
LINE
  5
20B
  8
0
  6
CONTINUOUS
 62
     7
 10
171.65405882892779
 20
105.8468939227285
 30
0.0
 11
163.05405882892791
 21
105.8468939227285
 31
0.0
  0
ARC
  5
20C
  8
0
  6
CONTINUOUS
 62
     7
 10
163.05405696123989
 20
108.3468920550406
 30
0.0
 40
2.4999981323127409
 50
179.99995719571311
 51
270.00004280428692
  0
LINE
  5
20D
  8
0
  6
CONTINUOUS
 62
     7
 10
160.55405882892791
 20
108.3468939227285
 30
0.0
 11
160.55405882892791
 21
108.9799889227285
 31
0.0
  0
ARC
  5
20E
  8
0
  6
CONTINUOUS
 62
     7
 10
155.55405023063611
 20
108.9799855493343
 30
0.0
 40
5.0000085982929079
 50
0.0000386561838325
 51
44.999957663528399
  0
LINE
  5
20F
  8
0
  6
CONTINUOUS
 62
     7
 10
159.08959282892789
 20
112.51552292272849
 30
0.0
 11
156.56852482892791
 21
115.0365899227285
 31
0.0
  0
ARC
  5
210
  8
0
  6
CONTINUOUS
 62
     7
 10
160.1040674272196
 20
118.5721272961227
 30
0.0
 40
5.0000085982928777
 50
180.00003865618351
 51
224.99995766352811
  0
LINE
  5
211
  8
0
  6
CONTINUOUS
 62
     7
 10
155.10405882892789
 20
118.57212392272849
 30
0.0
 11
155.10405882892789
 21
125.2630839227285
 31
0.0
  0
ARC
  5
212
  8
0
  6
CONTINUOUS
 62
     7
 10
160.1040674272196
 20
125.2630805493343
 30
0.0
 40
5.000008598292851
 50
135.00004233647169
 51
179.9999613438163
  0
LINE
  5
213
  8
0
  6
CONTINUOUS
 62
     7
 10
156.56852482892791
 20
128.79861792272851
 30
0.0
 11
165.5862918289279
 21
137.8163849227285
 31
0.0
  0
ARC
  5
214
  8
0
  6
CONTINUOUS
 62
     7
 10
167.35405882892789
 20
136.0486205640382
 30
0.0
 40
2.4999981988282811
 50
44.999957195713122
 51
135.00004280428681
  0
LINE
  5
215
  8
0
  6
CONTINUOUS
 62
     7
 10
169.12182582892791
 20
137.8163849227285
 30
0.0
 11
178.1395928289279
 21
128.79861792272851
 31
0.0
  0
ARC
  5
216
  8
0
  6
CONTINUOUS
 62
     7
 10
174.6040502306362
 20
125.2630805493343
 30
0.0
 40
5.0000085982928777
 50
0.0000386561839953
 51
44.999957663528519
  0
LINE
  5
217
  8
0
  6
CONTINUOUS
 62
     7
 10
179.60405882892789
 20
125.2630839227285
 30
0.0
 11
179.60405882892789
 21
118.57212392272849
 31
0.0
  0
ARC
  5
218
  8
0
  6
CONTINUOUS
 62
     7
 10
174.60405023063609
 20
118.5721272961227
 30
0.0
 40
5.0000085982929079
 50
315.00004233647172
 51
359.99996134381621
  0
LINE
  5
219
  8
0
  6
CONTINUOUS
 62
     7
 10
178.1395928289279
 20
115.0365899227285
 30
0.0
 11
175.61852482892789
 21
112.51552292272849
 31
0.0
  0
ARC
  5
21A
  8
0
  6
CONTINUOUS
 62
     7
 10
179.15406742721959
 20
108.9799855493343
 30
0.0
 40
5.0000085982929079
 50
135.00004233647201
 51
179.99996134381649
  0
LINE
  5
21B
  8
0
  6
CONTINUOUS
 62
     7
 10
174.15405882892779
 20
108.9799889227285
 30
0.0
 11
174.15405882892779
 21
108.3468939227285
 31
0.0
  0
ARC
  5
21C
  8
0
  6
CONTINUOUS
 62
     7
 10
171.6540606966158
 20
108.3468920550406
 30
0.0
 40
2.4999981323127409
 50
269.99995719571308
 51
0.0000428042869152
  0
LINE
  5
21D
  8
0
  6
CONTINUOUS
 62
     7
 10
171.65405882892779
 20
105.8468939227285
 30
0.0
 11
171.65405882892779
 21
105.8468939227285
 31
0.0
  0
LINE
  5
21E
  8
0
  6
CONTINUOUS
 62
     7
 10
191.31978782892779
 20
154.0968939227285
 30
0.0
 11
195.10405882892789
 21
157.88116492272849
 31
0.0
  0
LINE
  5
21F
  8
0
  6
CONTINUOUS
 62
     7
 10
195.10405882892789
 20
157.88116492272849
 30
0.0
 11
195.10405882892789
 21
165.12166292272849
 31
0.0
  0
ARC
  5
220
  8
0
  6
CONTINUOUS
 62
     7
 10
200.1040674272196
 20
165.12165954933431
 30
0.0
 40
5.0000085982928804
 50
135.00004233647141
 51
179.99996134381601
  0
LINE
  5
221
  8
0
  6
CONTINUOUS
 62
     7
 10
196.56852482892791
 20
168.6571969227285
 30
0.0
 11
199.08959282892789
 21
171.17826392272849
 31
0.0
  0
ARC
  5
222
  8
0
  6
CONTINUOUS
 62
     7
 10
195.55405023063611
 20
174.71380129612271
 30
0.0
 40
5.0000085982928777
 50
315.00004233647149
 51
359.99996134381598
  0
LINE
  5
223
  8
0
  6
CONTINUOUS
 62
     7
 10
200.55405882892791
 20
174.7137979227285
 30
0.0
 11
200.55405882892791
 21
175.3468939227285
 31
0.0
  0
ARC
  5
224
  8
0
  6
CONTINUOUS
 62
     7
 10
203.05405696124001
 20
175.34689579041651
 30
0.0
 40
2.4999981323127409
 50
89.999957195713066
 51
180.00004280428689
  0
LINE
  5
225
  8
0
  6
CONTINUOUS
 62
     7
 10
203.05405882892791
 20
177.8468939227285
 30
0.0
 11
211.6540588289279
 21
177.8468939227285
 31
0.0
  0
ARC
  5
226
  8
0
  6
CONTINUOUS
 62
     7
 10
211.6540606966158
 20
175.34689579041651
 30
0.0
 40
2.4999981323127409
 50
359.99995719571308
 51
90.000042804286906
  0
LINE
  5
227
  8
0
  6
CONTINUOUS
 62
     7
 10
214.1540588289279
 20
175.3468939227285
 30
0.0
 11
214.1540588289279
 21
174.7137979227285
 31
0.0
  0
ARC
  5
228
  8
0
  6
CONTINUOUS
 62
     7
 10
219.15406742721959
 20
174.71380129612271
 30
0.0
 40
5.0000085982928804
 50
180.00003865618399
 51
224.99995766352859
  0
LINE
  5
229
  8
0
  6
CONTINUOUS
 62
     7
 10
215.61852482892789
 20
171.17826392272849
 30
0.0
 11
218.1395928289279
 21
168.6571969227285
 31
0.0
  0
ARC
  5
22A
  8
0
  6
CONTINUOUS
 62
     7
 10
214.6040502306362
 20
165.12165954933431
 30
0.0
 40
5.0000085982928777
 50
0.0000386561839953
 51
44.999957663528519
  0
LINE
  5
22B
  8
0
  6
CONTINUOUS
 62
     7
 10
219.60405882892789
 20
165.12166292272849
 30
0.0
 11
219.60405882892789
 21
157.88116492272849
 31
0.0
  0
LINE
  5
22C
  8
0
  6
CONTINUOUS
 62
     7
 10
219.60405882892789
 20
157.88116492272849
 30
0.0
 11
223.38832982892791
 21
154.0968939227285
 31
0.0
  0
LINE
  5
22D
  8
0
  6
CONTINUOUS
 62
     7
 10
223.38832982892791
 20
154.0968939227285
 30
0.0
 11
230.62882782892791
 21
154.0968939227285
 31
0.0
  0
ARC
  5
22E
  8
0
  6
CONTINUOUS
 62
     7
 10
230.62882324842451
 20
149.09688482443681
 30
0.0
 40
5.0000090982938099
 50
45.000028504048323
 51
89.999947511392932
  0
LINE
  5
22F
  8
0
  6
CONTINUOUS
 62
     7
 10
234.16436182892789
 20
152.63242692272851
 30
0.0
 11
236.68542982892791
 21
150.1113599227285
 31
0.0
  0
ARC
  5
230
  8
0
  6
CONTINUOUS
 62
     7
 10
240.2209672023221
 20
153.64690252102019
 30
0.0
 40
5.0000085982928377
 50
225.00004233647149
 51
269.99996134381598
  0
LINE
  5
231
  8
0
  6
CONTINUOUS
 62
     7
 10
240.22096382892781
 20
148.64689392272851
 30
0.0
 11
240.8540588289278
 21
148.64689392272851
 31
0.0
  0
ARC
  5
232
  8
0
  6
CONTINUOUS
 62
     7
 10
240.85406069661579
 20
146.14689579041641
 30
0.0
 40
2.4999981323127409
 50
359.99995719571308
 51
90.000042804286906
  0
LINE
  5
233
  8
0
  6
CONTINUOUS
 62
     7
 10
243.35405882892789
 20
146.14689392272851
 30
0.0
 11
243.35405882892789
 21
137.54689392272849
 31
0.0
  0
ARC
  5
234
  8
0
  6
CONTINUOUS
 62
     7
 10
240.85406069661579
 20
137.54689205504059
 30
0.0
 40
2.4999981323127409
 50
269.99995719571308
 51
0.0000428042869152
  0
LINE
  5
235
  8
0
  6
CONTINUOUS
 62
     7
 10
240.8540588289278
 20
135.04689392272849
 30
0.0
 11
240.22096382892781
 21
135.04689392272849
 31
0.0
  0
ARC
  5
236
  8
0
  6
CONTINUOUS
 62
     7
 10
240.22096840943121
 20
130.0468848244368
 30
0.0
 40
5.0000090982937957
 50
90.000052488607068
 51
134.99997149595171
  0
LINE
  5
237
  8
0
  6
CONTINUOUS
 62
     7
 10
236.68542982892791
 20
133.5824269227285
 30
0.0
 11
234.16436182892789
 21
131.06135992272851
 31
0.0
  0
ARC
  5
238
  8
0
  6
CONTINUOUS
 62
     7
 10
230.6288244555337
 20
134.5969025210203
 30
0.0
 40
5.0000085982928777
 50
270.00003865618402
 51
314.99995766352851
  0
LINE
  5
239
  8
0
  6
CONTINUOUS
 62
     7
 10
230.62882782892791
 20
129.5968939227285
 30
0.0
 11
223.38832982892791
 21
129.5968939227285
 31
0.0
  0
LINE
  5
23A
  8
0
  6
CONTINUOUS
 62
     7
 10
223.38832982892791
 20
129.5968939227285
 30
0.0
 11
219.60405882892789
 21
125.8126219227285
 31
0.0
  0
LINE
  5
23B
  8
0
  6
CONTINUOUS
 62
     7
 10
219.60405882892789
 20
125.8126219227285
 30
0.0
 11
219.60405882892789
 21
118.57212392272849
 31
0.0
  0
ARC
  5
23C
  8
0
  6
CONTINUOUS
 62
     7
 10
214.60405023063609
 20
118.5721272961227
 30
0.0
 40
5.0000085982929079
 50
315.00004233647172
 51
359.99996134381621
  0
LINE
  5
23D
  8
0
  6
CONTINUOUS
 62
     7
 10
218.1395928289279
 20
115.0365899227285
 30
0.0
 11
215.61852482892789
 21
112.51552292272849
 31
0.0
  0
ARC
  5
23E
  8
0
  6
CONTINUOUS
 62
     7
 10
219.1540674272197
 20
108.9799855493343
 30
0.0
 40
5.0000085982929079
 50
135.00004233647161
 51
179.99996134381621
  0
LINE
  5
23F
  8
0
  6
CONTINUOUS
 62
     7
 10
214.1540588289279
 20
108.9799889227285
 30
0.0
 11
214.1540588289279
 21
108.3468939227285
 31
0.0
  0
ARC
  5
240
  8
0
  6
CONTINUOUS
 62
     7
 10
211.6540606966158
 20
108.3468920550406
 30
0.0
 40
2.4999981323127409
 50
269.99995719571308
 51
0.0000428042869152
  0
LINE
  5
241
  8
0
  6
CONTINUOUS
 62
     7
 10
211.6540588289279
 20
105.8468939227285
 30
0.0
 11
203.05405882892791
 21
105.8468939227285
 31
0.0
  0
ARC
  5
242
  8
0
  6
CONTINUOUS
 62
     7
 10
203.05405696124001
 20
108.3468920550406
 30
0.0
 40
2.4999981323127409
 50
179.99995719571311
 51
270.00004280428692
  0
LINE
  5
243
  8
0
  6
CONTINUOUS
 62
     7
 10
200.55405882892791
 20
108.3468939227285
 30
0.0
 11
200.55405882892791
 21
108.9799889227285
 31
0.0
  0
ARC
  5
244
  8
0
  6
CONTINUOUS
 62
     7
 10
195.55405023063611
 20
108.9799855493343
 30
0.0
 40
5.0000085982929079
 50
0.0000386561838325
 51
44.999957663528399
  0
LINE
  5
245
  8
0
  6
CONTINUOUS
 62
     7
 10
199.08959282892789
 20
112.51552292272849
 30
0.0
 11
196.56852482892791
 21
115.0365899227285
 31
0.0
  0
ARC
  5
246
  8
0
  6
CONTINUOUS
 62
     7
 10
200.1040674272196
 20
118.5721272961227
 30
0.0
 40
5.000008598292899
 50
180.00003865618379
 51
224.99995766352831
  0
LINE
  5
247
  8
0
  6
CONTINUOUS
 62
     7
 10
195.10405882892789
 20
118.57212392272849
 30
0.0
 11
195.10405882892789
 21
125.8126219227285
 31
0.0
  0
LINE
  5
248
  8
0
  6
CONTINUOUS
 62
     7
 10
195.10405882892789
 20
125.8126219227285
 30
0.0
 11
191.31978782892779
 21
129.5968939227285
 31
0.0
  0
LINE
  5
249
  8
0
  6
CONTINUOUS
 62
     7
 10
191.31978782892779
 20
129.5968939227285
 30
0.0
 11
183.93786882892789
 21
129.5968939227285
 31
0.0
  0
ARC
  5
24A
  8
0
  6
CONTINUOUS
 62
     7
 10
183.9378722023221
 20
134.5969025210203
 30
0.0
 40
5.0000085982928804
 50
225.00004233647149
 51
269.99996134381598
  0
LINE
  5
24B
  8
0
  6
CONTINUOUS
 62
     7
 10
180.40233482892791
 20
131.06135992272851
 30
0.0
 11
171.3845678289278
 21
140.07912692272851
 31
0.0
  0
ARC
  5
24C
  8
0
  6
CONTINUOUS
 62
     7
 10
173.1523316876189
 20
141.8468934227285
 30
0.0
 40
2.4999974917220542
 50
134.99995719571319
 51
225.00004280428729
  0
LINE
  5
24D
  8
0
  6
CONTINUOUS
 62
     7
 10
171.3845678289278
 20
143.61465992272849
 30
0.0
 11
180.40233482892791
 21
152.63242692272851
 31
0.0
  0
ARC
  5
24E
  8
0
  6
CONTINUOUS
 62
     7
 10
183.93787340943129
 20
149.09688482443681
 30
0.0
 40
5.000009098293817
 50
90.000052488607068
 51
134.99997149595171
  0
LINE
  5
24F
  8
0
  6
CONTINUOUS
 62
     7
 10
183.93786882892789
 20
154.0968939227285
 30
0.0
 11
191.31978782892779
 21
154.0968939227285
 31
0.0
  0
LINE
  5
250
  8
0
  6
CONTINUOUS
 62
     7
 10
239.1540588289279
 20
103.64689392272849
 30
0.0
 11
243.35405882892789
 21
103.64689392272849
 31
0.0
  0
ARC
  5
251
  8
0
  6
CONTINUOUS
 62
     7
 10
243.3540604724933
 20
105.8468922791631
 30
0.0
 40
2.1999983564352039
 50
269.99995719571359
 51
0.0000428042871817
  0
LINE
  5
252
  8
0
  6
CONTINUOUS
 62
     7
 10
245.55405882892791
 20
105.8468939227285
 30
0.0
 11
245.55405882892791
 21
110.0468939227285
 31
0.0
  0
LINE
  5
253
  8
0
  6
CONTINUOUS
 62
     7
 10
245.55405882892791
 20
110.0468939227285
 30
0.0
 11
239.1540588289279
 21
110.0468939227285
 31
0.0
  0
LINE
  5
254
  8
0
  6
CONTINUOUS
 62
     7
 10
239.1540588289279
 20
110.0468939227285
 30
0.0
 11
239.1540588289279
 21
103.64689392272849
 31
0.0
  0
LINE
  5
255
  8
0
  6
CONTINUOUS
 62
     7
 10
239.1540588289279
 20
180.04689392272849
 30
0.0
 11
243.35405882892789
 21
180.04689392272849
 31
0.0
  0
ARC
  5
256
  8
0
  6
CONTINUOUS
 62
     7
 10
243.3540604724933
 20
177.84689556629391
 30
0.0
 40
2.1999983564351901
 50
359.9999571957128
 51
90.000042804286437
  0
LINE
  5
257
  8
0
  6
CONTINUOUS
 62
     7
 10
245.55405882892791
 20
177.8468939227285
 30
0.0
 11
245.55405882892791
 21
173.64689392272851
 31
0.0
  0
LINE
  5
258
  8
0
  6
CONTINUOUS
 62
     7
 10
245.55405882892791
 20
173.64689392272851
 30
0.0
 11
239.1540588289279
 21
173.64689392272851
 31
0.0
  0
LINE
  5
259
  8
0
  6
CONTINUOUS
 62
     7
 10
239.1540588289279
 20
173.64689392272851
 30
0.0
 11
239.1540588289279
 21
180.04689392272849
 31
0.0
  0
LINE
  5
264
  8
0
  6
CONTINUOUS
 62
     7
 10
232.85405882892789
 20
181.8468939227285
 30
0.0
 11
243.35405882892789
 21
181.8468939227285
 31
0.0
  0
LINE
  5
267
  8
0
  6
CONTINUOUS
 62
     7
 10
247.35405882892789
 20
167.3468939227285
 30
0.0
 11
247.35405882892789
 21
177.8468939227285
 31
0.0
  0
ARC
  5
268
  8
0
  6
CONTINUOUS
 62
     7
 10
91.354058828927862
 20
177.8468939227285
 30
0.0
 40
4.0
 50
90.0
 51
180.0
  0
ARC
  5
269
  8
0
  6
CONTINUOUS
 62
     7
 10
91.354058828927862
 20
105.8468939227285
 30
0.0
 40
4.0
 50
180.0
 51
270.0
  0
ARC
  5
26A
  8
0
  6
CONTINUOUS
 62
     7
 10
243.35405882892789
 20
105.8468939227285
 30
0.0
 40
4.0
 50
270.0
 51
0.0
  0
ARC
  5
26B
  8
0
  6
CONTINUOUS
 62
     7
 10
243.35405882892789
 20
177.8468939227285
 30
0.0
 40
4.0
 50
0.0
 51
90.0
  0
ARC
  5
26C
  8
0
  6
CONTINUOUS
 62
     7
 10
232.85405882892789
 20
180.3468939227285
 30
0.0
 40
1.5
 50
90.000000000000014
 51
180.0
  0
LINE
  5
26D
  8
0
  6
CONTINUOUS
 62
     7
 10
192.85405882892789
 20
181.8468939227285
 30
0.0
 11
221.85405882892789
 21
181.8468939227285
 31
0.0
  0
ARC
  5
26E
  8
0
  6
CONTINUOUS
 62
     7
 10
221.85405882892789
 20
180.3468939227285
 30
0.0
 40
1.5
 50
0.0
 51
90.0
  0
ARC
  5
26F
  8
0
  6
CONTINUOUS
 62
     7
 10
192.85405882892789
 20
180.3468939227285
 30
0.0
 40
1.5
 50
90.0
 51
180.0
  0
LINE
  5
270
  8
0
  6
CONTINUOUS
 62
     7
 10
152.85405882892789
 20
181.8468939227285
 30
0.0
 11
181.85405882892789
 21
181.8468939227285
 31
0.0
  0
ARC
  5
271
  8
0
  6
CONTINUOUS
 62
     7
 10
181.85405882892789
 20
180.3468939227285
 30
0.0
 40
1.5
 50
0.0
 51
90.0
  0
ARC
  5
272
  8
0
  6
CONTINUOUS
 62
     7
 10
152.85405882892789
 20
180.3468939227285
 30
0.0
 40
1.5
 50
90.0
 51
180.0
  0
LINE
  5
273
  8
0
  6
CONTINUOUS
 62
     7
 10
112.8540588289278
 20
181.8468939227285
 30
0.0
 11
141.85405882892789
 21
181.8468939227285
 31
0.0
  0
ARC
  5
274
  8
0
  6
CONTINUOUS
 62
     7
 10
141.85405882892789
 20
180.3468939227285
 30
0.0
 40
1.5
 50
0.0
 51
90.0
  0
ARC
  5
275
  8
0
  6
CONTINUOUS
 62
     7
 10
112.8540588289278
 20
180.3468939227285
 30
0.0
 40
1.5
 50
90.0
 51
180.0
  0
LINE
  5
276
  8
0
  6
CONTINUOUS
 62
     7
 10
91.354058828927862
 20
181.8468939227285
 30
0.0
 11
101.8540588289278
 21
181.8468939227285
 31
0.0
  0
ARC
  5
277
  8
0
  6
CONTINUOUS
 62
     7
 10
101.8540588289278
 20
180.3468939227285
 30
0.0
 40
1.5
 50
0.0
 51
90.0
  0
LINE
  5
278
  8
0
  6
CONTINUOUS
 62
     7
 10
112.8540588289278
 20
101.8468939227285
 30
0.0
 11
141.85405882892789
 21
101.8468939227285
 31
0.0
  0
LINE
  5
279
  8
0
  6
CONTINUOUS
 62
     7
 10
91.354058828927862
 20
101.8468939227285
 30
0.0
 11
101.8540588289278
 21
101.8468939227285
 31
0.0
  0
LINE
  5
27A
  8
0
  6
CONTINUOUS
 62
     7
 10
152.85405882892789
 20
101.8468939227285
 30
0.0
 11
181.85405882892789
 21
101.8468939227285
 31
0.0
  0
LINE
  5
27B
  8
0
  6
CONTINUOUS
 62
     7
 10
192.85405882892789
 20
101.8468939227285
 30
0.0
 11
221.85405882892789
 21
101.8468939227285
 31
0.0
  0
LINE
  5
27C
  8
0
  6
CONTINUOUS
 62
     7
 10
232.85405882892789
 20
101.8468939227285
 30
0.0
 11
243.35405882892789
 21
101.8468939227285
 31
0.0
  0
ARC
  5
27D
  8
0
  6
CONTINUOUS
 62
     7
 10
101.8540588289278
 20
103.3468939227285
 30
0.0
 40
1.5
 50
270.0
 51
0.0
  0
ARC
  5
27E
  8
0
  6
CONTINUOUS
 62
     7
 10
112.8540588289278
 20
103.3468939227285
 30
0.0
 40
1.5
 50
180.0
 51
270.0
  0
ARC
  5
27F
  8
0
  6
CONTINUOUS
 62
     7
 10
141.85405882892789
 20
103.3468939227285
 30
0.0
 40
1.5
 50
270.0
 51
0.0
  0
ARC
  5
280
  8
0
  6
CONTINUOUS
 62
     7
 10
152.85405882892789
 20
103.3468939227285
 30
0.0
 40
1.5
 50
180.0
 51
270.0
  0
ARC
  5
281
  8
0
  6
CONTINUOUS
 62
     7
 10
181.85405882892789
 20
103.3468939227285
 30
0.0
 40
1.5
 50
270.0
 51
0.0
  0
ARC
  5
282
  8
0
  6
CONTINUOUS
 62
     7
 10
192.85405882892789
 20
103.3468939227285
 30
0.0
 40
1.5
 50
180.0
 51
270.0
  0
ARC
  5
283
  8
0
  6
CONTINUOUS
 62
     7
 10
232.85405882892789
 20
103.3468939227285
 30
0.0
 40
1.5
 50
180.0
 51
270.0
  0
ARC
  5
284
  8
0
  6
CONTINUOUS
 62
     7
 10
221.85405882892789
 20
103.3468939227285
 30
0.0
 40
1.5
 50
270.0
 51
0.0
  0
ARC
  5
285
  8
0
  6
CONTINUOUS
 62
     7
 10
245.85405882892789
 20
167.3468939227285
 30
0.0
 40
1.5
 50
270.0
 51
0.0000000000000254
  0
LINE
  5
286
  8
0
  6
CONTINUOUS
 62
     7
 10
247.35405882892789
 20
127.3468939227285
 30
0.0
 11
247.35405882892789
 21
156.3468939227285
 31
0.0
  0
ARC
  5
287
  8
0
  6
CONTINUOUS
 62
     7
 10
245.85405882892789
 20
156.3468939227285
 30
0.0
 40
1.5
 50
0.0
 51
90.0
  0
ARC
  5
288
  8
0
  6
CONTINUOUS
 62
     7
 10
245.85405882892789
 20
127.3468939227285
 30
0.0
 40
1.5
 50
270.0
 51
0.0000000000000382
  0
LINE
  5
289
  8
0
  6
CONTINUOUS
 62
     7
 10
247.35405882892789
 20
105.8468939227285
 30
0.0
 11
247.35405882892789
 21
116.3468939227285
 31
0.0
  0
ARC
  5
28A
  8
0
  6
CONTINUOUS
 62
     7
 10
245.85405882892789
 20
116.3468939227285
 30
0.0
 40
1.5
 50
0.0
 51
90.0
  0
LINE
  5
28B
  8
0
  6
CONTINUOUS
 62
     7
 10
87.354058828927904
 20
127.3468939227285
 30
0.0
 11
87.354058828927947
 21
156.3468939227285
 31
0.0
  0
LINE
  5
28C
  8
0
  6
CONTINUOUS
 62
     7
 10
87.354058828927904
 20
105.8468939227285
 30
0.0
 11
87.354058828927947
 21
116.3468939227285
 31
0.0
  0
LINE
  5
28D
  8
0
  6
CONTINUOUS
 62
     7
 10
87.354058828927904
 20
167.3468939227285
 30
0.0
 11
87.354058828927947
 21
177.8468939227285
 31
0.0
  0
ARC
  5
28E
  8
0
  6
CONTINUOUS
 62
     7
 10
88.854058828927947
 20
156.3468939227285
 30
0.0
 40
1.5
 50
90.0
 51
180.0
  0
ARC
  5
28F
  8
0
  6
CONTINUOUS
 62
     7
 10
88.854058828927919
 20
167.3468939227285
 30
0.0
 40
1.5
 50
180.0
 51
270.0
  0
ARC
  5
290
  8
0
  6
CONTINUOUS
 62
     7
 10
88.854058828927947
 20
116.3468939227285
 30
0.0
 40
1.5
 50
90.0
 51
180.0
  0
ARC
  5
291
  8
0
  6
CONTINUOUS
 62
     7
 10
88.854058828927919
 20
127.3468939227285
 30
0.0
 40
1.5
 50
179.99999999999989
 51
270.0
  0
LINE
  5
292
  8
0
  6
CONTINUOUS
 62
     7
 10
72.196383744124134
 20
181.8468939227285
 30
0.0
 11
12.19638374412415
 21
181.8468939227285
 31
0.0
  0
LINE
  5
293
  8
0
  6
CONTINUOUS
 62
     7
 10
72.196383744124134
 20
101.8468939227285
 30
0.0
 11
12.19638374412415
 21
101.8468939227285
 31
0.0
  0
LINE
  5
294
  8
0
  6
CONTINUOUS
 62
     7
 10
87.354058828927876
 20
198.2330869227286
 30
0.0
 11
87.354058828927862
 21
258.23308692272849
 31
0.0
  0
LINE
  5
295
  8
0
  6
CONTINUOUS
 62
     7
 10
247.3540588289278
 20
198.23308692272849
 30
0.0
 11
247.3540588289278
 21
258.23308692272849
 31
0.0
  0
LINE
  5
296
  8
0
  6
CONTINUOUS
 62
     7
 10
262.51173391373169
 20
181.8468939227285
 30
0.0
 11
262.51173391373169
 21
101.8468939227285
 31
0.0
  0
LINE
  5
297
  8
0
  6
CONTINUOUS
 62
     7
 10
322.51173391373169
 20
181.8468939227285
 30
0.0
 11
322.51173391373169
 21
101.8468939227285
 31
0.0
  0
LINE
  5
298
  8
0
  6
CONTINUOUS
 62
     7
 10
262.51173391373169
 20
101.8468939227285
 30
0.0
 11
322.51173391373169
 21
101.8468939227285
 31
0.0
  0
LINE
  5
299
  8
0
  6
CONTINUOUS
 62
     7
 10
262.51173391373169
 20
125.8468949227285
 30
0.0
 11
322.51173391373169
 21
125.8468949227285
 31
0.0
  0
LINE
  5
29A
  8
0
  6
CONTINUOUS
 62
     7
 10
262.51173391373169
 20
117.8468949227285
 30
0.0
 11
322.51173391373169
 21
117.8468949227285
 31
0.0
  0
LINE
  5
29B
  8
0
  6
CENTER
 62
     1
 10
257.51173391373169
 20
121.8468949227285
 30
0.0
 11
327.51173391373169
 21
121.8468949227285
 31
0.0
  0
LINE
  5
29C
  8
0
  6
CONTINUOUS
 62
     7
 10
262.51173391373169
 20
181.8468939227285
 30
0.0
 11
322.51173391373169
 21
181.8468939227285
 31
0.0
  0
LINE
  5
29D
  8
0
  6
CONTINUOUS
 62
     7
 10
262.51173391373169
 20
165.8468929227285
 30
0.0
 11
322.51173391373169
 21
165.8468929227285
 31
0.0
  0
LINE
  5
29E
  8
0
  6
CONTINUOUS
 62
     7
 10
262.51173391373169
 20
157.8468929227285
 30
0.0
 11
322.51173391373169
 21
157.8468929227285
 31
0.0
  0
LINE
  5
29F
  8
0
  6
CENTER
 62
     1
 10
257.51173391373169
 20
161.8468929227285
 30
0.0
 11
327.51173391373169
 21
161.8468929227285
 31
0.0
  0
LINE
  5
2A0
  8
0
  6
CONTINUOUS
 62
     7
 10
247.3540588289278
 20
25.460700922728559
 30
0.0
 11
87.354058828927876
 21
25.460700922728559
 31
0.0
  0
LINE
  5
2A1
  8
0
  6
CONTINUOUS
 62
     7
 10
247.35405882892789
 20
85.460700922728506
 30
0.0
 11
87.354058828927862
 21
85.460700922728464
 31
0.0
  0
LINE
  5
2A2
  8
0
  6
CONTINUOUS
 62
     7
 10
87.354058828927876
 20
85.460700922728449
 30
0.0
 11
87.354058828927862
 21
25.460700922728559
 31
0.0
  0
LINE
  5
2A3
  8
0
  6
CENTER
 62
     1
 10
147.35366482892789
 20
92.958700922728497
 30
0.0
 11
147.35366482892789
 21
22.9587009227285
 31
0.0
  0
LINE
  5
2A4
  8
0
  6
CENTER
 62
     1
 10
187.35366482892789
 20
92.958700922728497
 30
0.0
 11
187.35366482892789
 21
22.9587009227285
 31
0.0
  0
LINE
  5
2A5
  8
0
  6
CONTINUOUS
 62
     7
 10
183.35366482892789
 20
85.460700922728506
 30
0.0
 11
183.35366482892789
 21
25.460700922728559
 31
0.0
  0
LINE
  5
2A6
  8
0
  6
CONTINUOUS
 62
     7
 10
143.35366482892789
 20
85.460700922728506
 30
0.0
 11
143.35366482892789
 21
25.460700922728559
 31
0.0
  0
LINE
  5
2A7
  8
0
  6
CONTINUOUS
 62
     7
 10
151.35366482892789
 20
85.460700922728506
 30
0.0
 11
151.35366482892789
 21
25.460700922728559
 31
0.0
  0
LINE
  5
2A8
  8
0
  6
CENTER
 62
     1
 10
107.3536648289278
 20
92.958700922728497
 30
0.0
 11
107.3536648289278
 21
22.9587009227285
 31
0.0
  0
LINE
  5
2A9
  8
0
  6
CONTINUOUS
 62
     7
 10
111.3536648289278
 20
85.460700922728506
 30
0.0
 11
111.3536648289278
 21
25.460700922728559
 31
0.0
  0
LINE
  5
2AA
  8
0
  6
CONTINUOUS
 62
     7
 10
103.3536648289278
 20
85.460700922728506
 30
0.0
 11
103.3536648289278
 21
25.460700922728559
 31
0.0
  0
LINE
  5
2AB
  8
0
  6
CONTINUOUS
 62
     7
 10
247.3540588289278
 20
85.460700922728506
 30
0.0
 11
247.3540588289278
 21
25.460700922728559
 31
0.0
  0
LINE
  5
2AC
  8
0
  6
CENTER
 62
     1
 10
227.35366482892789
 20
92.958700922728497
 30
0.0
 11
227.35366482892789
 21
22.9587009227285
 31
0.0
  0
LINE
  5
2AD
  8
0
  6
CONTINUOUS
 62
     7
 10
231.35366482892789
 20
85.460700922728506
 30
0.0
 11
231.35366482892789
 21
25.460700922728559
 31
0.0
  0
LINE
  5
2AE
  8
0
  6
CONTINUOUS
 62
     7
 10
223.35366482892789
 20
85.460700922728506
 30
0.0
 11
223.35366482892789
 21
25.460700922728559
 31
0.0
  0
LINE
  5
2AF
  8
0
  6
CONTINUOUS
 62
     7
 10
191.35366482892789
 20
85.460700922728506
 30
0.0
 11
191.35366482892789
 21
25.460700922728559
 31
0.0
  0
TEXT
  5
3C3
  8
0
 62
     3
 10
0.0
 20
0.0
 30
0.0
 40
10.0
  1
SPL16080N
  7
STANDARD1
  0
ENDSEC
  0
EOF
