  0
SECTION
  2
HEADER
  9
$ACADVER
  1
AC1009
  9
$INSBASE
 10
0.0
 20
0.0
 30
0.0
  9
$EXTMIN
 10
0.0
 20
-2.960436562073669
 30
0.0
  9
$EXTMAX
 10
271.91344583978992
 20
165.0
 30
0.0
  9
$LIMMIN
 10
0.0
 20
0.0
  9
$LIMMAX
 10
375.0
 20
270.0
  9
$ORTHOMODE
 70
     1
  9
$REGENMODE
 70
     1
  9
$FILLMODE
 70
     1
  9
$QTEXTMODE
 70
     0
  9
$MIRRTEXT
 70
     0
  9
$DRAGMODE
 70
     2
  9
$LTSCALE
 40
10.0
  9
$OSMODE
 70
    55
  9
$ATTMODE
 70
     1
  9
$TEXTSIZE
 40
0.2
  9
$TRACEWID
 40
0.05
  9
$TEXTSTYLE
  7
STANDARD
  9
$CLAYER
  8
0
  9
$CELTYPE
  6
BYLAYER
  9
$CECOLOR
 62
   256
  9
$DIMSCALE
 40
1.0
  9
$DIMASZ
 40
3.0
  9
$DIMEXO
 40
2.0
  9
$DIMDLI
 40
0.38
  9
$DIMRND
 40
0.0
  9
$DIMDLE
 40
0.0
  9
$DIMEXE
 40
2.0
  9
$DIMTP
 40
0.0
  9
$DIMTM
 40
0.0
  9
$DIMTXT
 40
3.2000000000000002
  9
$DIMCEN
 40
0.0
  9
$DIMTSZ
 40
0.0
  9
$DIMTOL
 70
     0
  9
$DIMLIM
 70
     0
  9
$DIMTIH
 70
     0
  9
$DIMTOH
 70
     0
  9
$DIMSE1
 70
     0
  9
$DIMSE2
 70
     0
  9
$DIMTAD
 70
     1
  9
$DIMZIN
 70
     0
  9
$DIMBLK
  1

  9
$DIMASO
 70
     0
  9
$DIMSHO
 70
     0
  9
$DIMPOST
  1

  9
$DIMAPOST
  1

  9
$DIMALT
 70
     0
  9
$DIMALTD
 70
     2
  9
$DIMALTF
 40
25.399999999999999
  9
$DIMLFAC
 40
1.0
  9
$DIMTOFL
 70
     1
  9
$DIMTVP
 40
1.6000000000000001
  9
$DIMTIX
 70
     1
  9
$DIMSOXD
 70
     0
  9
$DIMSAH
 70
     0
  9
$DIMBLK1
  1

  9
$DIMBLK2
  1

  9
$DIMSTYLE
  2
STANDARD
  9
$DIMCLRD
 70
     0
  9
$DIMCLRE
 70
     0
  9
$DIMCLRT
 70
     0
  9
$DIMTFAC
 40
1.0
  9
$DIMGAP
 40
0.09
  9
$LUNITS
 70
     2
  9
$LUPREC
 70
     4
  9
$SKETCHINC
 40
0.1
  9
$FILLETRAD
 40
0.0
  9
$AUNITS
 70
     0
  9
$AUPREC
 70
     4
  9
$MENU
  1
E:\r13\win\SUPPORT\ACAD
  9
$ELEVATION
 40
0.0
  9
$PELEVATION
 40
0.0
  9
$THICKNESS
 40
0.0
  9
$LIMCHECK
 70
     0
  9
$BLIPMODE
 70
     0
  9
$CHAMFERA
 40
0.0
  9
$CHAMFERB
 40
0.0
  9
$SKPOLY
 70
     0
  9
$TDCREATE
 40
2449840.6483333339
  9
$TDUPDATE
 40
2456598.5465279282
  9
$TDINDWG
 40
0.0000909491
  9
$TDUSRTIMER
 40
0.0000909491
  9
$USRTIMER
 70
     1
  9
$ANGBASE
 50
0.0
  9
$ANGDIR
 70
     0
  9
$PDMODE
 70
     0
  9
$PDSIZE
 40
0.0
  9
$PLINEWID
 40
0.0
  9
$COORDS
 70
     1
  9
$SPLFRAME
 70
     0
  9
$SPLINETYPE
 70
     6
  9
$SPLINESEGS
 70
     8
  9
$ATTDIA
 70
     0
  9
$ATTREQ
 70
     1
  9
$HANDLING
 70
     1
  9
$HANDSEED
  5
1CD
  9
$SURFTAB1
 70
     6
  9
$SURFTAB2
 70
     6
  9
$SURFTYPE
 70
     6
  9
$SURFU
 70
     6
  9
$SURFV
 70
     6
  9
$UCSNAME
  2

  9
$UCSORG
 10
0.0
 20
0.0
 30
0.0
  9
$UCSXDIR
 10
1.0
 20
0.0
 30
0.0
  9
$UCSYDIR
 10
0.0
 20
1.0
 30
0.0
  9
$PUCSNAME
  2

  9
$PUCSORG
 10
0.0
 20
0.0
 30
0.0
  9
$PUCSXDIR
 10
1.0
 20
0.0
 30
0.0
  9
$PUCSYDIR
 10
0.0
 20
1.0
 30
0.0
  9
$USERI1
 70
     0
  9
$USERI2
 70
     1
  9
$USERI3
 70
     0
  9
$USERI4
 70
     0
  9
$USERI5
 70
     0
  9
$USERR1
 40
0.0
  9
$USERR2
 40
0.0
  9
$USERR3
 40
0.0
  9
$USERR4
 40
0.0
  9
$USERR5
 40
0.0
  9
$WORLDVIEW
 70
     1
  9
$SHADEDGE
 70
     3
  9
$SHADEDIF
 70
    70
  9
$TILEMODE
 70
     1
  9
$MAXACTVP
 70
    16
  9
$PLIMCHECK
 70
     0
  9
$PEXTMIN
 10
1.0000000000000000E+020
 20
1.0000000000000000E+020
 30
1.0000000000000000E+020
  9
$PEXTMAX
 10
-1.0000000000000000E+020
 20
-1.0000000000000000E+020
 30
-1.0000000000000000E+020
  9
$PLIMMIN
 10
0.0
 20
0.0
  9
$PLIMMAX
 10
12.0
 20
9.0
  9
$UNITMODE
 70
     0
  9
$VISRETAIN
 70
     0
  9
$PLINEGEN
 70
     0
  9
$PSLTSCALE
 70
     0
  0
ENDSEC
  0
SECTION
  2
TABLES
  0
TABLE
  2
VPORT
 70
     1
  0
VPORT
  2
*ACTIVE
 70
     0
 10
0.0
 20
0.0
 11
1.0
 21
1.0
 12
187.49427839065231
 22
174.91677254346851
 13
0.0
 23
0.0
 14
10.0
 24
10.0
 15
10.0
 25
10.0
 16
0.0
 26
0.0
 36
1.0
 17
0.0
 27
0.0
 37
0.0
 40
358.92027899574339
 41
1.7807262569832401
 42
50.0
 43
0.0
 44
0.0
 50
0.0
 51
0.0
 71
     0
 72
   500
 73
     1
 74
     0
 75
     0
 76
     0
 77
     0
 78
     2
  0
ENDTAB
  0
TABLE
  2
LTYPE
 70
     3
  0
LTYPE
  2
CONTINUOUS
 70
     0
  3
Solid Line
 72
    65
 73
     0
 40
0.0
  0
LTYPE
  2
CENTER
 70
     0
  3
____ _ ____ _ ____ _ ____ _ ____ _ ____ _ ____
 72
    65
 73
     4
 40
2.0
 49
1.25
 49
-0.25
 49
0.25
 49
-0.25
  0
LTYPE
  2
PHANTOM2
 70
     0
  3
___ _ _ ___ _ _ ___ _ _ ___ _ _
 72
    65
 73
     6
 40
1.25
 49
0.625
 49
-0.125
 49
0.125
 49
-0.125
 49
0.125
 49
-0.125
  0
ENDTAB
  0
TABLE
  2
LAYER
 70
     2
  0
LAYER
  2
0
 70
     0
 62
     7
  6
CONTINUOUS
  0
LAYER
  2
1
 70
     0
 62
     1
  6
CENTER
  0
ENDTAB
  0
TABLE
  2
STYLE
 70
     2
  0
STYLE
  2
STANDARD
 70
     0
 40
0.0
 41
1.0
 50
0.0
 71
     0
 42
0.2
  3
TXT
  4
BIGFONT
  0
STYLE
  2
STANDARD1
 70
     0
 40
0.0
 41
1.0
 50
0.0
 71
     0
 42
3.0
  3
txt
  4

  0
ENDTAB
  0
TABLE
  2
VIEW
 70
     1
  0
VIEW
  2
ALL
 70
     0
 40
270.0
 10
220.99159663865549
 20
135.0
 41
0.0
 11
0.0
 21
0.0
 31
1.0
 12
0.0
 22
0.0
 32
0.0
 42
0.0
 43
0.0
 44
0.0
 50
0.0
 71
     0
  0
ENDTAB
  0
TABLE
  2
UCS
 70
     0
  0
ENDTAB
  0
TABLE
  2
APPID
 70
     3
  0
APPID
  2
ACAD
 70
     0
  0
APPID
  2
ACAD_MLEADERVER
 70
     0
  0
APPID
  2
ACAD_NAV_VCDISPLAY
 70
     0
  0
ENDTAB
  0
TABLE
  2
DIMSTYLE
 70
     1
  0
DIMSTYLE
  2
STANDARD
 70
     0
  3

  4

  5

  6

  7

 40
1.0
 41
0.18
 42
0.0625
 43
0.38
 44
0.18
 45
0.0
 46
0.0
 47
0.0
 48
0.0
140
0.18
141
0.09
142
0.0
143
25.399999999999999
144
1.0
145
0.0
146
1.0
147
0.09
 71
     0
 72
     0
 73
     1
 74
     1
 75
     0
 76
     0
 77
     0
 78
     0
170
     0
171
     2
172
     0
173
     0
174
     0
175
     0
176
     0
177
     0
178
     0
  0
ENDTAB
  0
ENDSEC
  0
SECTION
  2
BLOCKS
  0
BLOCK
  8
0
  2
$MODEL_SPACE
 70
     0
 10
0.0
 20
0.0
 30
0.0
  3
$MODEL_SPACE
  1

  0
ENDBLK
  5
BE
  8
0
  0
BLOCK
 67
     1
  8
0
  2
$PAPER_SPACE
 70
     0
 10
0.0
 20
0.0
 30
0.0
  3
$PAPER_SPACE
  1

  0
ENDBLK
  5
BC
 67
     1
  8
0
  0
ENDSEC
  0
SECTION
  2
ENTITIES
  0
LINE
  5
3C
  8
1
 10
134.31076895141871
 20
165.0
 30
0.0
 11
134.31076895141871
 21
105.0
 31
0.0
  0
LINE
  5
3D
  8
1
 10
104.31076895141869
 20
135.0
 30
0.0
 11
164.31076895141871
 21
135.0
 31
0.0
  0
LINE
  5
3E
  8
1
 10
201.91344583978989
 20
134.99999999999989
 30
0.0
 11
271.91344583978992
 21
134.99999999999989
 31
0.0
  0
LINE
  5
3F
  8
0
 10
211.91344583978989
 20
114.9999999999999
 30
0.0
 11
261.91344583978992
 21
114.9999999999999
 31
0.0
  0
LINE
  5
40
  8
0
 10
261.91344583978992
 20
114.9999999999999
 30
0.0
 11
261.91344583978992
 21
155.0
 31
0.0
  0
LINE
  5
41
  8
0
 10
261.91344583978992
 20
155.0
 30
0.0
 11
211.91344583978989
 21
155.0
 31
0.0
  0
LINE
  5
42
  8
0
 10
211.91344583978989
 20
155.0
 30
0.0
 11
211.91344583978989
 21
114.9999999999999
 31
0.0
  0
LINE
  5
43
  8
0
 10
211.91344583978989
 20
139.0000000000002
 30
0.0
 11
261.91344583978992
 21
139.00000000000011
 31
0.0
  0
LINE
  5
44
  8
0
 10
211.91344583978989
 20
130.99999999999969
 30
0.0
 11
261.91344583978992
 21
130.99999999999969
 31
0.0
  0
ARC
  5
45
  8
0
 10
139.81076895141871
 20
153.5
 30
0.0
 40
1.5
 50
90.000000000000014
 51
180.0
  0
LINE
  5
46
  8
0
 10
150.31076895141871
 20
155.0
 30
0.0
 11
139.81076895141871
 21
155.0
 31
0.0
  0
ARC
  5
47
  8
0
 10
150.31076895141871
 20
151.0
 30
0.0
 40
4.0
 50
360.0
 51
90.000000000000014
  0
ARC
  5
48
  8
0
 10
128.81076895141871
 20
153.5
 30
0.0
 40
1.5
 50
360.0
 51
89.999999999999986
  0
ARC
  5
49
  8
0
 10
118.31076895141869
 20
119.0
 30
0.0
 40
4.0
 50
180.0
 51
270.0
  0
LINE
  5
4A
  8
0
 10
118.31076895141869
 20
155.0
 30
0.0
 11
128.81076895141871
 21
155.0
 31
0.0
  0
ARC
  5
4B
  8
0
 10
118.31076895141869
 20
151.0
 30
0.0
 40
4.0
 50
89.999999999999986
 51
180.0
  0
ARC
  5
4C
  8
0
 10
150.31076895141871
 20
119.0
 30
0.0
 40
4.0
 50
270.0
 51
0.0
  0
LINE
  5
4D
  8
0
 10
130.31076895141871
 20
153.5
 30
0.0
 11
130.31076895141871
 21
151.5
 31
0.0
  0
ARC
  5
4E
  8
0
 10
129.31076895141871
 20
151.5
 30
0.0
 40
1.0
 50
270.0
 51
0.0
  0
LINE
  5
4F
  8
0
 10
138.31076895141871
 20
153.5
 30
0.0
 11
138.31076895141871
 21
151.5
 31
0.0
  0
LINE
  5
50
  8
0
 10
139.31076895141871
 20
150.5
 30
0.0
 11
142.96205252565539
 21
150.5
 31
0.0
  0
ARC
  5
51
  8
0
 10
139.31076895141871
 20
151.5
 30
0.0
 40
1.0
 50
180.0
 51
269.99999999999989
  0
ARC
  5
52
  8
0
 10
123.9370689514186
 20
163.59999999999991
 30
0.0
 40
25.0
 50
306.64192814121378
 51
323.06989397484108
  0
ARC
  5
53
  8
0
 10
136.47012524268291
 20
146.75
 30
0.0
 40
4.0
 50
270.0
 51
306.64192814121401
  0
ARC
  5
54
  8
0
 10
142.96205252565539
 20
149.30000000000001
 30
0.0
 40
1.1999999999999991
 50
323.06989397484148
 51
90.0
  0
ARC
  5
55
  8
0
 10
125.65948537718189
 20
149.30000000000001
 30
0.0
 40
1.1999999999999991
 50
90.000000000000028
 51
216.93010602515861
  0
ARC
  5
56
  8
0
 10
144.68446895141869
 20
163.59999999999991
 30
0.0
 40
25.0
 50
216.93010602515889
 51
233.35807185878619
  0
ARC
  5
57
  8
0
 10
132.15141266015439
 20
146.75
 30
0.0
 40
4.0
 50
233.3580718587861
 51
270.00000000000011
  0
LINE
  5
58
  8
0
 10
129.31076895141871
 20
150.5
 30
0.0
 11
125.65948537718189
 21
150.5
 31
0.0
  0
LINE
  5
59
  8
0
 10
136.47012524268291
 20
142.75
 30
0.0
 11
132.15141266015439
 21
142.75
 31
0.0
  0
LINE
  5
5A
  8
0
 10
126.56076895141869
 20
137.15935629126429
 30
0.0
 11
126.56076895141869
 21
132.84064370873571
 31
0.0
  0
LINE
  5
5B
  8
0
 10
118.81076895141869
 20
130.0
 30
0.0
 11
118.81076895141869
 21
126.3487164257633
 31
0.0
  0
ARC
  5
5C
  8
0
 10
122.56076895141869
 20
132.84064370873571
 30
0.0
 40
4.0
 50
323.3580718587861
 51
0.0000000000000368
  0
ARC
  5
5D
  8
0
 10
105.7107689514188
 20
145.3737000000001
 30
0.0
 40
25.0
 50
306.93010602515898
 51
323.35807185878622
  0
ARC
  5
5E
  8
0
 10
120.0107689514187
 20
126.3487164257633
 30
0.0
 40
1.1999999999999991
 50
180.0
 51
306.93010602515858
  0
ARC
  5
5F
  8
0
 10
120.0107689514187
 20
143.6512835742368
 30
0.0
 40
1.1999999999999991
 50
53.069893974841442
 51
180.0
  0
ARC
  5
60
  8
0
 10
122.56076895141869
 20
137.15935629126429
 30
0.0
 40
4.0
 50
360.0
 51
36.641928141213917
  0
ARC
  5
61
  8
0
 10
105.7107689514188
 20
124.6263
 30
0.0
 40
25.0
 50
36.641928141213818
 51
53.069893974841079
  0
ARC
  5
62
  8
0
 10
117.81076895141869
 20
140.0
 30
0.0
 40
1.0
 50
270.0
 51
360.0
  0
LINE
  5
63
  8
0
 10
118.81076895141869
 20
140.0
 30
0.0
 11
118.81076895141869
 21
143.6512835742368
 31
0.0
  0
LINE
  5
64
  8
0
 10
115.81076895141869
 20
139.0
 30
0.0
 11
117.81076895141869
 21
139.0
 31
0.0
  0
ARC
  5
65
  8
0
 10
117.81076895141869
 20
130.0
 30
0.0
 40
1.0
 50
360.0
 51
90.0
  0
LINE
  5
66
  8
0
 10
115.81076895141869
 20
131.0
 30
0.0
 11
117.81076895141869
 21
131.0
 31
0.0
  0
ARC
  5
67
  8
0
 10
115.81076895141869
 20
129.5
 30
0.0
 40
1.5
 50
89.999999999999986
 51
180.0
  0
ARC
  5
68
  8
0
 10
115.81076895141869
 20
140.5
 30
0.0
 40
1.5
 50
180.0
 51
270.0
  0
LINE
  5
69
  8
0
 10
114.31076895141869
 20
151.0
 30
0.0
 11
114.31076895141869
 21
140.5
 31
0.0
  0
LINE
  5
6A
  8
0
 10
114.31076895141869
 20
119.0
 30
0.0
 11
114.31076895141869
 21
129.5
 31
0.0
  0
LINE
  5
6B
  8
0
 10
132.15141266015439
 20
127.25
 30
0.0
 11
136.47012524268291
 21
127.25
 31
0.0
  0
LINE
  5
6C
  8
0
 10
139.31076895141871
 20
119.5
 30
0.0
 11
142.96205252565539
 21
119.5
 31
0.0
  0
ARC
  5
6D
  8
0
 10
136.47012524268291
 20
123.25
 30
0.0
 40
4.0
 50
53.358071858786111
 51
90.000000000000057
  0
ARC
  5
6E
  8
0
 10
123.9370689514186
 20
106.40000000000001
 30
0.0
 40
25.0
 50
36.930106025158942
 51
53.358071858786211
  0
ARC
  5
6F
  8
0
 10
142.96205252565539
 20
120.7
 30
0.0
 40
1.1999999999999991
 50
270.0
 51
36.930106025158587
  0
ARC
  5
70
  8
0
 10
125.65948537718189
 20
120.7
 30
0.0
 40
1.1999999999999991
 50
143.06989397484131
 51
270.0
  0
ARC
  5
71
  8
0
 10
132.15141266015439
 20
123.25
 30
0.0
 40
4.0
 50
89.999999999999986
 51
126.6419281412139
  0
ARC
  5
72
  8
0
 10
144.68446895141869
 20
106.40000000000001
 30
0.0
 40
25.0
 50
126.6419281412138
 51
143.06989397484111
  0
ARC
  5
73
  8
0
 10
129.31076895141871
 20
118.5
 30
0.0
 40
1.0
 50
360.0
 51
89.999999999999915
  0
LINE
  5
74
  8
0
 10
129.31076895141871
 20
119.5
 30
0.0
 11
125.65948537718189
 21
119.5
 31
0.0
  0
LINE
  5
75
  8
0
 10
130.31076895141871
 20
116.5
 30
0.0
 11
130.31076895141871
 21
118.5
 31
0.0
  0
ARC
  5
76
  8
0
 10
139.31076895141871
 20
118.5
 30
0.0
 40
1.0
 50
89.999999999999986
 51
180.0
  0
LINE
  5
77
  8
0
 10
138.31076895141871
 20
116.5
 30
0.0
 11
138.31076895141871
 21
118.5
 31
0.0
  0
ARC
  5
78
  8
0
 10
139.81076895141871
 20
116.5
 30
0.0
 40
1.5
 50
180.0
 51
270.0
  0
ARC
  5
79
  8
0
 10
128.81076895141871
 20
116.5
 30
0.0
 40
1.5
 50
270.0
 51
360.0
  0
LINE
  5
7A
  8
0
 10
118.31076895141869
 20
115.0
 30
0.0
 11
128.81076895141871
 21
115.0
 31
0.0
  0
LINE
  5
7B
  8
0
 10
150.31076895141871
 20
115.0
 30
0.0
 11
139.81076895141871
 21
115.0
 31
0.0
  0
LINE
  5
7C
  8
0
 10
142.06076895141859
 20
132.84064370873571
 30
0.0
 11
142.06076895141859
 21
137.1593562912642
 31
0.0
  0
LINE
  5
7D
  8
0
 10
149.81076895141871
 20
140.0
 30
0.0
 11
149.81076895141871
 21
143.65128357423669
 31
0.0
  0
ARC
  5
7E
  8
0
 10
146.06076895141859
 20
137.1593562912642
 30
0.0
 40
4.0
 50
143.3580718587861
 51
180.0
  0
ARC
  5
7F
  8
0
 10
162.91076895141859
 20
124.6262999999999
 30
0.0
 40
25.0
 50
126.93010602515891
 51
143.3580718587861
  0
ARC
  5
80
  8
0
 10
148.61076895141869
 20
143.65128357423669
 30
0.0
 40
1.1999999999999991
 50
360.0
 51
126.93010602515849
  0
ARC
  5
81
  8
0
 10
148.61076895141869
 20
126.3487164257632
 30
0.0
 40
1.1999999999999991
 50
233.06989397484151
 51
360.0
  0
ARC
  5
82
  8
0
 10
146.06076895141859
 20
132.84064370873571
 30
0.0
 40
4.0
 50
180.0
 51
216.6419281412139
  0
ARC
  5
83
  8
0
 10
162.91076895141859
 20
145.37370000000001
 30
0.0
 40
25.0
 50
216.64192814121381
 51
233.06989397484111
  0
ARC
  5
84
  8
0
 10
150.81076895141871
 20
130.0
 30
0.0
 40
1.0
 50
89.999999999999986
 51
180.0
  0
LINE
  5
85
  8
0
 10
149.81076895141871
 20
130.0
 30
0.0
 11
149.81076895141871
 21
126.3487164257632
 31
0.0
  0
LINE
  5
86
  8
0
 10
152.81076895141871
 20
131.0
 30
0.0
 11
150.81076895141871
 21
131.0
 31
0.0
  0
ARC
  5
87
  8
0
 10
150.81076895141871
 20
140.0
 30
0.0
 40
1.0
 50
180.0
 51
270.0
  0
LINE
  5
88
  8
0
 10
152.81076895141871
 20
139.0
 30
0.0
 11
150.81076895141871
 21
139.0
 31
0.0
  0
CIRCLE
  5
89
  8
0
 10
134.31076895141859
 20
135.0
 30
0.0
 40
3.399999999999999
  0
ARC
  5
8A
  8
0
 10
152.81076895141871
 20
140.5
 30
0.0
 40
1.5
 50
270.0
 51
360.0
  0
ARC
  5
8B
  8
0
 10
152.81076895141871
 20
129.5
 30
0.0
 40
1.5
 50
360.0
 51
89.999999999999986
  0
LINE
  5
8C
  8
0
 10
154.31076895141859
 20
119.0
 30
0.0
 11
154.31076895141859
 21
129.5
 31
0.0
  0
LINE
  5
8D
  8
0
 10
154.31076895141871
 20
151.0
 30
0.0
 11
154.31076895141871
 21
140.5
 31
0.0
  0
TEXT
  5
130
  8
0
 62
     3
 10
0.0
 20
0.0
 30
0.0
 40
10.0
  1
SPH4040N
  7
STANDARD1
  0
ENDSEC
  0
EOF
