  0
SECTION
  2
HEADER
  9
$ACADVER
  1
AC1009
  9
$INSBASE
 10
0.0
 20
0.0
 30
0.0
  9
$EXTMIN
 10
0.0
 20
-2.960436562073669
 30
0.0
  9
$EXTMAX
 10
352.21838737326112
 20
256.48381294964042
 30
0.0
  9
$LIMMIN
 10
0.0
 20
0.0
  9
$LIMMAX
 10
375.0
 20
270.0
  9
$ORTHOMODE
 70
     1
  9
$REGENMODE
 70
     1
  9
$FILLMODE
 70
     1
  9
$QTEXTMODE
 70
     0
  9
$MIRRTEXT
 70
     0
  9
$DRAGMODE
 70
     2
  9
$LTSCALE
 40
10.0
  9
$OSMODE
 70
    55
  9
$ATTMODE
 70
     1
  9
$TEXTSIZE
 40
0.2
  9
$TRACEWID
 40
0.05
  9
$TEXTSTYLE
  7
STANDARD
  9
$CLAYER
  8
0
  9
$CELTYPE
  6
BYLAYER
  9
$CECOLOR
 62
   256
  9
$DIMSCALE
 40
1.0
  9
$DIMASZ
 40
3.0
  9
$DIMEXO
 40
2.0
  9
$DIMDLI
 40
0.38
  9
$DIMRND
 40
0.0
  9
$DIMDLE
 40
0.0
  9
$DIMEXE
 40
2.0
  9
$DIMTP
 40
0.0
  9
$DIMTM
 40
0.0
  9
$DIMTXT
 40
3.2000000000000002
  9
$DIMCEN
 40
0.0
  9
$DIMTSZ
 40
0.0
  9
$DIMTOL
 70
     0
  9
$DIMLIM
 70
     0
  9
$DIMTIH
 70
     0
  9
$DIMTOH
 70
     0
  9
$DIMSE1
 70
     0
  9
$DIMSE2
 70
     0
  9
$DIMTAD
 70
     1
  9
$DIMZIN
 70
     0
  9
$DIMBLK
  1

  9
$DIMASO
 70
     0
  9
$DIMSHO
 70
     0
  9
$DIMPOST
  1

  9
$DIMAPOST
  1

  9
$DIMALT
 70
     0
  9
$DIMALTD
 70
     2
  9
$DIMALTF
 40
25.399999999999999
  9
$DIMLFAC
 40
1.0
  9
$DIMTOFL
 70
     1
  9
$DIMTVP
 40
1.6000000000000001
  9
$DIMTIX
 70
     1
  9
$DIMSOXD
 70
     0
  9
$DIMSAH
 70
     0
  9
$DIMBLK1
  1

  9
$DIMBLK2
  1

  9
$DIMSTYLE
  2
STANDARD
  9
$DIMCLRD
 70
     0
  9
$DIMCLRE
 70
     0
  9
$DIMCLRT
 70
     0
  9
$DIMTFAC
 40
1.0
  9
$DIMGAP
 40
0.09
  9
$LUNITS
 70
     2
  9
$LUPREC
 70
     4
  9
$SKETCHINC
 40
0.1
  9
$FILLETRAD
 40
0.0
  9
$AUNITS
 70
     0
  9
$AUPREC
 70
     4
  9
$MENU
  1
E:\r13\win\SUPPORT\ACAD
  9
$ELEVATION
 40
0.0
  9
$PELEVATION
 40
0.0
  9
$THICKNESS
 40
0.0
  9
$LIMCHECK
 70
     0
  9
$BLIPMODE
 70
     0
  9
$CHAMFERA
 40
0.0
  9
$CHAMFERB
 40
0.0
  9
$SKPOLY
 70
     0
  9
$TDCREATE
 40
2449840.648414352
  9
$TDUPDATE
 40
2456598.5463713892
  9
$TDINDWG
 40
0.0001009144
  9
$TDUSRTIMER
 40
0.0001009144
  9
$USRTIMER
 70
     1
  9
$ANGBASE
 50
0.0
  9
$ANGDIR
 70
     0
  9
$PDMODE
 70
     0
  9
$PDSIZE
 40
0.0
  9
$PLINEWID
 40
0.0
  9
$COORDS
 70
     1
  9
$SPLFRAME
 70
     0
  9
$SPLINETYPE
 70
     6
  9
$SPLINESEGS
 70
     8
  9
$ATTDIA
 70
     0
  9
$ATTREQ
 70
     1
  9
$HANDLING
 70
     1
  9
$HANDSEED
  5
274
  9
$SURFTAB1
 70
     6
  9
$SURFTAB2
 70
     6
  9
$SURFTYPE
 70
     6
  9
$SURFU
 70
     6
  9
$SURFV
 70
     6
  9
$UCSNAME
  2

  9
$UCSORG
 10
0.0
 20
0.0
 30
0.0
  9
$UCSXDIR
 10
1.0
 20
0.0
 30
0.0
  9
$UCSYDIR
 10
0.0
 20
1.0
 30
0.0
  9
$PUCSNAME
  2

  9
$PUCSORG
 10
0.0
 20
0.0
 30
0.0
  9
$PUCSXDIR
 10
1.0
 20
0.0
 30
0.0
  9
$PUCSYDIR
 10
0.0
 20
1.0
 30
0.0
  9
$USERI1
 70
     0
  9
$USERI2
 70
     1
  9
$USERI3
 70
     0
  9
$USERI4
 70
     0
  9
$USERI5
 70
     0
  9
$USERR1
 40
0.0
  9
$USERR2
 40
0.0
  9
$USERR3
 40
0.0
  9
$USERR4
 40
0.0
  9
$USERR5
 40
0.0
  9
$WORLDVIEW
 70
     1
  9
$SHADEDGE
 70
     3
  9
$SHADEDIF
 70
    70
  9
$TILEMODE
 70
     1
  9
$MAXACTVP
 70
    16
  9
$PLIMCHECK
 70
     0
  9
$PEXTMIN
 10
1.0000000000000000E+020
 20
1.0000000000000000E+020
 30
1.0000000000000000E+020
  9
$PEXTMAX
 10
-1.0000000000000000E+020
 20
-1.0000000000000000E+020
 30
-1.0000000000000000E+020
  9
$PLIMMIN
 10
0.0
 20
0.0
  9
$PLIMMAX
 10
12.0
 20
9.0
  9
$UNITMODE
 70
     0
  9
$VISRETAIN
 70
     0
  9
$PLINEGEN
 70
     0
  9
$PSLTSCALE
 70
     0
  0
ENDSEC
  0
SECTION
  2
TABLES
  0
TABLE
  2
VPORT
 70
     1
  0
VPORT
  2
*ACTIVE
 70
     0
 10
0.0
 20
0.0
 11
1.0
 21
1.0
 12
187.49427839065231
 22
174.91677254346851
 13
0.0
 23
0.0
 14
10.0
 24
10.0
 15
10.0
 25
10.0
 16
0.0
 26
0.0
 36
1.0
 17
0.0
 27
0.0
 37
0.0
 40
358.92027899574339
 41
1.7807262569832401
 42
50.0
 43
0.0
 44
0.0
 50
0.0
 51
0.0
 71
     0
 72
   500
 73
     1
 74
     0
 75
     0
 76
     0
 77
     0
 78
     2
  0
ENDTAB
  0
TABLE
  2
LTYPE
 70
     3
  0
LTYPE
  2
CONTINUOUS
 70
     0
  3
Solid Line
 72
    65
 73
     0
 40
0.0
  0
LTYPE
  2
CENTER
 70
     0
  3
____ _ ____ _ ____ _ ____ _ ____ _ ____ _ ____
 72
    65
 73
     4
 40
2.0
 49
1.25
 49
-0.25
 49
0.25
 49
-0.25
  0
LTYPE
  2
PHANTOM2
 70
     0
  3
___ _ _ ___ _ _ ___ _ _ ___ _ _
 72
    65
 73
     6
 40
1.25
 49
0.625
 49
-0.125
 49
0.125
 49
-0.125
 49
0.125
 49
-0.125
  0
ENDTAB
  0
TABLE
  2
LAYER
 70
     2
  0
LAYER
  2
0
 70
     0
 62
     7
  6
CONTINUOUS
  0
LAYER
  2
1
 70
     0
 62
     1
  6
CENTER
  0
ENDTAB
  0
TABLE
  2
STYLE
 70
     2
  0
STYLE
  2
STANDARD
 70
     0
 40
0.0
 41
1.0
 50
0.0
 71
     0
 42
0.2
  3
TXT
  4
BIGFONT
  0
STYLE
  2
STANDARD1
 70
     0
 40
0.0
 41
1.0
 50
0.0
 71
     0
 42
3.0
  3
txt
  4

  0
ENDTAB
  0
TABLE
  2
VIEW
 70
     1
  0
VIEW
  2
ALL
 70
     0
 40
270.0
 10
220.99159663865549
 20
135.0
 41
0.0
 11
0.0
 21
0.0
 31
1.0
 12
0.0
 22
0.0
 32
0.0
 42
0.0
 43
0.0
 44
0.0
 50
0.0
 71
     0
  0
ENDTAB
  0
TABLE
  2
UCS
 70
     0
  0
ENDTAB
  0
TABLE
  2
APPID
 70
     3
  0
APPID
  2
ACAD
 70
     0
  0
APPID
  2
ACAD_MLEADERVER
 70
     0
  0
APPID
  2
ACAD_NAV_VCDISPLAY
 70
     0
  0
ENDTAB
  0
TABLE
  2
DIMSTYLE
 70
     1
  0
DIMSTYLE
  2
STANDARD
 70
     0
  3

  4

  5

  6

  7

 40
1.0
 41
0.18
 42
0.0625
 43
0.38
 44
0.18
 45
0.0
 46
0.0
 47
0.0
 48
0.0
140
0.18
141
0.09
142
0.0
143
25.399999999999999
144
1.0
145
0.0
146
1.0
147
0.09
 71
     0
 72
     0
 73
     1
 74
     1
 75
     0
 76
     0
 77
     0
 78
     0
170
     0
171
     2
172
     0
173
     0
174
     0
175
     0
176
     0
177
     0
178
     0
  0
ENDTAB
  0
ENDSEC
  0
SECTION
  2
BLOCKS
  0
BLOCK
  8
0
  2
$MODEL_SPACE
 70
     0
 10
0.0
 20
0.0
 30
0.0
  3
$MODEL_SPACE
  1

  0
ENDBLK
  5
12C
  8
0
  0
BLOCK
 67
     1
  8
0
  2
$PAPER_SPACE
 70
     0
 10
0.0
 20
0.0
 30
0.0
  3
$PAPER_SPACE
  1

  0
ENDBLK
  5
12A
 67
     1
  8
0
  0
ENDSEC
  0
SECTION
  2
ENTITIES
  0
LINE
  5
3D
  8
0
 10
297.21838737326101
 20
149.0
 30
0.0
 11
297.21838737326101
 21
121.0
 31
0.0
  0
LINE
  5
3E
  8
0
 10
297.21838737326101
 20
121.0
 30
0.0
 11
347.21838737326112
 21
121.0
 31
0.0
  0
LINE
  5
3F
  8
0
 10
347.21838737326112
 20
121.0
 30
0.0
 11
347.21838737326112
 21
149.0
 31
0.0
  0
LINE
  5
40
  8
0
 10
347.21838737326112
 20
149.0
 30
0.0
 11
297.21838737326101
 21
149.0
 31
0.0
  0
LINE
  5
41
  8
1
 10
292.21838737326112
 20
141.0
 30
0.0
 11
352.21838737326112
 21
141.0
 31
0.0
  0
LINE
  5
42
  8
1
 10
292.21838737326112
 20
129.0000000000002
 30
0.0
 11
352.21838737326112
 21
129.00000000000011
 31
0.0
  0
LINE
  5
43
  8
0
 10
251.5
 20
196.48381294964031
 30
0.0
 11
251.5
 21
246.4838129496404
 31
0.0
  0
LINE
  5
44
  8
0
 10
243.5
 20
196.48381294964031
 30
0.0
 11
243.5
 21
246.4838129496404
 31
0.0
  0
LINE
  5
45
  8
0
 10
211.49999999999989
 20
196.48381294964031
 30
0.0
 11
211.5
 21
246.4838129496404
 31
0.0
  0
LINE
  5
46
  8
0
 10
203.49999999999989
 20
196.48381294964031
 30
0.0
 11
203.5
 21
246.4838129496404
 31
0.0
  0
LINE
  5
47
  8
0
 10
171.49999999999989
 20
196.48381294964031
 30
0.0
 11
171.5
 21
246.4838129496404
 31
0.0
  0
LINE
  5
48
  8
0
 10
163.49999999999989
 20
196.48381294964031
 30
0.0
 11
163.49999999999989
 21
246.4838129496404
 31
0.0
  0
LINE
  5
49
  8
0
 10
131.49999999999989
 20
196.48381294964031
 30
0.0
 11
131.49999999999989
 21
246.4838129496404
 31
0.0
  0
LINE
  5
4A
  8
0
 10
123.4999999999999
 20
196.48381294964031
 30
0.0
 11
123.4999999999999
 21
246.4838129496404
 31
0.0
  0
LINE
  5
4B
  8
1
 10
127.4999999999999
 20
251.48381294964031
 30
0.0
 11
127.4999999999999
 21
191.48381294964031
 31
0.0
  0
LINE
  5
4C
  8
1
 10
147.49999999999989
 20
251.48381294964031
 30
0.0
 11
147.49999999999989
 21
191.48381294964031
 31
0.0
  0
LINE
  5
4D
  8
1
 10
167.5
 20
251.48381294964031
 30
0.0
 11
167.49999999999989
 21
191.48381294964031
 31
0.0
  0
LINE
  5
4E
  8
1
 10
207.5
 20
251.48381294964031
 30
0.0
 11
207.49999999999989
 21
191.48381294964031
 31
0.0
  0
LINE
  5
4F
  8
1
 10
227.5
 20
251.48381294964031
 30
0.0
 11
227.49999999999989
 21
191.48381294964031
 31
0.0
  0
LINE
  5
50
  8
0
 10
267.49999999999989
 20
196.48381294964031
 30
0.0
 11
267.49999999999989
 21
246.4838129496404
 31
0.0
  0
LINE
  5
51
  8
0
 10
107.5
 20
196.48381294964031
 30
0.0
 11
267.49999999999989
 21
196.48381294964031
 31
0.0
  0
LINE
  5
52
  8
0
 10
107.5
 20
246.4838129496404
 30
0.0
 11
107.5
 21
196.48381294964031
 31
0.0
  0
LINE
  5
53
  8
0
 10
267.49999999999989
 20
246.4838129496404
 30
0.0
 11
107.5
 21
246.4838129496404
 31
0.0
  0
LINE
  5
54
  8
1
 10
187.5
 20
256.48381294964042
 30
0.0
 11
187.49999999999989
 21
186.48381294964031
 31
0.0
  0
LINE
  5
55
  8
1
 10
247.5
 20
251.48381294964031
 30
0.0
 11
247.5
 21
191.48381294964031
 31
0.0
  0
LINE
  5
56
  8
1
 10
127.4999999999999
 20
87.580935251798692
 30
0.0
 11
127.4999999999999
 21
27.58093525179866
 31
0.0
  0
LINE
  5
57
  8
1
 10
187.5
 20
92.580935251798678
 30
0.0
 11
187.5
 21
22.58093525179865
 31
0.0
  0
LINE
  5
58
  8
0
 10
107.4999999999999
 20
82.580935251798692
 30
0.0
 11
267.49999999999989
 21
82.580935251798635
 31
0.0
  0
LINE
  5
59
  8
0
 10
267.49999999999989
 20
82.580935251798635
 30
0.0
 11
267.49999999999989
 21
32.580935251798643
 31
0.0
  0
LINE
  5
5A
  8
0
 10
267.49999999999989
 20
32.580935251798643
 30
0.0
 11
107.4999999999999
 21
32.580935251798657
 31
0.0
  0
LINE
  5
5B
  8
0
 10
107.4999999999999
 20
32.580935251798657
 30
0.0
 11
107.4999999999999
 21
82.580935251798692
 31
0.0
  0
LINE
  5
5C
  8
0
 10
151.49999999999989
 20
32.580935251798657
 30
0.0
 11
151.49999999999989
 21
82.580935251798678
 31
0.0
  0
LINE
  5
5D
  8
0
 10
143.5
 20
32.580935251798657
 30
0.0
 11
143.5
 21
82.580935251798692
 31
0.0
  0
LINE
  5
5E
  8
0
 10
183.49999999999989
 20
32.58093525179865
 30
0.0
 11
183.49999999999989
 21
82.580935251798678
 31
0.0
  0
LINE
  5
5F
  8
0
 10
191.5
 20
32.58093525179865
 30
0.0
 11
191.5
 21
82.580935251798678
 31
0.0
  0
LINE
  5
60
  8
0
 10
231.5
 20
32.58093525179865
 30
0.0
 11
231.5
 21
82.580935251798635
 31
0.0
  0
LINE
  5
61
  8
0
 10
223.5
 20
32.58093525179865
 30
0.0
 11
223.5
 21
82.580935251798664
 31
0.0
  0
LINE
  5
62
  8
1
 10
147.5
 20
87.580935251798678
 30
0.0
 11
147.49999999999989
 21
27.58093525179866
 31
0.0
  0
LINE
  5
63
  8
1
 10
167.5
 20
87.580935251798678
 30
0.0
 11
167.5
 21
27.58093525179865
 31
0.0
  0
LINE
  5
64
  8
1
 10
207.5
 20
87.580935251798678
 30
0.0
 11
207.5
 21
27.58093525179865
 31
0.0
  0
LINE
  5
65
  8
1
 10
227.5
 20
87.580935251798664
 30
0.0
 11
227.5
 21
27.58093525179865
 31
0.0
  0
LINE
  5
66
  8
1
 10
247.5
 20
87.580935251798635
 30
0.0
 11
247.5
 21
27.580935251798639
 31
0.0
  0
LINE
  5
67
  8
1
 10
82.781612626738934
 20
129.0000000000002
 30
0.0
 11
22.781612626738941
 21
129.00000000000011
 31
0.0
  0
LINE
  5
68
  8
1
 10
82.781612626738934
 20
141.0
 30
0.0
 11
22.781612626738941
 21
141.0
 31
0.0
  0
LINE
  5
69
  8
0
 10
27.781612626738941
 20
149.0
 30
0.0
 11
77.781612626738934
 21
149.0
 31
0.0
  0
LINE
  5
6A
  8
0
 10
27.781612626738941
 20
121.0
 30
0.0
 11
27.781612626738941
 21
149.0
 31
0.0
  0
LINE
  5
6B
  8
0
 10
77.781612626738934
 20
121.0
 30
0.0
 11
27.781612626738941
 21
121.0
 31
0.0
  0
LINE
  5
6C
  8
0
 10
77.781612626738934
 20
149.0
 30
0.0
 11
77.781612626738934
 21
121.0
 31
0.0
  0
ARC
  5
6D
  8
0
 10
256.15128357423669
 20
143.30000000000001
 30
0.0
 40
1.1999999999999991
 50
323.06989397484148
 51
89.999999999999986
  0
ARC
  5
6E
  8
0
 10
252.5
 20
145.5
 30
0.0
 40
1.0
 50
180.0
 51
270.0
  0
LINE
  5
6F
  8
0
 10
252.5
 20
144.5
 30
0.0
 11
256.15128357423669
 21
144.5
 31
0.0
  0
LINE
  5
70
  8
0
 10
251.5
 20
147.5
 30
0.0
 11
251.5
 21
145.5
 31
0.0
  0
ARC
  5
71
  8
0
 10
249.65935629126429
 20
140.75
 30
0.0
 40
4.0
 50
270.0
 51
306.64192814121401
  0
ARC
  5
72
  8
0
 10
237.1262999999999
 20
157.59999999999999
 30
0.0
 40
25.0
 50
306.64192814121378
 51
323.06989397484108
  0
LINE
  5
73
  8
0
 10
249.65935629126429
 20
136.75
 30
0.0
 11
245.34064370873571
 21
136.75
 31
0.0
  0
ARC
  5
74
  8
0
 10
245.34064370873571
 20
140.75
 30
0.0
 40
4.0
 50
233.35807185878619
 51
270.0
  0
LINE
  5
75
  8
0
 10
242.5
 20
144.5
 30
0.0
 11
238.8487164257632
 21
144.5
 31
0.0
  0
ARC
  5
76
  8
0
 10
257.87369999999999
 20
157.59999999999999
 30
0.0
 40
25.0
 50
216.93010602515889
 51
233.35807185878619
  0
ARC
  5
77
  8
0
 10
238.8487164257632
 20
143.30000000000001
 30
0.0
 40
1.1999999999999991
 50
89.999999999999986
 51
216.93010602515861
  0
ARC
  5
78
  8
0
 10
242.5
 20
145.5
 30
0.0
 40
1.0
 50
270.0
 51
360.0
  0
LINE
  5
79
  8
0
 10
243.5
 20
147.5
 30
0.0
 11
243.5
 21
145.5
 31
0.0
  0
ARC
  5
7A
  8
0
 10
218.8487164257632
 20
126.7
 30
0.0
 40
1.1999999999999991
 50
143.06989397484139
 51
270.0
  0
ARC
  5
7B
  8
0
 10
222.5
 20
124.5
 30
0.0
 40
1.0
 50
360.0
 51
89.999999999999915
  0
LINE
  5
7C
  8
0
 10
222.5
 20
125.5
 30
0.0
 11
218.8487164257632
 21
125.5
 31
0.0
  0
LINE
  5
7D
  8
0
 10
223.49999999999989
 20
122.5
 30
0.0
 11
223.49999999999989
 21
124.5
 31
0.0
  0
ARC
  5
7E
  8
0
 10
225.34064370873571
 20
129.25
 30
0.0
 40
4.0
 50
89.999999999999986
 51
126.6419281412139
  0
ARC
  5
7F
  8
0
 10
237.87370000000001
 20
112.40000000000001
 30
0.0
 40
25.0
 50
126.6419281412138
 51
143.06989397484111
  0
LINE
  5
80
  8
0
 10
225.34064370873571
 20
133.25
 30
0.0
 11
229.6593562912642
 21
133.25
 31
0.0
  0
ARC
  5
81
  8
0
 10
229.6593562912642
 20
129.25
 30
0.0
 40
4.0
 50
53.358071858786111
 51
90.000000000000057
  0
LINE
  5
82
  8
0
 10
232.49999999999989
 20
125.5
 30
0.0
 11
236.15128357423669
 21
125.5
 31
0.0
  0
ARC
  5
83
  8
0
 10
217.1262999999999
 20
112.40000000000001
 30
0.0
 40
25.0
 50
36.930106025158942
 51
53.358071858786211
  0
ARC
  5
84
  8
0
 10
236.15128357423669
 20
126.7
 30
0.0
 40
1.1999999999999991
 50
270.0
 51
36.930106025158587
  0
ARC
  5
85
  8
0
 10
232.49999999999989
 20
124.5
 30
0.0
 40
1.0
 50
89.999999999999986
 51
180.0
  0
LINE
  5
86
  8
0
 10
231.49999999999989
 20
122.5
 30
0.0
 11
231.49999999999989
 21
124.5
 31
0.0
  0
ARC
  5
87
  8
0
 10
216.15128357423669
 20
143.3000000000001
 30
0.0
 40
1.1999999999999991
 50
323.06989397484148
 51
89.999999999999986
  0
ARC
  5
88
  8
0
 10
212.5
 20
145.50000000000011
 30
0.0
 40
1.0
 50
180.0
 51
270.0
  0
LINE
  5
89
  8
0
 10
212.5
 20
144.50000000000011
 30
0.0
 11
216.15128357423669
 21
144.50000000000011
 31
0.0
  0
LINE
  5
8A
  8
0
 10
211.5
 20
147.50000000000011
 30
0.0
 11
211.5
 21
145.50000000000011
 31
0.0
  0
ARC
  5
8B
  8
0
 10
209.65935629126429
 20
140.75
 30
0.0
 40
4.0
 50
270.0
 51
306.64192814121401
  0
ARC
  5
8C
  8
0
 10
197.1262999999999
 20
157.59999999999999
 30
0.0
 40
25.0
 50
306.64192814121378
 51
323.06989397484108
  0
LINE
  5
8D
  8
0
 10
209.65935629126429
 20
136.75
 30
0.0
 11
205.34064370873571
 21
136.75
 31
0.0
  0
ARC
  5
8E
  8
0
 10
205.34064370873571
 20
140.75
 30
0.0
 40
4.0
 50
233.35807185878619
 51
270.0
  0
LINE
  5
8F
  8
0
 10
202.5
 20
144.50000000000011
 30
0.0
 11
198.8487164257632
 21
144.50000000000011
 31
0.0
  0
ARC
  5
90
  8
0
 10
217.87370000000001
 20
157.59999999999999
 30
0.0
 40
25.0
 50
216.93010602515889
 51
233.35807185878619
  0
ARC
  5
91
  8
0
 10
198.8487164257632
 20
143.3000000000001
 30
0.0
 40
1.1999999999999991
 50
89.999999999999986
 51
216.93010602515861
  0
ARC
  5
92
  8
0
 10
202.5
 20
145.50000000000011
 30
0.0
 40
1.0
 50
270.0
 51
360.0
  0
LINE
  5
93
  8
0
 10
203.5
 20
147.50000000000011
 30
0.0
 11
203.5
 21
145.50000000000011
 31
0.0
  0
ARC
  5
94
  8
0
 10
178.8487164257632
 20
126.7
 30
0.0
 40
1.1999999999999991
 50
143.06989397484139
 51
270.0
  0
ARC
  5
95
  8
0
 10
182.49999999999989
 20
124.5
 30
0.0
 40
1.0
 50
360.0
 51
89.999999999999915
  0
LINE
  5
96
  8
0
 10
182.49999999999989
 20
125.5
 30
0.0
 11
178.8487164257632
 21
125.5
 31
0.0
  0
LINE
  5
97
  8
0
 10
183.49999999999989
 20
122.5
 30
0.0
 11
183.49999999999989
 21
124.5
 31
0.0
  0
ARC
  5
98
  8
0
 10
185.34064370873571
 20
129.25
 30
0.0
 40
4.0
 50
89.999999999999986
 51
126.6419281412139
  0
ARC
  5
99
  8
0
 10
197.8736999999999
 20
112.40000000000001
 30
0.0
 40
25.0
 50
126.6419281412138
 51
143.06989397484111
  0
LINE
  5
9A
  8
0
 10
185.34064370873571
 20
133.25
 30
0.0
 11
189.6593562912642
 21
133.25
 31
0.0
  0
ARC
  5
9B
  8
0
 10
189.6593562912642
 20
129.25
 30
0.0
 40
4.0
 50
53.358071858786111
 51
90.000000000000057
  0
LINE
  5
9C
  8
0
 10
192.49999999999989
 20
125.5
 30
0.0
 11
196.15128357423669
 21
125.5
 31
0.0
  0
ARC
  5
9D
  8
0
 10
177.12629999999979
 20
112.40000000000001
 30
0.0
 40
25.0
 50
36.930106025158942
 51
53.358071858786211
  0
ARC
  5
9E
  8
0
 10
196.15128357423669
 20
126.7
 30
0.0
 40
1.1999999999999991
 50
270.0
 51
36.930106025158587
  0
ARC
  5
9F
  8
0
 10
192.49999999999989
 20
124.5
 30
0.0
 40
1.0
 50
89.999999999999986
 51
180.0
  0
LINE
  5
A0
  8
0
 10
191.49999999999989
 20
122.5
 30
0.0
 11
191.49999999999989
 21
124.5
 31
0.0
  0
ARC
  5
A1
  8
0
 10
138.84871642576309
 20
126.7
 30
0.0
 40
1.1999999999999991
 50
143.06989397484139
 51
270.0
  0
ARC
  5
A2
  8
0
 10
142.49999999999989
 20
124.5
 30
0.0
 40
1.0
 50
360.0
 51
89.999999999999915
  0
LINE
  5
A3
  8
0
 10
142.49999999999989
 20
125.5
 30
0.0
 11
138.84871642576309
 21
125.5
 31
0.0
  0
LINE
  5
A4
  8
0
 10
143.49999999999989
 20
122.5
 30
0.0
 11
143.49999999999989
 21
124.5
 31
0.0
  0
ARC
  5
A5
  8
0
 10
145.3406437087356
 20
129.25
 30
0.0
 40
4.0
 50
89.999999999999986
 51
126.6419281412139
  0
ARC
  5
A6
  8
0
 10
157.8736999999999
 20
112.40000000000011
 30
0.0
 40
25.0
 50
126.6419281412138
 51
143.06989397484111
  0
LINE
  5
A7
  8
0
 10
145.3406437087356
 20
133.25
 30
0.0
 11
149.65935629126409
 21
133.25
 31
0.0
  0
ARC
  5
A8
  8
0
 10
149.65935629126409
 20
129.25
 30
0.0
 40
4.0
 50
53.358071858786111
 51
90.000000000000057
  0
LINE
  5
A9
  8
0
 10
152.49999999999989
 20
125.5
 30
0.0
 11
156.1512835742366
 21
125.5
 31
0.0
  0
ARC
  5
AA
  8
0
 10
137.12629999999979
 20
112.40000000000011
 30
0.0
 40
25.0
 50
36.930106025158942
 51
53.358071858786211
  0
ARC
  5
AB
  8
0
 10
156.1512835742366
 20
126.7
 30
0.0
 40
1.1999999999999991
 50
270.0
 51
36.930106025158587
  0
ARC
  5
AC
  8
0
 10
152.49999999999989
 20
124.5
 30
0.0
 40
1.0
 50
89.999999999999986
 51
180.0
  0
LINE
  5
AD
  8
0
 10
151.4999999999998
 20
122.5
 30
0.0
 11
151.4999999999998
 21
124.5
 31
0.0
  0
ARC
  5
AE
  8
0
 10
176.15128357423649
 20
143.30000000000001
 30
0.0
 40
1.1999999999999991
 50
323.06989397484148
 51
89.999999999999986
  0
ARC
  5
AF
  8
0
 10
172.4999999999998
 20
145.50000000000011
 30
0.0
 40
1.0
 50
180.0
 51
270.0
  0
LINE
  5
B0
  8
0
 10
172.4999999999998
 20
144.50000000000011
 30
0.0
 11
176.15128357423649
 21
144.5
 31
0.0
  0
LINE
  5
B1
  8
0
 10
171.4999999999998
 20
147.5
 30
0.0
 11
171.4999999999998
 21
145.50000000000011
 31
0.0
  0
ARC
  5
B2
  8
0
 10
169.65935629126409
 20
140.75
 30
0.0
 40
4.0
 50
270.0
 51
306.64192814121401
  0
ARC
  5
B3
  8
0
 10
157.12629999999979
 20
157.59999999999999
 30
0.0
 40
25.0
 50
306.64192814121378
 51
323.06989397484108
  0
LINE
  5
B4
  8
0
 10
169.65935629126409
 20
136.75
 30
0.0
 11
165.3406437087356
 21
136.75
 31
0.0
  0
ARC
  5
B5
  8
0
 10
165.3406437087356
 20
140.75
 30
0.0
 40
4.0
 50
233.35807185878619
 51
270.0
  0
LINE
  5
B6
  8
0
 10
162.4999999999998
 20
144.50000000000011
 30
0.0
 11
158.84871642576309
 21
144.5
 31
0.0
  0
ARC
  5
B7
  8
0
 10
177.87369999999979
 20
157.59999999999999
 30
0.0
 40
25.0
 50
216.93010602515889
 51
233.35807185878619
  0
ARC
  5
B8
  8
0
 10
158.84871642576309
 20
143.30000000000001
 30
0.0
 40
1.1999999999999991
 50
89.999999999999986
 51
216.93010602515861
  0
ARC
  5
B9
  8
0
 10
162.4999999999998
 20
145.50000000000011
 30
0.0
 40
1.0
 50
270.0
 51
360.0
  0
LINE
  5
BA
  8
0
 10
163.4999999999998
 20
147.5
 30
0.0
 11
163.4999999999998
 21
145.50000000000011
 31
0.0
  0
ARC
  5
BB
  8
0
 10
136.1512835742366
 20
143.30000000000001
 30
0.0
 40
1.1999999999999991
 50
323.06989397484148
 51
89.999999999999986
  0
ARC
  5
BC
  8
0
 10
132.49999999999989
 20
145.5
 30
0.0
 40
1.0
 50
180.0
 51
270.0
  0
LINE
  5
BD
  8
0
 10
132.49999999999989
 20
144.5
 30
0.0
 11
136.1512835742366
 21
144.5
 31
0.0
  0
LINE
  5
BE
  8
0
 10
131.49999999999989
 20
147.5
 30
0.0
 11
131.49999999999989
 21
145.5
 31
0.0
  0
ARC
  5
BF
  8
0
 10
129.65935629126409
 20
140.75
 30
0.0
 40
4.0
 50
270.0
 51
306.64192814121401
  0
ARC
  5
C0
  8
0
 10
117.1262999999998
 20
157.59999999999999
 30
0.0
 40
25.0
 50
306.64192814121378
 51
323.06989397484108
  0
LINE
  5
C1
  8
0
 10
129.65935629126409
 20
136.75
 30
0.0
 11
125.3406437087356
 21
136.75
 31
0.0
  0
ARC
  5
C2
  8
0
 10
125.3406437087356
 20
140.75
 30
0.0
 40
4.0
 50
233.35807185878619
 51
270.0
  0
LINE
  5
C3
  8
0
 10
122.4999999999998
 20
144.5
 30
0.0
 11
118.8487164257631
 21
144.5
 31
0.0
  0
ARC
  5
C4
  8
0
 10
137.8736999999999
 20
157.59999999999999
 30
0.0
 40
25.0
 50
216.93010602515889
 51
233.35807185878619
  0
ARC
  5
C5
  8
0
 10
118.8487164257631
 20
143.30000000000001
 30
0.0
 40
1.1999999999999991
 50
89.999999999999986
 51
216.93010602515861
  0
ARC
  5
C6
  8
0
 10
122.4999999999998
 20
145.5
 30
0.0
 40
1.0
 50
270.0
 51
360.0
  0
LINE
  5
C7
  8
0
 10
123.4999999999998
 20
147.5
 30
0.0
 11
123.4999999999998
 21
145.5
 31
0.0
  0
ARC
  5
C8
  8
0
 10
141.99999999999989
 20
122.5
 30
0.0
 40
1.5
 50
270.0
 51
360.0
  0
ARC
  5
C9
  8
0
 10
152.99999999999989
 20
122.5
 30
0.0
 40
1.5
 50
180.0
 51
270.0
  0
ARC
  5
CA
  8
0
 10
181.99999999999989
 20
122.5
 30
0.0
 40
1.5
 50
270.0
 51
360.0
  0
ARC
  5
CB
  8
0
 10
192.99999999999989
 20
122.5
 30
0.0
 40
1.5
 50
180.0
 51
270.0
  0
ARC
  5
CC
  8
0
 10
221.99999999999989
 20
122.5
 30
0.0
 40
1.5
 50
270.0
 51
360.0
  0
ARC
  5
CD
  8
0
 10
233.0
 20
122.5
 30
0.0
 40
1.5
 50
180.0
 51
270.0
  0
ARC
  5
CE
  8
0
 10
252.99999999999989
 20
147.5
 30
0.0
 40
1.5
 50
90.000000000000014
 51
180.0
  0
ARC
  5
CF
  8
0
 10
241.99999999999989
 20
147.5
 30
0.0
 40
1.5
 50
360.0
 51
89.999999999999986
  0
ARC
  5
D0
  8
0
 10
213.0
 20
147.50000000000011
 30
0.0
 40
1.5
 50
90.000000000000014
 51
180.0
  0
ARC
  5
D1
  8
0
 10
202.0
 20
147.50000000000011
 30
0.0
 40
1.5
 50
360.0
 51
89.999999999999986
  0
ARC
  5
D2
  8
0
 10
172.9999999999998
 20
147.50000000000011
 30
0.0
 40
1.5
 50
90.000000000000014
 51
180.0
  0
ARC
  5
D3
  8
0
 10
161.9999999999998
 20
147.50000000000011
 30
0.0
 40
1.5
 50
360.0
 51
89.999999999999986
  0
ARC
  5
D4
  8
0
 10
121.9999999999998
 20
147.5
 30
0.0
 40
1.5
 50
360.0
 51
89.999999999999986
  0
ARC
  5
D5
  8
0
 10
132.9999999999998
 20
147.5
 30
0.0
 40
1.5
 50
90.000000000000014
 51
180.0
  0
LINE
  5
D6
  8
1
 10
277.49999999999989
 20
135.0
 30
0.0
 11
97.499999999999957
 21
135.0
 31
0.0
  0
LINE
  5
D7
  8
1
 10
252.4999999999998
 20
129.0
 30
0.0
 11
242.4999999999998
 21
129.0
 31
0.0
  0
LINE
  5
D8
  8
1
 10
232.49999999999969
 20
141.0
 30
0.0
 11
222.49999999999969
 21
141.0
 31
0.0
  0
LINE
  5
D9
  8
1
 10
142.5
 20
141.0
 30
0.0
 11
152.5
 21
141.0
 31
0.0
  0
LINE
  5
DA
  8
1
 10
122.5
 20
129.0
 30
0.0
 11
132.5
 21
129.0
 31
0.0
  0
LINE
  5
DB
  8
1
 10
127.4999999999998
 20
120.60000000000041
 30
0.0
 11
127.4999999999999
 21
154.0
 31
0.0
  0
LINE
  5
DC
  8
1
 10
147.49999999999989
 20
149.39999999999969
 30
0.0
 11
147.4999999999998
 21
116.0
 31
0.0
  0
LINE
  5
DD
  8
1
 10
167.4999999999998
 20
120.60000000000041
 30
0.0
 11
167.4999999999998
 21
154.0
 31
0.0
  0
LINE
  5
DE
  8
1
 10
207.5
 20
120.60000000000041
 30
0.0
 11
207.5
 21
154.0
 31
0.0
  0
LINE
  5
DF
  8
0
 10
252.99999999999989
 20
149.0
 30
0.0
 11
263.49999999999989
 21
149.0
 31
0.0
  0
LINE
  5
E0
  8
0
 10
212.99999999999989
 20
149.0
 30
0.0
 11
241.99999999999989
 21
149.0
 31
0.0
  0
LINE
  5
E1
  8
0
 10
172.99999999999989
 20
149.0
 30
0.0
 11
202.0
 21
149.0
 31
0.0
  0
LINE
  5
E2
  8
0
 10
132.99999999999989
 20
149.0
 30
0.0
 11
161.99999999999989
 21
149.0
 31
0.0
  0
LINE
  5
E3
  8
0
 10
152.99999999999989
 20
121.0
 30
0.0
 11
181.99999999999989
 21
121.0
 31
0.0
  0
LINE
  5
E4
  8
0
 10
192.99999999999989
 20
121.0
 30
0.0
 11
221.99999999999989
 21
121.0
 31
0.0
  0
LINE
  5
E5
  8
0
 10
232.99999999999989
 20
121.0
 30
0.0
 11
263.49999999999989
 21
121.0
 31
0.0
  0
LINE
  5
E6
  8
0
 10
111.4999999999999
 20
149.0
 30
0.0
 11
121.9999999999999
 21
149.0
 31
0.0
  0
CIRCLE
  5
E7
  8
0
 10
227.49999999999989
 20
141.00000000000011
 30
0.0
 40
3.399999999999999
  0
CIRCLE
  5
E8
  8
0
 10
187.49999999999989
 20
141.00000000000011
 30
0.0
 40
3.399999999999999
  0
CIRCLE
  5
E9
  8
0
 10
147.49999999999989
 20
141.00000000000011
 30
0.0
 40
3.399999999999999
  0
CIRCLE
  5
EA
  8
0
 10
247.5
 20
129.00000000000011
 30
0.0
 40
3.399999999999999
  0
CIRCLE
  5
EB
  8
0
 10
207.49999999999989
 20
129.00000000000011
 30
0.0
 40
3.399999999999999
  0
CIRCLE
  5
EC
  8
0
 10
167.49999999999989
 20
129.00000000000011
 30
0.0
 40
3.399999999999999
  0
CIRCLE
  5
ED
  8
0
 10
127.4999999999999
 20
129.00000000000011
 30
0.0
 40
3.399999999999999
  0
LINE
  5
EE
  8
0
 10
111.4999999999999
 20
121.0
 30
0.0
 11
141.99999999999989
 21
121.0
 31
0.0
  0
LINE
  5
EF
  8
0
 10
107.4999999999999
 20
145.0
 30
0.0
 11
107.4999999999999
 21
125.0
 31
0.0
  0
LINE
  5
F0
  8
0
 10
267.49999999999989
 20
145.00000000000011
 30
0.0
 11
267.49999999999989
 21
125.0
 31
0.0
  0
ARC
  5
F1
  8
0
 10
111.4999999999999
 20
125.0
 30
0.0
 40
4.0
 50
180.0
 51
269.99999999999989
  0
ARC
  5
F2
  8
0
 10
111.4999999999999
 20
145.0
 30
0.0
 40
4.0
 50
89.999999999999986
 51
180.0
  0
ARC
  5
F3
  8
0
 10
263.49999999999989
 20
125.0
 30
0.0
 40
4.0
 50
270.0
 51
360.0
  0
ARC
  5
F4
  8
0
 10
263.49999999999989
 20
145.00000000000011
 30
0.0
 40
4.0
 50
360.0
 51
89.999999999999986
  0
LINE
  5
F5
  8
1
 10
187.49999999999989
 20
159.0
 30
0.0
 11
187.49999999999989
 21
110.9999999999999
 31
0.0
  0
LINE
  5
F6
  8
1
 10
227.49999999999989
 20
149.39999999999969
 30
0.0
 11
227.49999999999989
 21
116.0
 31
0.0
  0
LINE
  5
F7
  8
1
 10
247.5
 20
120.60000000000041
 30
0.0
 11
247.5
 21
154.0
 31
0.0
  0
LINE
  5
F8
  8
1
 10
162.49999999999989
 20
129.00000000000011
 30
0.0
 11
172.49999999999989
 21
129.00000000000011
 31
0.0
  0
LINE
  5
F9
  8
1
 10
212.49999999999989
 20
129.00000000000011
 30
0.0
 11
202.49999999999989
 21
129.00000000000011
 31
0.0
  0
LINE
  5
FA
  8
1
 10
182.49999999999989
 20
141.00000000000011
 30
0.0
 11
192.49999999999989
 21
141.00000000000011
 31
0.0
  0
TEXT
  5
1DF
  8
0
 62
     3
 10
0.0
 20
0.0
 30
0.0
 40
10.0
  1
SPH16028N-3M
  7
STANDARD1
  0
ENDSEC
  0
EOF
