  0
SECTION
  2
HEADER
  9
$ACADVER
  1
AC1009
  9
$INSBASE
 10
0.0
 20
0.0
 30
0.0
  9
$EXTMIN
 10
0.0
 20
-2.960436562073669
 30
0.0
  9
$EXTMAX
 10
328.709002
 20
193.81729899999999
 30
0.0
  9
$LIMMIN
 10
0.0
 20
0.0
  9
$LIMMAX
 10
195.0
 20
135.0
  9
$ORTHOMODE
 70
     1
  9
$REGENMODE
 70
     1
  9
$FILLMODE
 70
     1
  9
$QTEXTMODE
 70
     0
  9
$MIRRTEXT
 70
     0
  9
$DRAGMODE
 70
     2
  9
$LTSCALE
 40
5.0
  9
$OSMODE
 70
    55
  9
$ATTMODE
 70
     1
  9
$TEXTSIZE
 40
0.2
  9
$TRACEWID
 40
0.05
  9
$TEXTSTYLE
  7
STANDARD
  9
$CLAYER
  8
0
  9
$CELTYPE
  6
BYLAYER
  9
$CECOLOR
 62
   256
  9
$DIMSCALE
 40
0.5
  9
$DIMASZ
 40
3.0
  9
$DIMEXO
 40
1.0
  9
$DIMDLI
 40
6.0
  9
$DIMRND
 40
0.0
  9
$DIMDLE
 40
0.0
  9
$DIMEXE
 40
1.0
  9
$DIMTP
 40
495.0
  9
$DIMTM
 40
0.0
  9
$DIMTXT
 40
3.0
  9
$DIMCEN
 40
0.0
  9
$DIMTSZ
 40
0.0
  9
$DIMTOL
 70
     0
  9
$DIMLIM
 70
     0
  9
$DIMTIH
 70
     0
  9
$DIMTOH
 70
     0
  9
$DIMSE1
 70
     0
  9
$DIMSE2
 70
     0
  9
$DIMTAD
 70
     1
  9
$DIMZIN
 70
     0
  9
$DIMBLK
  1

  9
$DIMASO
 70
     0
  9
$DIMSHO
 70
     0
  9
$DIMPOST
  1

  9
$DIMAPOST
  1

  9
$DIMALT
 70
     0
  9
$DIMALTD
 70
     2
  9
$DIMALTF
 40
25.399999999999999
  9
$DIMLFAC
 40
1.0
  9
$DIMTOFL
 70
     1
  9
$DIMTVP
 40
0.0
  9
$DIMTIX
 70
     1
  9
$DIMSOXD
 70
     0
  9
$DIMSAH
 70
     0
  9
$DIMBLK1
  1

  9
$DIMBLK2
  1

  9
$DIMSTYLE
  2
STANDARD
  9
$DIMCLRD
 70
     0
  9
$DIMCLRE
 70
     0
  9
$DIMCLRT
 70
     0
  9
$DIMTFAC
 40
1.0
  9
$DIMGAP
 40
0.09
  9
$LUNITS
 70
     2
  9
$LUPREC
 70
     2
  9
$SKETCHINC
 40
0.1
  9
$FILLETRAD
 40
0.0
  9
$AUNITS
 70
     0
  9
$AUPREC
 70
     2
  9
$MENU
  1
E:\r13\win\SUPPORT\ACAD
  9
$ELEVATION
 40
0.0
  9
$PELEVATION
 40
0.0
  9
$THICKNESS
 40
0.0
  9
$LIMCHECK
 70
     0
  9
$BLIPMODE
 70
     0
  9
$CHAMFERA
 40
0.0
  9
$CHAMFERB
 40
0.0
  9
$SKPOLY
 70
     0
  9
$TDCREATE
 40
2449840.6549537042
  9
$TDUPDATE
 40
2456598.546274248
  9
$TDINDWG
 40
0.0001108912
  9
$TDUSRTIMER
 40
0.0001108912
  9
$USRTIMER
 70
     1
  9
$ANGBASE
 50
0.0
  9
$ANGDIR
 70
     0
  9
$PDMODE
 70
     0
  9
$PDSIZE
 40
0.0
  9
$PLINEWID
 40
0.0
  9
$COORDS
 70
     1
  9
$SPLFRAME
 70
     0
  9
$SPLINETYPE
 70
     6
  9
$SPLINESEGS
 70
     8
  9
$ATTDIA
 70
     0
  9
$ATTREQ
 70
     1
  9
$HANDLING
 70
     1
  9
$HANDSEED
  5
37A
  9
$SURFTAB1
 70
     6
  9
$SURFTAB2
 70
     6
  9
$SURFTYPE
 70
     6
  9
$SURFU
 70
     6
  9
$SURFV
 70
     6
  9
$UCSNAME
  2

  9
$UCSORG
 10
0.0
 20
0.0
 30
0.0
  9
$UCSXDIR
 10
1.0
 20
0.0
 30
0.0
  9
$UCSYDIR
 10
0.0
 20
1.0
 30
0.0
  9
$PUCSNAME
  2

  9
$PUCSORG
 10
0.0
 20
0.0
 30
0.0
  9
$PUCSXDIR
 10
1.0
 20
0.0
 30
0.0
  9
$PUCSYDIR
 10
0.0
 20
1.0
 30
0.0
  9
$USERI1
 70
     3
  9
$USERI2
 70
     1
  9
$USERI3
 70
     0
  9
$USERI4
 70
     1
  9
$USERI5
 70
     0
  9
$USERR1
 40
0.5
  9
$USERR2
 40
3.0
  9
$USERR3
 40
3.0
  9
$USERR4
 40
3.0
  9
$USERR5
 40
10.0
  9
$WORLDVIEW
 70
     1
  9
$SHADEDGE
 70
     3
  9
$SHADEDIF
 70
    70
  9
$TILEMODE
 70
     1
  9
$MAXACTVP
 70
    16
  9
$PLIMCHECK
 70
     0
  9
$PEXTMIN
 10
1.0000000000000000E+020
 20
1.0000000000000000E+020
 30
1.0000000000000000E+020
  9
$PEXTMAX
 10
-1.0000000000000000E+020
 20
-1.0000000000000000E+020
 30
-1.0000000000000000E+020
  9
$PLIMMIN
 10
0.0
 20
0.0
  9
$PLIMMAX
 10
12.0
 20
9.0
  9
$UNITMODE
 70
     0
  9
$VISRETAIN
 70
     0
  9
$PLINEGEN
 70
     0
  9
$PSLTSCALE
 70
     0
  0
ENDSEC
  0
SECTION
  2
TABLES
  0
TABLE
  2
VPORT
 70
     1
  0
VPORT
  2
*ACTIVE
 70
     0
 10
0.0
 20
0.0
 11
1.0
 21
1.0
 12
164.35450176533519
 22
125.2779961838427
 13
0.0
 23
0.0
 14
5.0
 24
5.0
 15
5.0
 25
5.0
 16
0.0
 26
0.0
 36
1.0
 17
0.0
 27
0.0
 37
0.0
 40
258.7445700267084
 41
1.7807262569832401
 42
50.0
 43
0.0
 44
0.0
 50
0.0
 51
0.0
 71
     0
 72
   100
 73
     1
 74
     0
 75
     0
 76
     0
 77
     0
 78
     0
  0
ENDTAB
  0
TABLE
  2
LTYPE
 70
     3
  0
LTYPE
  2
CONTINUOUS
 70
     0
  3
Solid Line
 72
    65
 73
     0
 40
0.0
  0
LTYPE
  2
CENTER
 70
     0
  3
____ _ ____ _ ____ _ ____ _ ____ _ ____ _ ____
 72
    65
 73
     4
 40
2.0
 49
1.25
 49
-0.25
 49
0.25
 49
-0.25
  0
LTYPE
  2
PHANTOM2
 70
     0
  3
___ _ _ ___ _ _ ___ _ _ ___ _ _
 72
    65
 73
     6
 40
1.25
 49
0.625
 49
-0.125
 49
0.125
 49
-0.125
 49
0.125
 49
-0.125
  0
ENDTAB
  0
TABLE
  2
LAYER
 70
     2
  0
LAYER
  2
0
 70
     0
 62
     7
  6
CONTINUOUS
  0
LAYER
  2
1
 70
     0
 62
     1
  6
CENTER
  0
ENDTAB
  0
TABLE
  2
STYLE
 70
     2
  0
STYLE
  2
STANDARD
 70
     0
 40
0.0
 41
1.0
 50
0.0
 71
     0
 42
0.2
  3
TXT
  4
BIGFONT
  0
STYLE
  2
STANDARD1
 70
     0
 40
0.0
 41
1.0
 50
0.0
 71
     0
 42
3.0
  3
txt
  4

  0
ENDTAB
  0
TABLE
  2
VIEW
 70
     0
  0
ENDTAB
  0
TABLE
  2
UCS
 70
     0
  0
ENDTAB
  0
TABLE
  2
APPID
 70
     3
  0
APPID
  2
ACAD
 70
     0
  0
APPID
  2
ACAD_MLEADERVER
 70
     0
  0
APPID
  2
ACAD_NAV_VCDISPLAY
 70
     0
  0
ENDTAB
  0
TABLE
  2
DIMSTYLE
 70
     1
  0
DIMSTYLE
  2
STANDARD
 70
     0
  3

  4

  5

  6

  7

 40
1.0
 41
0.18
 42
0.0625
 43
0.38
 44
0.18
 45
0.0
 46
0.0
 47
0.0
 48
0.0
140
0.18
141
0.09
142
0.0
143
25.399999999999999
144
1.0
145
0.0
146
1.0
147
0.09
 71
     0
 72
     0
 73
     1
 74
     1
 75
     0
 76
     0
 77
     0
 78
     0
170
     0
171
     2
172
     0
173
     0
174
     0
175
     0
176
     0
177
     0
178
     0
  0
ENDTAB
  0
ENDSEC
  0
SECTION
  2
BLOCKS
  0
BLOCK
  8
0
  2
$MODEL_SPACE
 70
     0
 10
0.0
 20
0.0
 30
0.0
  3
$MODEL_SPACE
  1

  0
ENDBLK
  5
236
  8
0
  0
BLOCK
 67
     1
  8
0
  2
$PAPER_SPACE
 70
     0
 10
0.0
 20
0.0
 30
0.0
  3
$PAPER_SPACE
  1

  0
ENDBLK
  5
234
 67
     1
  8
0
  0
ENDSEC
  0
SECTION
  2
ENTITIES
  0
LINE
  5
66
  8
0
 10
276.52622100000002
 20
131.21419900000001
 30
0.0
 11
276.52622100000002
 21
127.54463800000001
 31
0.0
  0
LINE
  5
67
  8
0
 10
262.02622100000002
 20
126.54463800000001
 30
0.0
 11
275.52622100000002
 21
126.54463800000001
 31
0.0
  0
LINE
  5
68
  8
0
 10
239.85665900000001
 20
126.54463800000001
 30
0.0
 11
251.02622099999999
 21
126.54463800000001
 31
0.0
  0
LINE
  5
69
  8
0
 10
222.02622099999999
 20
126.54463800000001
 30
0.0
 11
233.25665900000001
 21
126.54463800000001
 31
0.0
  0
LINE
  5
6A
  8
0
 10
199.85665900000001
 20
126.54463800000001
 30
0.0
 11
211.02622099999999
 21
126.54463800000001
 31
0.0
  0
LINE
  5
6B
  8
0
 10
182.02622099999999
 20
126.54463800000001
 30
0.0
 11
193.25665900000001
 21
126.54463800000001
 31
0.0
  0
LINE
  5
6C
  8
0
 10
159.85665900000001
 20
126.54463800000001
 30
0.0
 11
171.02622099999999
 21
126.54463800000001
 31
0.0
  0
LINE
  5
6D
  8
0
 10
142.02622099999999
 20
126.54463800000001
 30
0.0
 11
153.25665900000001
 21
126.54463800000001
 31
0.0
  0
LINE
  5
6E
  8
0
 10
116.52622100000001
 20
131.21419900000001
 30
0.0
 11
116.52622100000001
 21
127.54463800000001
 31
0.0
  0
LINE
  5
6F
  8
0
 10
239.056659
 20
127.344638
 30
0.0
 11
239.056659
 21
128.04463799999999
 31
0.0
  0
LINE
  5
70
  8
0
 10
234.056659
 20
128.04463799999999
 30
0.0
 11
234.056659
 21
127.344638
 31
0.0
  0
ARC
  5
71
  8
0
 10
233.75665900000001
 20
128.04463799999999
 30
0.0
 40
0.3
 50
0.0
 51
90.0
  0
ARC
  5
72
  8
0
 10
239.35665900000001
 20
128.04463799999999
 30
0.0
 40
0.3
 50
90.0
 51
180.0
  0
LINE
  5
73
  8
0
 10
231.60665900000001
 20
128.34463799999989
 30
0.0
 11
233.75665900000001
 21
128.34463799999989
 31
0.0
  0
ARC
  5
74
  8
0
 10
231.60665900000001
 20
129.14463799999999
 30
0.0
 40
0.8
 50
135.0
 51
270.0
  0
LINE
  5
75
  8
0
 10
231.04097400000001
 20
129.71032299999999
 30
0.0
 11
233.84097399999999
 21
132.510323
 31
0.0
  0
ARC
  5
76
  8
0
 10
234.40665899999999
 20
131.944638
 30
0.0
 40
0.8
 50
90.0
 51
135.0
  0
ARC
  5
77
  8
0
 10
238.706659
 20
131.944638
 30
0.0
 40
0.8
 50
45.0
 51
90.0
  0
LINE
  5
78
  8
0
 10
242.07234500000001
 20
129.71032299999999
 30
0.0
 11
239.272345
 21
132.510323
 31
0.0
  0
ARC
  5
79
  8
0
 10
241.50665900000001
 20
129.14463799999999
 30
0.0
 40
0.8
 50
270.0
 51
45.0
  0
LINE
  5
7A
  8
0
 10
241.50665900000001
 20
128.34463799999989
 30
0.0
 11
239.35665900000001
 21
128.34463799999989
 31
0.0
  0
ARC
  5
7B
  8
0
 10
239.35665900000001
 20
128.04463799999999
 30
0.0
 40
0.3
 50
90.0
 51
180.0
  0
LINE
  5
7C
  8
0
 10
234.40665899999999
 20
132.74463800000001
 30
0.0
 11
238.645782
 21
132.74463800000001
 31
0.0
  0
ARC
  5
7D
  8
0
 10
233.25665900000001
 20
127.344638
 30
0.0
 40
0.8
 50
270.0
 51
0.0
  0
ARC
  5
7E
  8
0
 10
239.85665900000001
 20
127.344638
 30
0.0
 40
0.8
 50
180.0
 51
270.0
  0
ARC
  5
7F
  8
0
 10
236.52622099999999
 20
136.54463799999999
 30
0.0
 40
2.0
 50
213.05573100000001
 51
326.94426900000002
  0
ARC
  5
80
  8
0
 10
230.52622099999999
 20
134.54463799999999
 30
0.0
 40
2.0
 50
258.05573099999998
 51
11.944269
  0
LINE
  5
81
  8
0
 10
228.51527400000001
 20
133.94790399999999
 30
0.0
 11
228.05134699999999
 21
133.48397800000001
 31
0.0
  0
LINE
  5
82
  8
0
 10
228.05134699999999
 20
133.20113499999999
 30
0.0
 11
229.18271799999999
 21
132.06976399999999
 31
0.0
  0
LINE
  5
83
  8
0
 10
229.46556100000001
 20
132.06976399999999
 30
0.0
 11
229.92948699999999
 21
132.533691
 31
0.0
  0
LINE
  5
84
  8
0
 10
233.72481999999999
 20
140.003457
 30
0.0
 11
234.321776
 21
137.775586
 31
0.0
  0
ARC
  5
85
  8
0
 10
234.62275299999999
 20
137.856233
 30
0.0
 40
0.311595
 50
195.0
 51
325.43100800000002
  0
LINE
  5
86
  8
0
 10
230.52622099999999
 20
136.73552799999999
 30
0.0
 11
230.52622099999999
 21
137.461795
 31
0.0
  0
LINE
  5
87
  8
0
 10
230.46764200000001
 20
137.603217
 30
0.0
 11
229.03332800000001
 21
139.037531
 31
0.0
  0
LINE
  5
88
  8
0
 10
232.758894
 20
140.74463800000001
 30
0.0
 11
229.74043399999999
 21
140.74463800000001
 31
0.0
  0
ARC
  5
89
  8
0
 10
229.74043399999999
 20
139.74463800000001
 30
0.0
 40
1.0
 50
90.0
 51
225.0
  0
ARC
  5
8A
  8
0
 10
232.758894
 20
139.74463800000001
 30
0.0
 40
1.0
 50
15.0
 51
90.0
  0
LINE
  5
8B
  8
0
 10
233.02327700000001
 20
135.54463799999999
 30
0.0
 11
234.682312
 21
135.54463799999999
 31
0.0
  0
LINE
  5
8C
  8
0
 10
232.53716800000001
 20
135.14137199999999
 30
0.0
 11
232.881856
 21
135.48605900000001
 31
0.0
  0
ARC
  5
8D
  8
0
 10
230.52622099999999
 20
134.54463799999999
 30
0.0
 40
2.0
 50
95.215908999999996
 51
191.94426899999999
  0
ARC
  5
8E
  8
0
 10
230.326221
 20
137.461795
 30
0.0
 40
0.2
 50
0.0
 51
45.0
  0
ARC
  5
8F
  8
0
 10
230.326221
 20
136.73552799999999
 30
0.0
 40
0.2
 50
275.21590900000001
 51
0.0
  0
ARC
  5
90
  8
0
 10
228.373852
 20
134.089326
 30
0.0
 40
0.2
 50
315.0
 51
11.944269
  0
ARC
  5
91
  8
0
 10
228.192768
 20
133.342556
 30
0.0
 40
0.2
 50
135.0
 51
225.0
  0
ARC
  5
92
  8
0
 10
229.324139
 20
132.211186
 30
0.0
 40
0.2
 50
225.0
 51
315.0
  0
ARC
  5
93
  8
0
 10
230.070908
 20
132.392269
 30
0.0
 40
0.2
 50
78.055731000000009
 51
135.0
  0
ARC
  5
94
  8
0
 10
232.67858899999999
 20
134.99995000000001
 30
0.0
 40
0.2
 50
135.0
 51
191.94426899999999
  0
ARC
  5
95
  8
0
 10
233.02327700000001
 20
135.344638
 30
0.0
 40
0.2
 50
90.0
 51
135.0
  0
ARC
  5
96
  8
0
 10
234.682312
 20
135.344638
 30
0.0
 40
0.2
 50
33.055731000000002
 51
90.0
  0
ARC
  5
97
  8
0
 10
238.37012999999999
 20
135.344638
 30
0.0
 40
0.2
 50
90.0
 51
146.94426899999999
  0
ARC
  5
98
  8
0
 10
240.02916500000001
 20
135.344638
 30
0.0
 40
0.2
 50
45.0
 51
90.0
  0
ARC
  5
99
  8
0
 10
240.373852
 20
134.99995000000001
 30
0.0
 40
0.2
 50
348.05573099999998
 51
45.0
  0
ARC
  5
9A
  8
0
 10
242.98153300000001
 20
132.392269
 30
0.0
 40
0.2
 50
45.0
 51
101.94426900000001
  0
ARC
  5
9B
  8
0
 10
243.72830200000001
 20
132.211186
 30
0.0
 40
0.2
 50
225.0
 51
315.0
  0
ARC
  5
9C
  8
0
 10
244.85967299999999
 20
133.342556
 30
0.0
 40
0.2
 50
315.0
 51
45.0
  0
ARC
  5
9D
  8
0
 10
244.67858899999999
 20
134.089326
 30
0.0
 40
0.2
 50
168.05573100000001
 51
225.0
  0
ARC
  5
9E
  8
0
 10
242.72622100000001
 20
136.73552799999999
 30
0.0
 40
0.2
 50
180.0
 51
264.78409099999999
  0
ARC
  5
9F
  8
0
 10
242.72622100000001
 20
137.461795
 30
0.0
 40
0.2
 50
135.0
 51
180.0
  0
ARC
  5
A0
  8
0
 10
242.52622099999999
 20
134.54463799999999
 30
0.0
 40
2.0
 50
348.05573099999998
 51
84.784091000000004
  0
LINE
  5
A1
  8
0
 10
240.51527400000009
 20
135.14137199999999
 30
0.0
 11
240.17058599999999
 21
135.48605900000001
 31
0.0
  0
LINE
  5
A2
  8
0
 10
240.02916500000001
 20
135.54463799999999
 30
0.0
 11
238.37012999999999
 21
135.54463799999999
 31
0.0
  0
ARC
  5
A3
  8
0
 10
240.29354799999999
 20
139.74463800000001
 30
0.0
 40
1.0
 50
90.0
 51
165.0
  0
ARC
  5
A4
  8
0
 10
243.31200699999999
 20
139.74463800000001
 30
0.0
 40
1.0
 50
315.0
 51
90.0
  0
LINE
  5
A5
  8
0
 10
240.29354799999999
 20
140.74463800000001
 30
0.0
 11
243.31200699999999
 21
140.74463800000001
 31
0.0
  0
LINE
  5
A6
  8
0
 10
242.584799
 20
137.603217
 30
0.0
 11
244.019114
 21
139.037531
 31
0.0
  0
LINE
  5
A7
  8
0
 10
242.52622099999999
 20
136.73552799999999
 30
0.0
 11
242.52622099999999
 21
137.461795
 31
0.0
  0
ARC
  5
A8
  8
0
 10
238.429688
 20
137.856233
 30
0.0
 40
0.311595
 50
214.56899200000001
 51
345.0
  0
LINE
  5
A9
  8
0
 10
239.32762199999999
 20
140.003457
 30
0.0
 11
238.73066600000001
 21
137.775586
 31
0.0
  0
LINE
  5
AA
  8
0
 10
243.58688100000001
 20
132.06976399999999
 30
0.0
 11
243.12295399999999
 21
132.533691
 31
0.0
  0
LINE
  5
AB
  8
0
 10
245.00109499999999
 20
133.20113499999999
 30
0.0
 11
243.86972399999999
 21
132.06976399999999
 31
0.0
  0
LINE
  5
AC
  8
0
 10
244.53716800000001
 20
133.94790399999999
 30
0.0
 11
245.00109499999999
 21
133.48397800000001
 31
0.0
  0
ARC
  5
AD
  8
0
 10
242.52622099999999
 20
134.54463799999999
 30
0.0
 40
2.0
 50
168.05573100000001
 51
281.94426900000002
  0
ARC
  5
AE
  8
0
 10
236.52622099999999
 20
136.54463799999999
 30
0.0
 40
2.0
 50
34.568992000000001
 51
145.43100799999999
  0
LINE
  5
AF
  8
0
 10
199.056659
 20
127.344638
 30
0.0
 11
199.056659
 21
128.04463799999999
 31
0.0
  0
LINE
  5
B0
  8
0
 10
194.056659
 20
128.04463799999999
 30
0.0
 11
194.056659
 21
127.344638
 31
0.0
  0
ARC
  5
B1
  8
0
 10
193.75665900000001
 20
128.04463799999999
 30
0.0
 40
0.3
 50
0.0
 51
90.0
  0
ARC
  5
B2
  8
0
 10
199.35665900000001
 20
128.04463799999999
 30
0.0
 40
0.3
 50
90.0
 51
180.0
  0
LINE
  5
B3
  8
0
 10
191.60665900000001
 20
128.34463799999989
 30
0.0
 11
193.75665900000001
 21
128.34463799999989
 31
0.0
  0
ARC
  5
B4
  8
0
 10
191.60665900000001
 20
129.14463799999999
 30
0.0
 40
0.8
 50
135.0
 51
270.0
  0
LINE
  5
B5
  8
0
 10
191.04097400000001
 20
129.71032299999999
 30
0.0
 11
193.84097399999999
 21
132.510323
 31
0.0
  0
ARC
  5
B6
  8
0
 10
194.40665899999999
 20
131.944638
 30
0.0
 40
0.8
 50
90.0
 51
135.0
  0
ARC
  5
B7
  8
0
 10
198.706659
 20
131.944638
 30
0.0
 40
0.8
 50
45.0
 51
90.0
  0
LINE
  5
B8
  8
0
 10
202.07234500000001
 20
129.71032299999999
 30
0.0
 11
199.272345
 21
132.510323
 31
0.0
  0
ARC
  5
B9
  8
0
 10
201.50665900000001
 20
129.14463799999999
 30
0.0
 40
0.8
 50
270.0
 51
45.0
  0
LINE
  5
BA
  8
0
 10
201.50665900000001
 20
128.34463799999989
 30
0.0
 11
199.35665900000001
 21
128.34463799999989
 31
0.0
  0
ARC
  5
BB
  8
0
 10
199.35665900000001
 20
128.04463799999999
 30
0.0
 40
0.3
 50
90.0
 51
180.0
  0
LINE
  5
BC
  8
0
 10
194.40665899999999
 20
132.74463800000001
 30
0.0
 11
198.645782
 21
132.74463800000001
 31
0.0
  0
ARC
  5
BD
  8
0
 10
193.25665900000001
 20
127.344638
 30
0.0
 40
0.8
 50
270.0
 51
0.0
  0
ARC
  5
BE
  8
0
 10
199.85665900000001
 20
127.344638
 30
0.0
 40
0.8
 50
180.0
 51
270.0
  0
ARC
  5
BF
  8
0
 10
196.52622099999999
 20
136.54463799999999
 30
0.0
 40
2.0
 50
213.05573100000001
 51
326.94426900000002
  0
ARC
  5
C0
  8
0
 10
190.52622099999999
 20
134.54463799999999
 30
0.0
 40
2.0
 50
258.05573099999998
 51
11.944269
  0
LINE
  5
C1
  8
0
 10
188.51527400000001
 20
133.94790399999999
 30
0.0
 11
188.05134699999999
 21
133.48397800000001
 31
0.0
  0
LINE
  5
C2
  8
0
 10
188.05134699999999
 20
133.20113499999999
 30
0.0
 11
189.18271799999999
 21
132.06976399999999
 31
0.0
  0
LINE
  5
C3
  8
0
 10
189.46556100000001
 20
132.06976399999999
 30
0.0
 11
189.92948699999999
 21
132.533691
 31
0.0
  0
LINE
  5
C4
  8
0
 10
193.72481999999999
 20
140.003457
 30
0.0
 11
194.321776
 21
137.775586
 31
0.0
  0
ARC
  5
C5
  8
0
 10
194.62275299999999
 20
137.856233
 30
0.0
 40
0.311595
 50
195.0
 51
325.43100800000002
  0
LINE
  5
C6
  8
0
 10
190.52622099999999
 20
136.73552799999999
 30
0.0
 11
190.52622099999999
 21
137.461795
 31
0.0
  0
LINE
  5
C7
  8
0
 10
190.46764200000001
 20
137.603217
 30
0.0
 11
189.03332800000001
 21
139.037531
 31
0.0
  0
LINE
  5
C8
  8
0
 10
192.758894
 20
140.74463800000001
 30
0.0
 11
189.74043399999999
 21
140.74463800000001
 31
0.0
  0
ARC
  5
C9
  8
0
 10
189.74043399999999
 20
139.74463800000001
 30
0.0
 40
1.0
 50
90.0
 51
225.0
  0
ARC
  5
CA
  8
0
 10
192.758894
 20
139.74463800000001
 30
0.0
 40
1.0
 50
15.0
 51
90.0
  0
LINE
  5
CB
  8
0
 10
193.02327700000001
 20
135.54463799999999
 30
0.0
 11
194.682312
 21
135.54463799999999
 31
0.0
  0
LINE
  5
CC
  8
0
 10
192.53716799999989
 20
135.14137199999999
 30
0.0
 11
192.881856
 21
135.48605900000001
 31
0.0
  0
ARC
  5
CD
  8
0
 10
190.52622099999999
 20
134.54463799999999
 30
0.0
 40
2.0
 50
95.215908999999996
 51
191.94426899999999
  0
ARC
  5
CE
  8
0
 10
190.326221
 20
137.461795
 30
0.0
 40
0.2
 50
0.0
 51
45.0
  0
ARC
  5
CF
  8
0
 10
190.326221
 20
136.73552799999999
 30
0.0
 40
0.2
 50
275.21590900000001
 51
0.0
  0
ARC
  5
D0
  8
0
 10
188.373852
 20
134.089326
 30
0.0
 40
0.2
 50
315.0
 51
11.944269
  0
ARC
  5
D1
  8
0
 10
188.192768
 20
133.342556
 30
0.0
 40
0.2
 50
135.0
 51
225.0
  0
ARC
  5
D2
  8
0
 10
189.324139
 20
132.211186
 30
0.0
 40
0.2
 50
225.0
 51
315.0
  0
ARC
  5
D3
  8
0
 10
190.070908
 20
132.392269
 30
0.0
 40
0.2
 50
78.055731000000009
 51
135.0
  0
ARC
  5
D4
  8
0
 10
192.67858899999999
 20
134.99995000000001
 30
0.0
 40
0.2
 50
135.0
 51
191.94426899999999
  0
ARC
  5
D5
  8
0
 10
193.02327700000001
 20
135.344638
 30
0.0
 40
0.2
 50
90.0
 51
135.0
  0
ARC
  5
D6
  8
0
 10
194.682312
 20
135.344638
 30
0.0
 40
0.2
 50
33.055731000000002
 51
90.0
  0
ARC
  5
D7
  8
0
 10
198.37012999999999
 20
135.344638
 30
0.0
 40
0.2
 50
90.0
 51
146.94426899999999
  0
ARC
  5
D8
  8
0
 10
200.02916500000001
 20
135.344638
 30
0.0
 40
0.2
 50
45.0
 51
90.0
  0
ARC
  5
D9
  8
0
 10
200.373852
 20
134.99995000000001
 30
0.0
 40
0.2
 50
348.05573099999998
 51
45.0
  0
ARC
  5
DA
  8
0
 10
202.98153300000001
 20
132.392269
 30
0.0
 40
0.2
 50
45.0
 51
101.94426900000001
  0
ARC
  5
DB
  8
0
 10
203.72830200000001
 20
132.211186
 30
0.0
 40
0.2
 50
225.0
 51
315.0
  0
ARC
  5
DC
  8
0
 10
204.85967299999999
 20
133.342556
 30
0.0
 40
0.2
 50
315.0
 51
45.0
  0
ARC
  5
DD
  8
0
 10
204.67858899999999
 20
134.089326
 30
0.0
 40
0.2
 50
168.05573100000001
 51
225.0
  0
ARC
  5
DE
  8
0
 10
202.72622100000001
 20
136.73552799999999
 30
0.0
 40
0.2
 50
180.0
 51
264.78409099999999
  0
ARC
  5
DF
  8
0
 10
202.72622100000001
 20
137.461795
 30
0.0
 40
0.2
 50
135.0
 51
180.0
  0
ARC
  5
E0
  8
0
 10
202.52622099999999
 20
134.54463799999999
 30
0.0
 40
2.0
 50
348.05573099999998
 51
84.784091000000004
  0
LINE
  5
E1
  8
0
 10
200.51527400000001
 20
135.14137199999999
 30
0.0
 11
200.17058599999999
 21
135.48605900000001
 31
0.0
  0
LINE
  5
E2
  8
0
 10
200.02916500000001
 20
135.54463799999999
 30
0.0
 11
198.37012999999999
 21
135.54463799999999
 31
0.0
  0
ARC
  5
E3
  8
0
 10
200.29354799999999
 20
139.74463800000001
 30
0.0
 40
1.0
 50
90.0
 51
165.0
  0
ARC
  5
E4
  8
0
 10
203.31200699999999
 20
139.74463800000001
 30
0.0
 40
1.0
 50
315.0
 51
90.0
  0
LINE
  5
E5
  8
0
 10
200.29354799999999
 20
140.74463800000001
 30
0.0
 11
203.31200699999999
 21
140.74463800000001
 31
0.0
  0
LINE
  5
E6
  8
0
 10
202.584799
 20
137.603217
 30
0.0
 11
204.019114
 21
139.037531
 31
0.0
  0
LINE
  5
E7
  8
0
 10
202.52622099999999
 20
136.73552799999999
 30
0.0
 11
202.52622099999999
 21
137.461795
 31
0.0
  0
ARC
  5
E8
  8
0
 10
198.429688
 20
137.856233
 30
0.0
 40
0.311595
 50
214.56899200000001
 51
345.0
  0
LINE
  5
E9
  8
0
 10
199.32762199999999
 20
140.003457
 30
0.0
 11
198.73066600000001
 21
137.775586
 31
0.0
  0
LINE
  5
EA
  8
0
 10
203.58688100000001
 20
132.06976399999999
 30
0.0
 11
203.12295399999999
 21
132.533691
 31
0.0
  0
LINE
  5
EB
  8
0
 10
205.00109499999999
 20
133.20113499999999
 30
0.0
 11
203.86972399999999
 21
132.06976399999999
 31
0.0
  0
LINE
  5
EC
  8
0
 10
204.53716800000001
 20
133.94790399999999
 30
0.0
 11
205.00109499999999
 21
133.48397800000001
 31
0.0
  0
ARC
  5
ED
  8
0
 10
202.52622099999999
 20
134.54463799999999
 30
0.0
 40
2.0
 50
168.05573100000001
 51
281.94426900000002
  0
ARC
  5
EE
  8
0
 10
196.52622099999999
 20
136.54463799999999
 30
0.0
 40
2.0
 50
34.568992000000001
 51
145.43100799999999
  0
ARC
  5
EF
  8
0
 10
156.52622099999999
 20
136.54463799999999
 30
0.0
 40
2.0
 50
34.568992000000001
 51
145.43100799999999
  0
ARC
  5
F0
  8
0
 10
162.52622099999999
 20
134.54463799999999
 30
0.0
 40
2.0
 50
168.05573100000001
 51
281.94426900000002
  0
LINE
  5
F1
  8
0
 10
164.53716800000001
 20
133.94790399999999
 30
0.0
 11
165.00109499999999
 21
133.48397800000001
 31
0.0
  0
LINE
  5
F2
  8
0
 10
165.00109499999999
 20
133.20113499999999
 30
0.0
 11
163.86972399999999
 21
132.06976399999999
 31
0.0
  0
LINE
  5
F3
  8
0
 10
163.58688100000001
 20
132.06976399999999
 30
0.0
 11
163.12295399999999
 21
132.533691
 31
0.0
  0
LINE
  5
F4
  8
0
 10
159.32762199999999
 20
140.003457
 30
0.0
 11
158.73066600000001
 21
137.775586
 31
0.0
  0
ARC
  5
F5
  8
0
 10
158.429688
 20
137.856233
 30
0.0
 40
0.311595
 50
214.56899200000001
 51
345.0
  0
LINE
  5
F6
  8
0
 10
162.52622099999999
 20
136.73552799999999
 30
0.0
 11
162.52622099999999
 21
137.461795
 31
0.0
  0
LINE
  5
F7
  8
0
 10
162.584799
 20
137.603217
 30
0.0
 11
164.019114
 21
139.037531
 31
0.0
  0
LINE
  5
F8
  8
0
 10
160.29354799999999
 20
140.74463800000001
 30
0.0
 11
163.31200699999999
 21
140.74463800000001
 31
0.0
  0
ARC
  5
F9
  8
0
 10
163.31200699999999
 20
139.74463800000001
 30
0.0
 40
1.0
 50
315.0
 51
90.0
  0
ARC
  5
FA
  8
0
 10
160.29354799999999
 20
139.74463800000001
 30
0.0
 40
1.0
 50
90.0
 51
165.0
  0
LINE
  5
FB
  8
0
 10
160.02916499999989
 20
135.54463799999999
 30
0.0
 11
158.37012999999999
 21
135.54463799999999
 31
0.0
  0
LINE
  5
FC
  8
0
 10
160.51527400000001
 20
135.14137199999999
 30
0.0
 11
160.17058599999999
 21
135.48605900000001
 31
0.0
  0
ARC
  5
FD
  8
0
 10
162.52622099999999
 20
134.54463799999999
 30
0.0
 40
2.0
 50
348.05573099999998
 51
84.784091000000004
  0
ARC
  5
FE
  8
0
 10
162.72622100000001
 20
137.461795
 30
0.0
 40
0.2
 50
135.0
 51
180.0
  0
ARC
  5
FF
  8
0
 10
162.72622100000001
 20
136.73552799999999
 30
0.0
 40
0.2
 50
180.0
 51
264.78409099999999
  0
ARC
  5
100
  8
0
 10
164.67858899999999
 20
134.089326
 30
0.0
 40
0.2
 50
168.05573100000001
 51
225.0
  0
ARC
  5
101
  8
0
 10
164.85967299999999
 20
133.342556
 30
0.0
 40
0.2
 50
315.0
 51
45.0
  0
ARC
  5
102
  8
0
 10
163.72830200000001
 20
132.211186
 30
0.0
 40
0.2
 50
225.0
 51
315.0
  0
ARC
  5
103
  8
0
 10
162.98153300000001
 20
132.392269
 30
0.0
 40
0.2
 50
45.0
 51
101.94426900000001
  0
ARC
  5
104
  8
0
 10
160.373852
 20
134.99995000000001
 30
0.0
 40
0.2
 50
348.05573099999998
 51
45.0
  0
ARC
  5
105
  8
0
 10
160.02916499999989
 20
135.344638
 30
0.0
 40
0.2
 50
45.0
 51
90.0
  0
ARC
  5
106
  8
0
 10
158.37012999999999
 20
135.344638
 30
0.0
 40
0.2
 50
90.0
 51
146.94426899999999
  0
ARC
  5
107
  8
0
 10
154.682312
 20
135.344638
 30
0.0
 40
0.2
 50
33.055731000000002
 51
90.0
  0
ARC
  5
108
  8
0
 10
153.02327700000001
 20
135.344638
 30
0.0
 40
0.2
 50
90.0
 51
135.0
  0
ARC
  5
109
  8
0
 10
152.67858899999999
 20
134.99995000000001
 30
0.0
 40
0.2
 50
135.0
 51
191.94426899999999
  0
ARC
  5
10A
  8
0
 10
150.070908
 20
132.392269
 30
0.0
 40
0.2
 50
78.055731000000009
 51
135.0
  0
ARC
  5
10B
  8
0
 10
149.324139
 20
132.211186
 30
0.0
 40
0.2
 50
225.0
 51
315.0
  0
ARC
  5
10C
  8
0
 10
148.192768
 20
133.342556
 30
0.0
 40
0.2
 50
135.0
 51
225.0
  0
ARC
  5
10D
  8
0
 10
148.373852
 20
134.089326
 30
0.0
 40
0.2
 50
315.0
 51
11.944269
  0
ARC
  5
10E
  8
0
 10
150.326221
 20
136.73552799999999
 30
0.0
 40
0.2
 50
275.21590900000001
 51
0.0
  0
ARC
  5
10F
  8
0
 10
150.326221
 20
137.461795
 30
0.0
 40
0.2
 50
0.0
 51
45.0
  0
ARC
  5
110
  8
0
 10
150.52622099999999
 20
134.54463799999999
 30
0.0
 40
2.0
 50
95.215908999999996
 51
191.94426899999999
  0
LINE
  5
111
  8
0
 10
152.53716800000001
 20
135.14137199999999
 30
0.0
 11
152.881856
 21
135.48605900000001
 31
0.0
  0
LINE
  5
112
  8
0
 10
153.02327700000001
 20
135.54463799999999
 30
0.0
 11
154.682312
 21
135.54463799999999
 31
0.0
  0
ARC
  5
113
  8
0
 10
152.758894
 20
139.74463800000001
 30
0.0
 40
1.0
 50
15.0
 51
90.0
  0
ARC
  5
114
  8
0
 10
149.74043399999999
 20
139.74463800000001
 30
0.0
 40
1.0
 50
90.0
 51
225.0
  0
LINE
  5
115
  8
0
 10
152.758894
 20
140.74463800000001
 30
0.0
 11
149.74043399999999
 21
140.74463800000001
 31
0.0
  0
LINE
  5
116
  8
0
 10
150.46764200000001
 20
137.603217
 30
0.0
 11
149.03332800000001
 21
139.037531
 31
0.0
  0
LINE
  5
117
  8
0
 10
150.52622099999999
 20
136.73552799999999
 30
0.0
 11
150.52622099999999
 21
137.461795
 31
0.0
  0
ARC
  5
118
  8
0
 10
154.62275299999999
 20
137.856233
 30
0.0
 40
0.311595
 50
195.0
 51
325.43100800000002
  0
LINE
  5
119
  8
0
 10
153.72481999999999
 20
140.003457
 30
0.0
 11
154.321776
 21
137.775586
 31
0.0
  0
LINE
  5
11A
  8
0
 10
149.46556100000001
 20
132.06976399999999
 30
0.0
 11
149.92948699999999
 21
132.533691
 31
0.0
  0
LINE
  5
11B
  8
0
 10
148.05134699999999
 20
133.20113499999999
 30
0.0
 11
149.18271799999999
 21
132.06976399999999
 31
0.0
  0
LINE
  5
11C
  8
0
 10
148.51527400000001
 20
133.94790399999999
 30
0.0
 11
148.05134699999999
 21
133.48397800000001
 31
0.0
  0
ARC
  5
11D
  8
0
 10
150.52622099999999
 20
134.54463799999999
 30
0.0
 40
2.0
 50
258.05573099999998
 51
11.944269
  0
ARC
  5
11E
  8
0
 10
156.52622099999999
 20
136.54463799999999
 30
0.0
 40
2.0
 50
213.05573100000001
 51
326.94426900000002
  0
ARC
  5
11F
  8
0
 10
159.85665900000001
 20
127.344638
 30
0.0
 40
0.8
 50
180.0
 51
270.0
  0
ARC
  5
120
  8
0
 10
153.25665900000001
 20
127.344638
 30
0.0
 40
0.8
 50
270.0
 51
0.0
  0
LINE
  5
121
  8
0
 10
154.40665899999999
 20
132.74463800000001
 30
0.0
 11
158.645782
 21
132.74463800000001
 31
0.0
  0
ARC
  5
122
  8
0
 10
159.35665900000001
 20
128.04463799999999
 30
0.0
 40
0.3
 50
90.0
 51
180.0
  0
LINE
  5
123
  8
0
 10
161.50665900000001
 20
128.34463799999989
 30
0.0
 11
159.35665900000001
 21
128.34463799999989
 31
0.0
  0
ARC
  5
124
  8
0
 10
161.50665900000001
 20
129.14463799999999
 30
0.0
 40
0.8
 50
270.0
 51
45.0
  0
LINE
  5
125
  8
0
 10
162.07234500000001
 20
129.71032299999999
 30
0.0
 11
159.272345
 21
132.510323
 31
0.0
  0
ARC
  5
126
  8
0
 10
158.706659
 20
131.944638
 30
0.0
 40
0.8
 50
45.0
 51
90.0
  0
ARC
  5
127
  8
0
 10
154.40665899999999
 20
131.944638
 30
0.0
 40
0.8
 50
90.0
 51
135.0
  0
LINE
  5
128
  8
0
 10
151.04097400000001
 20
129.71032299999999
 30
0.0
 11
153.84097399999999
 21
132.510323
 31
0.0
  0
ARC
  5
129
  8
0
 10
151.60665900000001
 20
129.14463799999999
 30
0.0
 40
0.8
 50
135.0
 51
270.0
  0
LINE
  5
12A
  8
0
 10
151.60665900000001
 20
128.34463799999989
 30
0.0
 11
153.75665900000001
 21
128.34463799999989
 31
0.0
  0
ARC
  5
12B
  8
0
 10
159.35665900000001
 20
128.04463799999999
 30
0.0
 40
0.3
 50
90.0
 51
180.0
  0
ARC
  5
12C
  8
0
 10
153.75665900000001
 20
128.04463799999999
 30
0.0
 40
0.3
 50
0.0
 51
90.0
  0
LINE
  5
12D
  8
0
 10
154.056659
 20
128.04463799999999
 30
0.0
 11
154.056659
 21
127.344638
 31
0.0
  0
LINE
  5
12E
  8
0
 10
159.056659
 20
127.344638
 30
0.0
 11
159.056659
 21
128.04463799999999
 31
0.0
  0
ARC
  5
12F
  8
0
 10
275.52622100000002
 20
141.54463799999999
 30
0.0
 40
1.0
 50
0.0
 51
90.0
  0
LINE
  5
130
  8
0
 10
276.52622100000002
 20
141.54463799999999
 30
0.0
 11
276.52622100000002
 21
137.814199
 31
0.0
  0
ARC
  5
131
  8
0
 10
275.52622100000002
 20
127.54463800000001
 30
0.0
 40
1.0
 50
270.0
 51
0.0
  0
LINE
  5
132
  8
0
 10
275.72622100000001
 20
132.01419899999999
 30
0.0
 11
275.02622100000002
 21
132.01419899999999
 31
0.0
  0
LINE
  5
133
  8
0
 10
275.02622100000002
 20
137.01419899999999
 30
0.0
 11
275.72622100000001
 21
137.01419899999999
 31
0.0
  0
ARC
  5
134
  8
0
 10
275.02622100000002
 20
137.314199
 30
0.0
 40
0.3
 50
180.0
 51
270.0
  0
ARC
  5
135
  8
0
 10
275.02622100000002
 20
131.71419900000001
 30
0.0
 40
0.3
 50
90.0
 51
180.0
  0
LINE
  5
136
  8
0
 10
274.72622100000001
 20
139.46419900000001
 30
0.0
 11
274.72622100000001
 21
137.314199
 31
0.0
  0
ARC
  5
137
  8
0
 10
273.926221
 20
139.46419900000001
 30
0.0
 40
0.8
 50
0.0
 51
135.0
  0
LINE
  5
138
  8
0
 10
273.36053500000003
 20
140.02988500000001
 30
0.0
 11
270.56053500000002
 21
137.229885
 31
0.0
  0
ARC
  5
139
  8
0
 10
271.12622099999999
 20
136.664199
 30
0.0
 40
0.8
 50
135.0
 51
180.0
  0
ARC
  5
13A
  8
0
 10
271.12622099999999
 20
132.36419900000001
 30
0.0
 40
0.8
 50
180.0
 51
225.0
  0
LINE
  5
13B
  8
0
 10
273.36053500000003
 20
128.998514
 30
0.0
 11
270.56053500000002
 21
131.7985139999999
 31
0.0
  0
ARC
  5
13C
  8
0
 10
273.926221
 20
129.564199
 30
0.0
 40
0.8
 50
225.0
 51
0.0
  0
LINE
  5
13D
  8
0
 10
274.72622100000001
 20
129.564199
 30
0.0
 11
274.72622100000001
 21
131.71419900000001
 31
0.0
  0
ARC
  5
13E
  8
0
 10
275.02622100000002
 20
131.71419900000001
 30
0.0
 40
0.3
 50
90.0
 51
180.0
  0
LINE
  5
13F
  8
0
 10
270.32622099999998
 20
136.664199
 30
0.0
 11
270.32622099999998
 21
132.42507699999999
 31
0.0
  0
ARC
  5
140
  8
0
 10
275.72622100000001
 20
137.814199
 30
0.0
 40
0.8
 50
270.0
 51
0.0
  0
ARC
  5
141
  8
0
 10
275.72622100000001
 20
131.21419900000001
 30
0.0
 40
0.8
 50
0.0
 51
90.0
  0
ARC
  5
142
  8
0
 10
117.326221
 20
131.21419900000001
 30
0.0
 40
0.8
 50
90.0
 51
180.0
  0
ARC
  5
143
  8
0
 10
117.326221
 20
137.814199
 30
0.0
 40
0.8
 50
180.0
 51
270.0
  0
LINE
  5
144
  8
0
 10
122.726221
 20
136.664199
 30
0.0
 11
122.726221
 21
132.42507699999999
 31
0.0
  0
ARC
  5
145
  8
0
 10
118.02622100000001
 20
131.71419900000001
 30
0.0
 40
0.3
 50
0.0
 51
90.0
  0
LINE
  5
146
  8
0
 10
118.326221
 20
129.564199
 30
0.0
 11
118.326221
 21
131.71419900000001
 31
0.0
  0
ARC
  5
147
  8
0
 10
119.126221
 20
129.564199
 30
0.0
 40
0.8
 50
180.0
 51
315.0
  0
LINE
  5
148
  8
0
 10
119.691906
 20
128.998514
 30
0.0
 11
122.491906
 21
131.7985139999999
 31
0.0
  0
ARC
  5
149
  8
0
 10
121.926221
 20
132.36419900000001
 30
0.0
 40
0.8
 50
315.0
 51
0.0
  0
ARC
  5
14A
  8
0
 10
121.926221
 20
136.664199
 30
0.0
 40
0.8
 50
0.0
 51
45.0
  0
LINE
  5
14B
  8
0
 10
119.691906
 20
140.02988500000001
 30
0.0
 11
122.491906
 21
137.229885
 31
0.0
  0
ARC
  5
14C
  8
0
 10
119.126221
 20
139.46419900000001
 30
0.0
 40
0.8
 50
45.0
 51
180.0
  0
LINE
  5
14D
  8
0
 10
118.326221
 20
139.46419900000001
 30
0.0
 11
118.326221
 21
137.314199
 31
0.0
  0
ARC
  5
14E
  8
0
 10
118.02622100000001
 20
131.71419900000001
 30
0.0
 40
0.3
 50
0.0
 51
90.0
  0
ARC
  5
14F
  8
0
 10
118.02622100000001
 20
137.314199
 30
0.0
 40
0.3
 50
270.0
 51
0.0
  0
LINE
  5
150
  8
0
 10
118.02622100000001
 20
137.01419899999999
 30
0.0
 11
117.326221
 21
137.01419899999999
 31
0.0
  0
LINE
  5
151
  8
0
 10
117.326221
 20
132.01419899999999
 30
0.0
 11
118.02622100000001
 21
132.01419899999999
 31
0.0
  0
ARC
  5
152
  8
0
 10
263.02622100000002
 20
130.54463799999999
 30
0.0
 40
0.5
 50
0.0
 51
90.0
  0
ARC
  5
153
  8
0
 10
261.52622100000002
 20
130.04463799999999
 30
0.0
 40
1.0
 50
90.0
 51
180.0
  0
LINE
  5
154
  8
0
 10
264.02622100000002
 20
128.54463799999999
 30
0.0
 11
264.02622100000002
 21
128.54463799999999
 31
0.0
  0
LINE
  5
155
  8
0
 10
263.52622100000002
 20
130.54463799999999
 30
0.0
 11
263.52622100000002
 21
129.04463799999999
 31
0.0
  0
LINE
  5
156
  8
0
 10
261.52622100000002
 20
131.04463799999999
 30
0.0
 11
263.02622100000002
 21
131.04463799999999
 31
0.0
  0
LINE
  5
157
  8
0
 10
260.52622100000002
 20
128.04463799999999
 30
0.0
 11
260.52622100000002
 21
130.04463799999999
 31
0.0
  0
LINE
  5
158
  8
0
 10
262.205153
 20
137.330172
 30
0.0
 11
265.06175500000001
 21
134.47357
 31
0.0
  0
ARC
  5
159
  8
0
 10
258.66961900000001
 20
133.79463799999999
 30
0.0
 40
5.0
 50
45.0
 51
90.0
  0
ARC
  5
15A
  8
0
 10
264.02622100000002
 20
129.04463799999999
 30
0.0
 40
0.5
 50
180.0
 51
270.0
  0
ARC
  5
15B
  8
0
 10
264.02622100000002
 20
131.04463799999999
 30
0.0
 40
2.5
 50
270.0
 51
358.98798099999999
  0
ARC
  5
15C
  8
0
 10
249.02622099999999
 20
129.04463799999999
 30
0.0
 40
0.5
 50
270.0
 51
0.0
  0
ARC
  5
15D
  8
0
 10
254.382823
 20
133.79463799999999
 30
0.0
 40
5.0
 50
90.0
 51
135.0
  0
LINE
  5
15E
  8
0
 10
250.84728899999999
 20
137.330172
 30
0.0
 11
247.99068700000001
 21
134.47357
 31
0.0
  0
LINE
  5
15F
  8
0
 10
252.52622099999999
 20
128.04463799999999
 30
0.0
 11
252.52622099999999
 21
130.04463799999999
 31
0.0
  0
LINE
  5
160
  8
0
 10
251.52622099999999
 20
131.04463799999999
 30
0.0
 11
250.02622099999999
 21
131.04463799999999
 31
0.0
  0
LINE
  5
161
  8
0
 10
249.52622099999999
 20
130.54463799999999
 30
0.0
 11
249.52622099999999
 21
129.04463799999999
 31
0.0
  0
LINE
  5
162
  8
0
 10
249.02622099999999
 20
128.54463799999999
 30
0.0
 11
249.02622099999999
 21
128.54463799999999
 31
0.0
  0
ARC
  5
163
  8
0
 10
251.52622099999999
 20
130.04463799999999
 30
0.0
 40
1.0
 50
0.0
 51
90.0
  0
ARC
  5
164
  8
0
 10
250.02622099999999
 20
130.54463799999999
 30
0.0
 40
0.5
 50
90.0
 51
180.0
  0
ARC
  5
165
  8
0
 10
261.52622100000002
 20
130.93803600000001
 30
0.0
 40
5.0
 50
0.7156010000000002
 51
45.0
  0
ARC
  5
166
  8
0
 10
249.02622099999999
 20
131.04463799999999
 30
0.0
 40
2.5
 50
181.01201900000001
 51
270.0
  0
ARC
  5
167
  8
0
 10
251.52622099999999
 20
130.93803600000001
 30
0.0
 40
5.0
 50
135.0
 51
179.28439900000001
  0
LINE
  5
168
  8
0
 10
254.382823
 20
138.79463799999999
 30
0.0
 11
258.66961900000001
 21
138.79463799999999
 31
0.0
  0
ARC
  5
169
  8
0
 10
251.02622099999999
 20
128.04463799999999
 30
0.0
 40
1.5
 50
270.0
 51
0.0
  0
ARC
  5
16A
  8
0
 10
262.02622100000002
 20
128.04463799999999
 30
0.0
 40
1.5
 50
180.0
 51
270.0
  0
ARC
  5
16B
  8
0
 10
223.02622099999999
 20
130.54463799999999
 30
0.0
 40
0.5
 50
0.0
 51
90.0
  0
ARC
  5
16C
  8
0
 10
221.52622099999999
 20
130.04463799999999
 30
0.0
 40
1.0
 50
90.0
 51
180.0
  0
LINE
  5
16D
  8
0
 10
224.02622099999999
 20
128.54463799999999
 30
0.0
 11
224.02622099999999
 21
128.54463799999999
 31
0.0
  0
LINE
  5
16E
  8
0
 10
223.52622099999999
 20
130.54463799999999
 30
0.0
 11
223.52622099999999
 21
129.04463799999999
 31
0.0
  0
LINE
  5
16F
  8
0
 10
221.52622099999999
 20
131.04463799999999
 30
0.0
 11
223.02622099999999
 21
131.04463799999999
 31
0.0
  0
LINE
  5
170
  8
0
 10
220.52622099999999
 20
128.04463799999999
 30
0.0
 11
220.52622099999999
 21
130.04463799999999
 31
0.0
  0
LINE
  5
171
  8
0
 10
222.205153
 20
137.330172
 30
0.0
 11
225.06175500000001
 21
134.47357
 31
0.0
  0
ARC
  5
172
  8
0
 10
218.66961900000001
 20
133.79463799999999
 30
0.0
 40
5.0
 50
45.0
 51
90.0
  0
ARC
  5
173
  8
0
 10
224.02622099999999
 20
129.04463799999999
 30
0.0
 40
0.5
 50
180.0
 51
270.0
  0
ARC
  5
174
  8
0
 10
224.02622099999999
 20
131.04463799999999
 30
0.0
 40
2.5
 50
270.0
 51
358.98798099999999
  0
ARC
  5
175
  8
0
 10
209.02622099999999
 20
129.04463799999999
 30
0.0
 40
0.5
 50
270.0
 51
0.0
  0
ARC
  5
176
  8
0
 10
214.382823
 20
133.79463799999999
 30
0.0
 40
5.0
 50
90.0
 51
135.0
  0
LINE
  5
177
  8
0
 10
210.84728899999999
 20
137.330172
 30
0.0
 11
207.99068700000001
 21
134.47357
 31
0.0
  0
LINE
  5
178
  8
0
 10
212.52622099999999
 20
128.04463799999999
 30
0.0
 11
212.52622099999999
 21
130.04463799999999
 31
0.0
  0
LINE
  5
179
  8
0
 10
211.52622099999999
 20
131.04463799999999
 30
0.0
 11
210.02622099999999
 21
131.04463799999999
 31
0.0
  0
LINE
  5
17A
  8
0
 10
209.52622099999999
 20
130.54463799999999
 30
0.0
 11
209.52622099999999
 21
129.04463799999999
 31
0.0
  0
LINE
  5
17B
  8
0
 10
209.02622099999999
 20
128.54463799999999
 30
0.0
 11
209.02622099999999
 21
128.54463799999999
 31
0.0
  0
ARC
  5
17C
  8
0
 10
211.52622099999999
 20
130.04463799999999
 30
0.0
 40
1.0
 50
0.0
 51
90.0
  0
ARC
  5
17D
  8
0
 10
210.02622099999999
 20
130.54463799999999
 30
0.0
 40
0.5
 50
90.0
 51
180.0
  0
ARC
  5
17E
  8
0
 10
221.52622099999999
 20
130.93803600000001
 30
0.0
 40
5.0
 50
0.7156010000000002
 51
45.0
  0
ARC
  5
17F
  8
0
 10
209.02622099999999
 20
131.04463799999999
 30
0.0
 40
2.5
 50
181.01201900000001
 51
270.0
  0
ARC
  5
180
  8
0
 10
211.52622099999999
 20
130.93803600000001
 30
0.0
 40
5.0
 50
135.0
 51
179.28439900000001
  0
LINE
  5
181
  8
0
 10
214.382823
 20
138.79463799999999
 30
0.0
 11
218.66961900000001
 21
138.79463799999999
 31
0.0
  0
ARC
  5
182
  8
0
 10
211.02622099999999
 20
128.04463799999999
 30
0.0
 40
1.5
 50
270.0
 51
0.0
  0
ARC
  5
183
  8
0
 10
222.02622099999999
 20
128.04463799999999
 30
0.0
 40
1.5
 50
180.0
 51
270.0
  0
ARC
  5
184
  8
0
 10
183.02622099999999
 20
130.54463799999999
 30
0.0
 40
0.5
 50
0.0
 51
90.0
  0
ARC
  5
185
  8
0
 10
181.52622099999999
 20
130.04463799999999
 30
0.0
 40
1.0
 50
90.0
 51
180.0
  0
LINE
  5
186
  8
0
 10
184.02622099999999
 20
128.54463799999999
 30
0.0
 11
184.02622099999999
 21
128.54463799999999
 31
0.0
  0
LINE
  5
187
  8
0
 10
183.52622099999999
 20
130.54463799999999
 30
0.0
 11
183.52622099999999
 21
129.04463799999999
 31
0.0
  0
LINE
  5
188
  8
0
 10
181.52622099999999
 20
131.04463799999999
 30
0.0
 11
183.02622099999999
 21
131.04463799999999
 31
0.0
  0
LINE
  5
189
  8
0
 10
180.52622099999999
 20
128.04463799999999
 30
0.0
 11
180.52622099999999
 21
130.04463799999999
 31
0.0
  0
LINE
  5
18A
  8
0
 10
182.205153
 20
137.330172
 30
0.0
 11
185.06175500000001
 21
134.47357
 31
0.0
  0
ARC
  5
18B
  8
0
 10
178.6696189999999
 20
133.79463799999999
 30
0.0
 40
5.0
 50
45.0
 51
90.0
  0
ARC
  5
18C
  8
0
 10
184.02622099999999
 20
129.04463799999999
 30
0.0
 40
0.5
 50
180.0
 51
270.0
  0
ARC
  5
18D
  8
0
 10
184.02622099999999
 20
131.04463799999999
 30
0.0
 40
2.5
 50
270.0
 51
358.98798099999999
  0
ARC
  5
18E
  8
0
 10
169.02622099999999
 20
129.04463799999999
 30
0.0
 40
0.5
 50
270.0
 51
0.0
  0
ARC
  5
18F
  8
0
 10
174.382823
 20
133.79463799999999
 30
0.0
 40
5.0
 50
90.0
 51
135.0
  0
LINE
  5
190
  8
0
 10
170.84728899999999
 20
137.330172
 30
0.0
 11
167.99068700000001
 21
134.47357
 31
0.0
  0
LINE
  5
191
  8
0
 10
172.52622099999999
 20
128.04463799999999
 30
0.0
 11
172.52622099999999
 21
130.04463799999999
 31
0.0
  0
LINE
  5
192
  8
0
 10
171.52622099999999
 20
131.04463799999999
 30
0.0
 11
170.02622099999999
 21
131.04463799999999
 31
0.0
  0
LINE
  5
193
  8
0
 10
169.52622099999999
 20
130.54463799999999
 30
0.0
 11
169.52622099999999
 21
129.04463799999999
 31
0.0
  0
LINE
  5
194
  8
0
 10
169.02622099999999
 20
128.54463799999999
 30
0.0
 11
169.02622099999999
 21
128.54463799999999
 31
0.0
  0
ARC
  5
195
  8
0
 10
171.52622099999999
 20
130.04463799999999
 30
0.0
 40
1.0
 50
0.0
 51
90.0
  0
ARC
  5
196
  8
0
 10
170.02622099999999
 20
130.54463799999999
 30
0.0
 40
0.5
 50
90.0
 51
180.0
  0
ARC
  5
197
  8
0
 10
181.52622099999999
 20
130.93803600000001
 30
0.0
 40
5.0
 50
0.7156010000000002
 51
45.0
  0
ARC
  5
198
  8
0
 10
169.02622099999999
 20
131.04463799999999
 30
0.0
 40
2.5
 50
181.01201900000001
 51
270.0
  0
ARC
  5
199
  8
0
 10
171.52622099999999
 20
130.93803600000001
 30
0.0
 40
5.0
 50
135.0
 51
179.28439900000001
  0
LINE
  5
19A
  8
0
 10
174.382823
 20
138.79463799999999
 30
0.0
 11
178.6696189999999
 21
138.79463799999999
 31
0.0
  0
ARC
  5
19B
  8
0
 10
171.02622099999999
 20
128.04463799999999
 30
0.0
 40
1.5
 50
270.0
 51
0.0
  0
ARC
  5
19C
  8
0
 10
182.02622099999999
 20
128.04463799999999
 30
0.0
 40
1.5
 50
180.0
 51
270.0
  0
ARC
  5
19D
  8
0
 10
142.02622099999999
 20
128.04463799999999
 30
0.0
 40
1.5
 50
180.0
 51
270.0
  0
ARC
  5
19E
  8
0
 10
131.02622099999999
 20
128.04463799999999
 30
0.0
 40
1.5
 50
270.0
 51
0.0
  0
LINE
  5
19F
  8
0
 10
134.382823
 20
138.79463799999999
 30
0.0
 11
138.66961900000001
 21
138.79463799999999
 31
0.0
  0
ARC
  5
1A0
  8
0
 10
131.52622099999999
 20
130.93803600000001
 30
0.0
 40
5.0
 50
135.0
 51
179.28439900000001
  0
ARC
  5
1A1
  8
0
 10
129.02622099999999
 20
131.04463799999999
 30
0.0
 40
2.5
 50
181.01201900000001
 51
270.0
  0
ARC
  5
1A2
  8
0
 10
141.52622099999999
 20
130.93803600000001
 30
0.0
 40
5.0
 50
0.7156010000000002
 51
45.0
  0
ARC
  5
1A3
  8
0
 10
130.02622099999999
 20
130.54463799999999
 30
0.0
 40
0.5
 50
90.0
 51
180.0
  0
ARC
  5
1A4
  8
0
 10
131.52622099999999
 20
130.04463799999999
 30
0.0
 40
1.0
 50
0.0
 51
90.0
  0
LINE
  5
1A5
  8
0
 10
129.02622099999999
 20
128.54463799999999
 30
0.0
 11
129.02622099999999
 21
128.54463799999999
 31
0.0
  0
LINE
  5
1A6
  8
0
 10
129.52622099999999
 20
130.54463799999999
 30
0.0
 11
129.52622099999999
 21
129.04463799999999
 31
0.0
  0
LINE
  5
1A7
  8
0
 10
131.52622099999999
 20
131.04463799999999
 30
0.0
 11
130.02622099999999
 21
131.04463799999999
 31
0.0
  0
LINE
  5
1A8
  8
0
 10
132.52622099999999
 20
128.04463799999999
 30
0.0
 11
132.52622099999999
 21
130.04463799999999
 31
0.0
  0
LINE
  5
1A9
  8
0
 10
130.84728899999999
 20
137.330172
 30
0.0
 11
127.99068699999999
 21
134.47357
 31
0.0
  0
ARC
  5
1AA
  8
0
 10
134.382823
 20
133.79463799999999
 30
0.0
 40
5.0
 50
90.0
 51
135.0
  0
ARC
  5
1AB
  8
0
 10
129.02622099999999
 20
129.04463799999999
 30
0.0
 40
0.5
 50
270.0
 51
0.0
  0
ARC
  5
1AC
  8
0
 10
144.02622099999999
 20
131.04463799999999
 30
0.0
 40
2.5
 50
270.0
 51
358.98798099999999
  0
ARC
  5
1AD
  8
0
 10
144.02622099999999
 20
129.04463799999999
 30
0.0
 40
0.5
 50
180.0
 51
270.0
  0
ARC
  5
1AE
  8
0
 10
138.66961900000001
 20
133.79463799999999
 30
0.0
 40
5.0
 50
45.0
 51
90.0
  0
LINE
  5
1AF
  8
0
 10
142.205153
 20
137.330172
 30
0.0
 11
145.06175500000001
 21
134.47357
 31
0.0
  0
LINE
  5
1B0
  8
0
 10
140.52622099999999
 20
128.04463799999999
 30
0.0
 11
140.52622099999999
 21
130.04463799999999
 31
0.0
  0
LINE
  5
1B1
  8
0
 10
141.52622099999999
 20
131.04463799999999
 30
0.0
 11
143.02622099999999
 21
131.04463799999999
 31
0.0
  0
LINE
  5
1B2
  8
0
 10
143.52622099999999
 20
130.54463799999999
 30
0.0
 11
143.52622099999999
 21
129.04463799999999
 31
0.0
  0
LINE
  5
1B3
  8
0
 10
144.02622099999999
 20
128.54463799999999
 30
0.0
 11
144.02622099999999
 21
128.54463799999999
 31
0.0
  0
ARC
  5
1B4
  8
0
 10
141.52622099999999
 20
130.04463799999999
 30
0.0
 40
1.0
 50
90.0
 51
180.0
  0
ARC
  5
1B5
  8
0
 10
143.02622099999999
 20
130.54463799999999
 30
0.0
 40
0.5
 50
0.0
 51
90.0
  0
ARC
  5
1B6
  8
0
 10
117.52622100000001
 20
127.54463800000001
 30
0.0
 40
1.0
 50
180.0
 51
270.0
  0
LINE
  5
1B7
  8
0
 10
116.52622100000001
 20
141.54463799999999
 30
0.0
 11
116.52622100000001
 21
137.814199
 31
0.0
  0
ARC
  5
1B8
  8
0
 10
117.52622100000001
 20
141.54463799999999
 30
0.0
 40
1.0
 50
90.0
 51
180.0
  0
LINE
  5
1B9
  8
0
 10
275.52622100000002
 20
142.54463799999999
 30
0.0
 11
117.52622100000001
 21
142.54463799999999
 31
0.0
  0
LINE
  5
1BA
  8
0
 10
117.52622100000001
 20
126.54463800000001
 30
0.0
 11
131.02622099999999
 21
126.54463800000001
 31
0.0
  0
LINE
  5
1BB
  8
0
 10
276.52622100000002
 20
163.81729899999999
 30
0.0
 11
116.52622100000001
 21
163.81729899999999
 31
0.0
  0
LINE
  5
1BC
  8
0
 10
116.52622100000001
 20
163.81729899999999
 30
0.0
 11
116.52622100000001
 21
193.81729899999999
 31
0.0
  0
LINE
  5
1BD
  8
0
 10
276.52622100000002
 20
163.81729899999999
 30
0.0
 11
276.52622100000002
 21
193.81729899999999
 31
0.0
  0
LINE
  5
1BE
  8
0
 10
132.52622099999999
 20
78.881206000000006
 30
0.0
 11
132.52622099999999
 21
108.88120600000001
 31
0.0
  0
LINE
  5
1BF
  8
0
 10
140.52622099999999
 20
78.881206000000006
 30
0.0
 11
140.52622099999999
 21
108.88120600000001
 31
0.0
  0
LINE
  5
1C0
  8
0
 10
180.52622099999999
 20
78.881206000000006
 30
0.0
 11
180.52622099999999
 21
108.88120600000001
 31
0.0
  0
LINE
  5
1C1
  8
0
 10
172.52622099999999
 20
78.881206000000006
 30
0.0
 11
172.52622099999999
 21
108.88120600000001
 31
0.0
  0
LINE
  5
1C2
  8
0
 10
252.52622099999999
 20
78.881206000000006
 30
0.0
 11
252.52622099999999
 21
108.88120600000001
 31
0.0
  0
LINE
  5
1C3
  8
0
 10
260.52622100000002
 20
78.881206000000006
 30
0.0
 11
260.52622100000002
 21
108.88120600000001
 31
0.0
  0
LINE
  5
1C4
  8
0
 10
220.52622099999999
 20
78.881206000000006
 30
0.0
 11
220.52622099999999
 21
108.88120600000001
 31
0.0
  0
LINE
  5
1C5
  8
0
 10
212.52622099999999
 20
78.881206000000006
 30
0.0
 11
212.52622099999999
 21
108.88120600000001
 31
0.0
  0
LINE
  5
1C6
  8
0
 10
298.709002
 20
142.54463799999999
 30
0.0
 11
298.709002
 21
126.54463800000001
 31
0.0
  0
LINE
  5
1C7
  8
0
 10
298.709002
 20
142.54463799999999
 30
0.0
 11
328.709002
 21
142.54463799999999
 31
0.0
  0
LINE
  5
1C8
  8
0
 10
298.709002
 20
126.54463800000001
 30
0.0
 11
328.709002
 21
126.54463800000001
 31
0.0
  0
LINE
  5
1C9
  8
0
 10
298.709002
 20
137.01419899999999
 30
0.0
 11
328.709002
 21
137.01419899999999
 31
0.0
  0
LINE
  5
1CA
  8
0
 10
298.709002
 20
132.01419899999999
 30
0.0
 11
328.709002
 21
132.01419899999999
 31
0.0
  0
LINE
  5
1CB
  8
0
 10
116.52622100000001
 20
108.88120600000001
 30
0.0
 11
116.52622100000001
 21
78.881206000000006
 31
0.0
  0
LINE
  5
1CC
  8
0
 10
276.52622100000002
 20
108.88120600000001
 30
0.0
 11
116.52622100000001
 21
108.88120600000001
 31
0.0
  0
LINE
  5
1CD
  8
0
 10
276.52622100000002
 20
108.88120600000001
 30
0.0
 11
276.52622100000002
 21
78.881206000000006
 31
0.0
  0
LINE
  5
1CE
  8
0
 10
154.056659
 20
78.881206000000006
 30
0.0
 11
154.056659
 21
108.88120600000001
 31
0.0
  0
LINE
  5
1CF
  8
0
 10
159.056659
 20
78.881206000000006
 30
0.0
 11
159.056659
 21
108.88120600000001
 31
0.0
  0
LINE
  5
1D0
  8
0
 10
194.056659
 20
78.881206000000006
 30
0.0
 11
194.056659
 21
108.88120600000001
 31
0.0
  0
LINE
  5
1D1
  8
0
 10
199.056659
 20
78.881206000000006
 30
0.0
 11
199.056659
 21
108.88120600000001
 31
0.0
  0
LINE
  5
1D2
  8
0
 10
234.056659
 20
78.881206000000006
 30
0.0
 11
234.056659
 21
108.88120600000001
 31
0.0
  0
LINE
  5
1D3
  8
0
 10
239.056659
 20
78.881206000000006
 30
0.0
 11
239.056659
 21
108.88120600000001
 31
0.0
  0
LINE
  5
1E1
  8
0
 10
276.52622100000002
 20
193.81729899999999
 30
0.0
 11
116.52622100000001
 21
193.81729899999999
 31
0.0
  0
LINE
  5
1E2
  8
0
 10
276.52622100000002
 20
78.881206000000006
 30
0.0
 11
116.52622100000001
 21
78.881206000000006
 31
0.0
  0
LINE
  5
1E3
  8
0
 10
328.709002
 20
142.54463799999999
 30
0.0
 11
328.709002
 21
126.54463800000001
 31
0.0
  0
LINE
  5
1E4
  8
0
 10
55.115982999999993
 20
142.54463799999999
 30
0.0
 11
55.115982999999993
 21
126.54463800000001
 31
0.0
  0
LINE
  5
1E5
  8
0
 10
85.115983000000014
 20
132.01419899999999
 30
0.0
 11
55.115982999999993
 21
132.01419899999999
 31
0.0
  0
LINE
  5
1E6
  8
0
 10
85.115983000000014
 20
137.01419899999999
 30
0.0
 11
55.115982999999993
 21
137.01419899999999
 31
0.0
  0
LINE
  5
1E7
  8
0
 10
85.115983000000014
 20
126.54463800000001
 30
0.0
 11
55.115982999999993
 21
126.54463800000001
 31
0.0
  0
LINE
  5
1E8
  8
0
 10
85.115983000000014
 20
142.54463799999999
 30
0.0
 11
55.115982999999993
 21
142.54463799999999
 31
0.0
  0
LINE
  5
1E9
  8
0
 10
85.115983000000014
 20
142.54463799999999
 30
0.0
 11
85.115983000000014
 21
126.54463800000001
 31
0.0
  0
LINE
  5
1EA
  8
1
 10
136.52622099999999
 20
145.54463799999999
 30
0.0
 11
136.52622099999999
 21
123.54463800000001
 31
0.0
  0
LINE
  5
1EB
  8
1
 10
176.52622099999999
 20
145.54463799999999
 30
0.0
 11
176.52622099999999
 21
123.54463800000001
 31
0.0
  0
LINE
  5
1EC
  8
1
 10
216.52622099999999
 20
145.54463799999999
 30
0.0
 11
216.52622099999999
 21
123.54463800000001
 31
0.0
  0
LINE
  5
1ED
  8
1
 10
256.52622100000002
 20
145.54463799999999
 30
0.0
 11
256.52622100000002
 21
123.54463800000001
 31
0.0
  0
LINE
  5
1EE
  8
1
 10
156.52622099999999
 20
145.29463799999999
 30
0.0
 11
156.52622099999999
 21
123.29463800000001
 31
0.0
  0
LINE
  5
1EF
  8
1
 10
196.52622099999999
 20
145.29463799999999
 30
0.0
 11
196.52622099999999
 21
123.29463800000001
 31
0.0
  0
LINE
  5
1F0
  8
1
 10
236.52622099999999
 20
145.29463799999999
 30
0.0
 11
236.52622099999999
 21
123.29463800000001
 31
0.0
  0
TEXT
  5
2E7
  8
0
 62
     3
 10
0.0
 20
0.0
 30
0.0
 40
10.0
  1
SPH16016N
  7
STANDARD1
  0
ENDSEC
  0
EOF
