  0
SECTION
  2
HEADER
  9
$ACADVER
  1
AC1009
  9
$INSBASE
 10
0.0
 20
0.0
 30
0.0
  9
$EXTMIN
 10
0.0
 20
-2.960436562073669
 30
0.0
  9
$EXTMAX
 10
261.631955640147
 20
176.5606116095949
 30
0.0
  9
$LIMMIN
 10
0.0
 20
0.0
  9
$LIMMAX
 10
375.0
 20
270.0
  9
$ORTHOMODE
 70
     1
  9
$REGENMODE
 70
     1
  9
$FILLMODE
 70
     1
  9
$QTEXTMODE
 70
     0
  9
$MIRRTEXT
 70
     0
  9
$DRAGMODE
 70
     2
  9
$LTSCALE
 40
5.0
  9
$OSMODE
 70
    55
  9
$ATTMODE
 70
     1
  9
$TEXTSIZE
 40
4.000000000000048
  9
$TRACEWID
 40
0.05
  9
$TEXTSTYLE
  7
STANDARD
  9
$CLAYER
  8
0
  9
$CELTYPE
  6
BYLAYER
  9
$CECOLOR
 62
   256
  9
$DIMSCALE
 40
0.5
  9
$DIMASZ
 40
3.0
  9
$DIMEXO
 40
2.0
  9
$DIMDLI
 40
0.38
  9
$DIMRND
 40
0.0
  9
$DIMDLE
 40
0.0
  9
$DIMEXE
 40
2.0
  9
$DIMTP
 40
0.0
  9
$DIMTM
 40
0.0
  9
$DIMTXT
 40
3.2000000000000002
  9
$DIMCEN
 40
0.0
  9
$DIMTSZ
 40
0.0
  9
$DIMTOL
 70
     0
  9
$DIMLIM
 70
     0
  9
$DIMTIH
 70
     0
  9
$DIMTOH
 70
     0
  9
$DIMSE1
 70
     0
  9
$DIMSE2
 70
     0
  9
$DIMTAD
 70
     1
  9
$DIMZIN
 70
     0
  9
$DIMBLK
  1

  9
$DIMASO
 70
     0
  9
$DIMSHO
 70
     0
  9
$DIMPOST
  1

  9
$DIMAPOST
  1

  9
$DIMALT
 70
     0
  9
$DIMALTD
 70
     2
  9
$DIMALTF
 40
25.399999999999999
  9
$DIMLFAC
 40
1.0
  9
$DIMTOFL
 70
     0
  9
$DIMTVP
 40
1.6000000000000001
  9
$DIMTIX
 70
     1
  9
$DIMSOXD
 70
     0
  9
$DIMSAH
 70
     0
  9
$DIMBLK1
  1

  9
$DIMBLK2
  1

  9
$DIMSTYLE
  2
STANDARD
  9
$DIMCLRD
 70
     4
  9
$DIMCLRE
 70
     4
  9
$DIMCLRT
 70
     4
  9
$DIMTFAC
 40
1.0
  9
$DIMGAP
 40
0.09
  9
$LUNITS
 70
     2
  9
$LUPREC
 70
     1
  9
$SKETCHINC
 40
0.1
  9
$FILLETRAD
 40
0.0
  9
$AUNITS
 70
     0
  9
$AUPREC
 70
     0
  9
$MENU
  1
E:\r13\win\SUPPORT\ACAD
  9
$ELEVATION
 40
0.0
  9
$PELEVATION
 40
0.0
  9
$THICKNESS
 40
0.0
  9
$LIMCHECK
 70
     0
  9
$BLIPMODE
 70
     0
  9
$CHAMFERA
 40
1.1999999999999991
  9
$CHAMFERB
 40
1.1999999999999991
  9
$SKPOLY
 70
     0
  9
$TDCREATE
 40
2449983.4033912038
  9
$TDUPDATE
 40
2456598.545563044
  9
$TDINDWG
 40
0.0031301505
  9
$TDUSRTIMER
 40
0.0031301505
  9
$USRTIMER
 70
     1
  9
$ANGBASE
 50
0.0
  9
$ANGDIR
 70
     0
  9
$PDMODE
 70
     0
  9
$PDSIZE
 40
0.0
  9
$PLINEWID
 40
0.0
  9
$COORDS
 70
     1
  9
$SPLFRAME
 70
     0
  9
$SPLINETYPE
 70
     6
  9
$SPLINESEGS
 70
     8
  9
$ATTDIA
 70
     0
  9
$ATTREQ
 70
     1
  9
$HANDLING
 70
     1
  9
$HANDSEED
  5
4A7
  9
$SURFTAB1
 70
     6
  9
$SURFTAB2
 70
     6
  9
$SURFTYPE
 70
     6
  9
$SURFU
 70
     6
  9
$SURFV
 70
     6
  9
$UCSNAME
  2

  9
$UCSORG
 10
0.0
 20
0.0
 30
0.0
  9
$UCSXDIR
 10
1.0
 20
0.0
 30
0.0
  9
$UCSYDIR
 10
0.0
 20
1.0
 30
0.0
  9
$PUCSNAME
  2

  9
$PUCSORG
 10
0.0
 20
0.0
 30
0.0
  9
$PUCSXDIR
 10
1.0
 20
0.0
 30
0.0
  9
$PUCSYDIR
 10
0.0
 20
1.0
 30
0.0
  9
$USERI1
 70
     0
  9
$USERI2
 70
     1
  9
$USERI3
 70
     0
  9
$USERI4
 70
     0
  9
$USERI5
 70
     0
  9
$USERR1
 40
0.0
  9
$USERR2
 40
0.0
  9
$USERR3
 40
0.0
  9
$USERR4
 40
0.0
  9
$USERR5
 40
0.0
  9
$WORLDVIEW
 70
     1
  9
$SHADEDGE
 70
     3
  9
$SHADEDIF
 70
    70
  9
$TILEMODE
 70
     1
  9
$MAXACTVP
 70
    16
  9
$PLIMCHECK
 70
     0
  9
$PEXTMIN
 10
1.0000000000000000E+020
 20
1.0000000000000000E+020
 30
1.0000000000000000E+020
  9
$PEXTMAX
 10
-1.0000000000000000E+020
 20
-1.0000000000000000E+020
 30
-1.0000000000000000E+020
  9
$PLIMMIN
 10
0.0
 20
0.0
  9
$PLIMMAX
 10
12.0
 20
9.0
  9
$UNITMODE
 70
     0
  9
$VISRETAIN
 70
     0
  9
$PLINEGEN
 70
     0
  9
$PSLTSCALE
 70
     0
  0
ENDSEC
  0
SECTION
  2
TABLES
  0
TABLE
  2
VPORT
 70
     1
  0
VPORT
  2
*ACTIVE
 70
     0
 10
0.0
 20
0.0
 11
1.0
 21
1.0
 12
187.49427839065231
 22
174.91677254346851
 13
0.0
 23
0.0
 14
5.0
 24
5.0
 15
5.0
 25
5.0
 16
0.0
 26
0.0
 36
1.0
 17
0.0
 27
0.0
 37
0.0
 40
358.92027899574339
 41
1.7807262569832401
 42
50.0
 43
0.0
 44
0.0
 50
0.0
 51
0.0
 71
     0
 72
   500
 73
     1
 74
     0
 75
     0
 76
     0
 77
     0
 78
     2
  0
ENDTAB
  0
TABLE
  2
LTYPE
 70
     3
  0
LTYPE
  2
CONTINUOUS
 70
     0
  3
Solid Line
 72
    65
 73
     0
 40
0.0
  0
LTYPE
  2
CENTER
 70
     0
  3
____ _ ____ _ ____ _ ____ _ ____ _ ____ _ ____
 72
    65
 73
     4
 40
2.0
 49
1.25
 49
-0.25
 49
0.25
 49
-0.25
  0
LTYPE
  2
PHANTOM2
 70
     0
  3
___ _ _ ___ _ _ ___ _ _ ___ _ _
 72
    65
 73
     6
 40
1.25
 49
0.625
 49
-0.125
 49
0.125
 49
-0.125
 49
0.125
 49
-0.125
  0
ENDTAB
  0
TABLE
  2
LAYER
 70
     6
  0
LAYER
  2
0
 70
     0
 62
     7
  6
CONTINUOUS
  0
LAYER
  2
1
 70
     0
 62
     1
  6
CENTER
  0
LAYER
  2
11
 70
     0
 62
     3
  6
CONTINUOUS
  0
LAYER
  2
ITEM_HILFE
 70
     0
 62
     7
  6
CONTINUOUS
  0
LAYER
  2
4
 70
     0
 62
     4
  6
CONTINUOUS
  0
LAYER
  2
81TEXT
 70
     0
 62
     3
  6
CONTINUOUS
  0
ENDTAB
  0
TABLE
  2
STYLE
 70
     2
  0
STYLE
  2
STANDARD
 70
     0
 40
0.0
 41
1.0
 50
0.0
 71
     0
 42
4.000000000000048
  3
SIMPLEX
  4
BIGFONT
  0
STYLE
  2
STANDARD1
 70
     0
 40
0.0
 41
1.0
 50
0.0
 71
     0
 42
3.0
  3
txt
  4

  0
ENDTAB
  0
TABLE
  2
VIEW
 70
     1
  0
VIEW
  2
ALL
 70
     0
 40
270.0
 10
220.78595317725751
 20
135.0
 41
441.57190635451502
 11
0.0
 21
0.0
 31
1.0
 12
0.0
 22
0.0
 32
0.0
 42
50.0
 43
0.0
 44
0.0
 50
0.0
 71
     0
  0
ENDTAB
  0
TABLE
  2
UCS
 70
     0
  0
ENDTAB
  0
TABLE
  2
APPID
 70
     3
  0
APPID
  2
ACAD
 70
     0
  0
APPID
  2
ACAD_MLEADERVER
 70
     0
  0
APPID
  2
ACAD_NAV_VCDISPLAY
 70
     0
  0
ENDTAB
  0
TABLE
  2
DIMSTYLE
 70
     1
  0
DIMSTYLE
  2
STANDARD
 70
     0
  3

  4

  5

  6

  7

 40
1.0
 41
0.18
 42
0.0625
 43
0.38
 44
0.18
 45
0.0
 46
0.0
 47
0.0
 48
0.0
140
0.18
141
0.09
142
0.0
143
25.399999999999999
144
1.0
145
0.0
146
1.0
147
0.09
 71
     0
 72
     0
 73
     1
 74
     1
 75
     0
 76
     0
 77
     0
 78
     0
170
     0
171
     2
172
     0
173
     0
174
     0
175
     0
176
     0
177
     0
178
     0
  0
ENDTAB
  0
ENDSEC
  0
SECTION
  2
BLOCKS
  0
BLOCK
  8
0
  2
$MODEL_SPACE
 70
     0
 10
0.0
 20
0.0
 30
0.0
  3
$MODEL_SPACE
  1

  0
ENDBLK
  5
35E
  8
0
  0
BLOCK
 67
     1
  8
0
  2
$PAPER_SPACE
 70
     0
 10
0.0
 20
0.0
 30
0.0
  3
$PAPER_SPACE
  1

  0
ENDBLK
  5
35C
 67
     1
  8
0
  0
BLOCK
  8
0
  2
ACAD
 70
     0
 10
0.0
 20
0.0
 30
0.0
  3
ACAD
  1

  0
ENDBLK
  5
31
  8
0
  0
BLOCK
  8
0
  2
37346B
 70
     0
 10
0.0
 20
0.0
 30
0.0
  3
37346B
  1

  0
ENDBLK
  5
33
  8
0
  0
BLOCK
  8
0
  2
37390B
 70
     0
 10
0.0
 20
0.0
 30
0.0
  3
37390B
  1

  0
ENDBLK
  5
35
  8
0
  0
BLOCK
  8
4
  2
STDGX5
 70
     0
 10
0.0
 20
0.0
 30
0.0
  3
STDGX5
  1

  0
ENDBLK
  5
37
  8
4
  0
ENDSEC
  0
SECTION
  2
ENTITIES
  0
INSERT
  5
46
  8
ITEM_HILFE
  2
ACAD
 10
420.47038640269437
 20
52.14760014433341
 30
0.0
  0
INSERT
  5
47
  8
0
  2
ACAD
 10
617.03158240269443
 20
240.9286191443334
 30
0.0
  0
INSERT
  5
48
  8
0
  2
37346B
 10
415.86889140269437
 20
-65.540325855666595
 30
0.0
  0
INSERT
  5
49
  8
0
  2
37390B
 10
415.86889140269437
 20
-65.540325855666595
 30
0.0
  0
INSERT
  5
4A
  8
0
  2
37346B
 10
415.86889140269437
 20
-65.540325855666595
 30
0.0
  0
INSERT
  5
4B
  8
0
  2
37390B
 10
415.86889140269437
 20
-65.540325855666595
 30
0.0
  0
INSERT
  5
4C
  8
0
  2
37346B
 10
434.6535064026944
 20
342.13659714433339
 30
0.0
  0
INSERT
  5
4D
  8
0
  2
37390B
 10
434.6535064026944
 20
342.13659714433339
 30
0.0
  0
INSERT
  5
4E
  8
0
  2
37346B
 10
434.6535064026944
 20
342.13659714433339
 30
0.0
  0
INSERT
  5
4F
  8
0
  2
37390B
 10
434.6535064026944
 20
342.13659714433339
 30
0.0
  0
INSERT
  5
50
  8
0
  2
37390B
 10
929.27323040269437
 20
252.6224901443334
 30
0.0
  0
INSERT
  5
53
  8
4
  2
STDGX5
 10
384.92850274165249
 20
16.70417973026629
 30
0.0
  0
INSERT
  5
5F
  8
81TEXT
  6
CONTINUOUS
  2
STDGX5
 10
384.92850274165249
 20
16.70417973026629
 30
0.0
  0
INSERT
  5
60
  8
0
  2
STDGX5
 10
710.74098068548881
 20
31.509951431282509
 30
0.0
  0
INSERT
  5
61
  8
0
  2
STDGX5
 10
710.74098068548881
 20
31.509951431282509
 30
0.0
  0
INSERT
  5
62
  8
0
  2
STDGX5
 10
710.74098068548881
 20
31.509951431282509
 30
0.0
  0
INSERT
  5
64
  8
4
  6
CONTINUOUS
  2
STDGX5
 10
721.21778172138727
 20
36.129803852823812
 30
0.0
  0
INSERT
  5
66
  8
81TEXT
  6
CONTINUOUS
  2
STDGX5
 10
384.92850274165249
 20
16.70417973026629
 30
0.0
  0
INSERT
  5
67
  8
81TEXT
  6
CONTINUOUS
  2
STDGX5
 10
384.92850274165249
 20
16.70417973026629
 30
0.0
  0
INSERT
  5
68
  8
81TEXT
  6
CONTINUOUS
  2
STDGX5
 10
384.92850274165249
 20
16.70417973026629
 30
0.0
  0
INSERT
  5
6B
  8
4
  2
STDGX5
 10
712.84910759001923
 20
37.625714247752263
 30
0.0
  0
INSERT
  5
77
  8
81TEXT
  6
CONTINUOUS
  2
STDGX5
 10
712.84910759001923
 20
37.625714247752263
 30
0.0
  0
INSERT
  5
78
  8
0
  2
STDGX5
 10
1038.6615855338559
 20
52.431485948768469
 30
0.0
  0
INSERT
  5
79
  8
0
  2
STDGX5
 10
1038.6615855338559
 20
52.431485948768469
 30
0.0
  0
INSERT
  5
7A
  8
0
  2
STDGX5
 10
1038.6615855338559
 20
52.431485948768469
 30
0.0
  0
INSERT
  5
7C
  8
4
  6
CONTINUOUS
  2
STDGX5
 10
1049.1383865697539
 20
57.051338370309779
 30
0.0
  0
INSERT
  5
7E
  8
81TEXT
  6
CONTINUOUS
  2
STDGX5
 10
712.84910759001923
 20
37.625714247752263
 30
0.0
  0
INSERT
  5
7F
  8
81TEXT
  6
CONTINUOUS
  2
STDGX5
 10
712.84910759001923
 20
37.625714247752263
 30
0.0
  0
INSERT
  5
80
  8
81TEXT
  6
CONTINUOUS
  2
STDGX5
 10
712.84910759001923
 20
37.625714247752263
 30
0.0
  0
INSERT
  5
82
  8
81TEXT
  6
CONTINUOUS
  2
STDGX5
 10
1046.1538348166489
 20
57.782126382280268
 30
0.0
  0
INSERT
  5
83
  8
81TEXT
  6
CONTINUOUS
  2
STDGX5
 10
1046.1538348166489
 20
57.782126382280268
 30
0.0
  0
INSERT
  5
84
  8
11
  2
STDGX5
 10
1386.2038252538921
 20
60.281984772072569
 30
0.0
  0
INSERT
  5
85
  8
4
  2
STDGX5
 10
1386.2038252538921
 20
60.281984772072569
 30
0.0
  0
INSERT
  5
86
  8
11
  2
STDGX5
 10
1413.1629282545489
 20
82.961295769244146
 30
0.0
  0
INSERT
  5
87
  8
4
  2
STDGX5
 10
1413.1629282545489
 20
82.961295769244146
 30
0.0
  0
INSERT
  5
89
  8
81TEXT
  6
CONTINUOUS
  2
STDGX5
 10
1385.2378592971941
 20
75.624218674608898
 30
0.0
  0
INSERT
  5
8A
  8
81TEXT
  6
CONTINUOUS
  2
STDGX5
 10
1385.2378592971941
 20
75.624218674608898
 30
0.0
  0
INSERT
  5
8C
  8
81TEXT
  6
CONTINUOUS
  2
STDGX5
 10
1721.44671146885
 20
85.430273596036415
 30
0.0
  0
INSERT
  5
8D
  8
81TEXT
  6
CONTINUOUS
  2
STDGX5
 10
1721.44671146885
 20
85.430273596036415
 30
0.0
  0
INSERT
  5
8F
  8
81TEXT
  6
CONTINUOUS
  2
STDGX5
 10
2080.1022373302048
 20
87.925728967705595
 30
0.0
  0
INSERT
  5
90
  8
81TEXT
  6
CONTINUOUS
  2
STDGX5
 10
2080.1022373302048
 20
87.925728967705595
 30
0.0
  0
INSERT
  5
92
  8
81TEXT
  6
CONTINUOUS
  2
STDGX5
 10
1724.5113394498931
 20
91.294003932613009
 30
0.0
  0
INSERT
  5
93
  8
81TEXT
  6
CONTINUOUS
  2
STDGX5
 10
1724.5113394498931
 20
91.294003932613009
 30
0.0
  0
INSERT
  5
95
  8
81TEXT
  6
CONTINUOUS
  2
STDGX5
 10
2083.1668653112479
 20
93.78945930428219
 30
0.0
  0
INSERT
  5
96
  8
81TEXT
  6
CONTINUOUS
  2
STDGX5
 10
2083.1668653112479
 20
93.78945930428219
 30
0.0
  0
INSERT
  5
97
  8
81TEXT
  6
CONTINUOUS
  2
STDGX5
 10
1724.5113394498931
 20
91.294003932613009
 30
0.0
  0
INSERT
  5
99
  8
81TEXT
  6
CONTINUOUS
  2
STDGX5
 10
1386.2398725933019
 20
73.5208839643891
 30
0.0
  0
INSERT
  5
9A
  8
81TEXT
  6
CONTINUOUS
  2
STDGX5
 10
1386.2398725933019
 20
73.5208839643891
 30
0.0
  0
INSERT
  5
9C
  8
81TEXT
  6
CONTINUOUS
  2
STDGX5
 10
1739.3773341270701
 20
82.173699009793353
 30
0.0
  0
INSERT
  5
9D
  8
81TEXT
  6
CONTINUOUS
  2
STDGX5
 10
1739.3773341270701
 20
82.173699009793353
 30
0.0
  0
INSERT
  5
9F
  8
81TEXT
  6
CONTINUOUS
  2
STDGX5
 10
2098.032859988426
 20
84.669154381462533
 30
0.0
  0
INSERT
  5
A0
  8
81TEXT
  6
CONTINUOUS
  2
STDGX5
 10
2098.032859988426
 20
84.669154381462533
 30
0.0
  0
INSERT
  5
A1
  8
11
  2
STDGX5
 10
1716.471653178512
 20
77.166251802355305
 30
0.0
  0
INSERT
  5
A2
  8
4
  2
STDGX5
 10
1716.471653178512
 20
77.166251802355305
 30
0.0
  0
INSERT
  5
A3
  8
81TEXT
  6
CONTINUOUS
  2
STDGX5
 10
1386.2398725933019
 20
73.5208839643891
 30
0.0
  0
INSERT
  5
A4
  8
81TEXT
  6
CONTINUOUS
  2
STDGX5
 10
1386.2398725933019
 20
73.5208839643891
 30
0.0
  0
INSERT
  5
A6
  8
81TEXT
  6
CONTINUOUS
  2
STDGX5
 10
1389.6037899500971
 20
70.839602042582314
 30
0.0
  0
INSERT
  5
A7
  8
81TEXT
  6
CONTINUOUS
  2
STDGX5
 10
1389.6037899500971
 20
70.839602042582314
 30
0.0
  0
INSERT
  5
A9
  8
81TEXT
  6
CONTINUOUS
  2
STDGX5
 10
1748.2593158114521
 20
73.335057414251509
 30
0.0
  0
INSERT
  5
AA
  8
81TEXT
  6
CONTINUOUS
  2
STDGX5
 10
1748.2593158114521
 20
73.335057414251509
 30
0.0
  0
INSERT
  5
AB
  8
81TEXT
  6
CONTINUOUS
  2
STDGX5
 10
1389.6037899500971
 20
70.839602042582314
 30
0.0
  0
INSERT
  5
AD
  8
81TEXT
  6
CONTINUOUS
  2
STDGX5
 10
1391.365217243341
 20
78.703423163487685
 30
0.0
  0
INSERT
  5
AF
  8
81TEXT
  6
CONTINUOUS
  2
STDGX5
 10
1382.6657869345649
 20
66.228573406750201
 30
0.0
  0
INSERT
  5
B0
  8
81TEXT
  6
CONTINUOUS
  2
STDGX5
 10
1382.6657869345649
 20
66.228573406750201
 30
0.0
  0
INSERT
  5
B2
  8
81TEXT
  6
CONTINUOUS
  2
STDGX5
 10
1718.8746391062209
 20
76.034628328177718
 30
0.0
  0
INSERT
  5
B3
  8
81TEXT
  6
CONTINUOUS
  2
STDGX5
 10
1718.8746391062209
 20
76.034628328177718
 30
0.0
  0
INSERT
  5
B5
  8
81TEXT
  6
CONTINUOUS
  2
STDGX5
 10
2077.5301649675762
 20
78.530083699846884
 30
0.0
  0
INSERT
  5
B6
  8
81TEXT
  6
CONTINUOUS
  2
STDGX5
 10
2077.5301649675762
 20
78.530083699846884
 30
0.0
  0
INSERT
  5
B8
  8
81TEXT
  6
CONTINUOUS
  2
STDGX5
 10
1721.9392670872639
 20
81.898358664754326
 30
0.0
  0
INSERT
  5
B9
  8
81TEXT
  6
CONTINUOUS
  2
STDGX5
 10
1721.9392670872639
 20
81.898358664754326
 30
0.0
  0
INSERT
  5
BB
  8
81TEXT
  6
CONTINUOUS
  2
STDGX5
 10
2080.5947929486192
 20
84.393814036423464
 30
0.0
  0
INSERT
  5
BC
  8
81TEXT
  6
CONTINUOUS
  2
STDGX5
 10
2080.5947929486192
 20
84.393814036423464
 30
0.0
  0
INSERT
  5
BD
  8
81TEXT
  6
CONTINUOUS
  2
STDGX5
 10
1721.9392670872639
 20
81.898358664754326
 30
0.0
  0
INSERT
  5
BE
  8
0
  2
STDGX5
 10
1403.623889955272
 20
96.64072575090438
 30
0.0
 41
0.3
 42
0.3
 43
0.3
  0
INSERT
  5
BF
  8
0
  2
STDGX5
 10
1403.623889955272
 20
96.64072575090438
 30
0.0
 41
0.3
 42
0.3
 43
0.3
  0
INSERT
  5
C0
  8
0
  2
STDGX5
 10
1421.8104234722191
 20
110.14072575090439
 30
0.0
 41
0.3
 42
0.3
 43
0.3
  0
INSERT
  5
C1
  8
0
  2
STDGX5
 10
1590.430890487705
 20
138.49716230098599
 30
0.0
 41
0.3
 42
0.3
 43
0.3
  0
INSERT
  5
C2
  8
0
  2
STDGX5
 10
1558.0593681816069
 20
168.37366658709561
 30
0.0
 41
0.3
 42
0.3
 43
0.3
  0
INSERT
  5
C3
  8
0
  2
STDGX5
 10
1558.0593681816069
 20
168.37366658709561
 30
0.0
 41
0.3
 42
0.3
 43
0.3
  0
INSERT
  5
C5
  8
81TEXT
  6
CONTINUOUS
  2
STDGX5
 10
1034.0023134625001
 20
46.587742588264142
 30
0.0
  0
INSERT
  5
C6
  8
81TEXT
  6
CONTINUOUS
  2
STDGX5
 10
1034.0023134625001
 20
46.587742588264142
 30
0.0
  0
INSERT
  5
C7
  8
11
  2
STDGX5
 10
1374.052303899743
 20
49.087600978056429
 30
0.0
  0
INSERT
  5
C8
  8
4
  2
STDGX5
 10
1374.052303899743
 20
49.087600978056429
 30
0.0
  0
INSERT
  5
C9
  8
11
  2
STDGX5
 10
1401.0114069004001
 20
71.766911975227984
 30
0.0
  0
INSERT
  5
CA
  8
4
  2
STDGX5
 10
1401.0114069004001
 20
71.766911975227984
 30
0.0
  0
INSERT
  5
CC
  8
81TEXT
  6
CONTINUOUS
  2
STDGX5
 10
1373.086337943045
 20
64.429834880592779
 30
0.0
  0
INSERT
  5
CD
  8
81TEXT
  6
CONTINUOUS
  2
STDGX5
 10
1373.086337943045
 20
64.429834880592779
 30
0.0
  0
INSERT
  5
CF
  8
81TEXT
  6
CONTINUOUS
  2
STDGX5
 10
1709.295190114701
 20
74.235889802020296
 30
0.0
  0
INSERT
  5
D0
  8
81TEXT
  6
CONTINUOUS
  2
STDGX5
 10
1709.295190114701
 20
74.235889802020296
 30
0.0
  0
INSERT
  5
D2
  8
81TEXT
  6
CONTINUOUS
  2
STDGX5
 10
2067.950715976056
 20
76.731345173689476
 30
0.0
  0
INSERT
  5
D3
  8
81TEXT
  6
CONTINUOUS
  2
STDGX5
 10
2067.950715976056
 20
76.731345173689476
 30
0.0
  0
INSERT
  5
D5
  8
81TEXT
  6
CONTINUOUS
  2
STDGX5
 10
1712.359818095744
 20
80.099620138596904
 30
0.0
  0
INSERT
  5
D6
  8
81TEXT
  6
CONTINUOUS
  2
STDGX5
 10
1712.359818095744
 20
80.099620138596904
 30
0.0
  0
INSERT
  5
D8
  8
81TEXT
  6
CONTINUOUS
  2
STDGX5
 10
2071.015343957099
 20
82.595075510266042
 30
0.0
  0
INSERT
  5
D9
  8
81TEXT
  6
CONTINUOUS
  2
STDGX5
 10
2071.015343957099
 20
82.595075510266042
 30
0.0
  0
INSERT
  5
DA
  8
81TEXT
  6
CONTINUOUS
  2
STDGX5
 10
1712.359818095744
 20
80.099620138596904
 30
0.0
  0
INSERT
  5
DC
  8
81TEXT
  6
CONTINUOUS
  2
STDGX5
 10
1374.0883512391531
 20
62.326500170372967
 30
0.0
  0
INSERT
  5
DD
  8
81TEXT
  6
CONTINUOUS
  2
STDGX5
 10
1374.0883512391531
 20
62.326500170372967
 30
0.0
  0
INSERT
  5
DF
  8
81TEXT
  6
CONTINUOUS
  2
STDGX5
 10
1727.225812772921
 20
70.979315215777234
 30
0.0
  0
INSERT
  5
E0
  8
81TEXT
  6
CONTINUOUS
  2
STDGX5
 10
1727.225812772921
 20
70.979315215777234
 30
0.0
  0
INSERT
  5
E2
  8
81TEXT
  6
CONTINUOUS
  2
STDGX5
 10
2085.8813386342772
 20
73.4747705874464
 30
0.0
  0
INSERT
  5
E3
  8
81TEXT
  6
CONTINUOUS
  2
STDGX5
 10
2085.8813386342772
 20
73.4747705874464
 30
0.0
  0
INSERT
  5
E4
  8
11
  2
STDGX5
 10
1704.320131824363
 20
65.971868008339186
 30
0.0
  0
INSERT
  5
E5
  8
4
  2
STDGX5
 10
1704.320131824363
 20
65.971868008339186
 30
0.0
  0
INSERT
  5
E6
  8
81TEXT
  6
CONTINUOUS
  2
STDGX5
 10
1374.0883512391531
 20
62.326500170372967
 30
0.0
  0
INSERT
  5
E7
  8
81TEXT
  6
CONTINUOUS
  2
STDGX5
 10
1374.0883512391531
 20
62.326500170372967
 30
0.0
  0
INSERT
  5
E9
  8
81TEXT
  6
CONTINUOUS
  2
STDGX5
 10
1377.452268595948
 20
59.645218248566188
 30
0.0
  0
INSERT
  5
EA
  8
81TEXT
  6
CONTINUOUS
  2
STDGX5
 10
1377.452268595948
 20
59.645218248566188
 30
0.0
  0
INSERT
  5
EC
  8
81TEXT
  6
CONTINUOUS
  2
STDGX5
 10
1736.107794457304
 20
62.140673620235368
 30
0.0
  0
INSERT
  5
ED
  8
81TEXT
  6
CONTINUOUS
  2
STDGX5
 10
1736.107794457304
 20
62.140673620235368
 30
0.0
  0
INSERT
  5
EE
  8
81TEXT
  6
CONTINUOUS
  2
STDGX5
 10
1377.452268595948
 20
59.645218248566188
 30
0.0
  0
INSERT
  5
F0
  8
81TEXT
  6
CONTINUOUS
  2
STDGX5
 10
1379.213695889192
 20
67.509039369471552
 30
0.0
  0
INSERT
  5
F2
  8
81TEXT
  6
CONTINUOUS
  2
STDGX5
 10
1370.5142655804159
 20
55.034189612734068
 30
0.0
  0
INSERT
  5
F3
  8
81TEXT
  6
CONTINUOUS
  2
STDGX5
 10
1370.5142655804159
 20
55.034189612734068
 30
0.0
  0
INSERT
  5
F5
  8
81TEXT
  6
CONTINUOUS
  2
STDGX5
 10
1706.7231177520721
 20
64.840244534161599
 30
0.0
  0
INSERT
  5
F6
  8
81TEXT
  6
CONTINUOUS
  2
STDGX5
 10
1706.7231177520721
 20
64.840244534161599
 30
0.0
  0
INSERT
  5
F8
  8
81TEXT
  6
CONTINUOUS
  2
STDGX5
 10
2065.3786436134269
 20
67.335699905830765
 30
0.0
  0
INSERT
  5
F9
  8
81TEXT
  6
CONTINUOUS
  2
STDGX5
 10
2065.3786436134269
 20
67.335699905830765
 30
0.0
  0
INSERT
  5
FB
  8
81TEXT
  6
CONTINUOUS
  2
STDGX5
 10
1709.787745733114
 20
70.703974870738165
 30
0.0
  0
INSERT
  5
FC
  8
81TEXT
  6
CONTINUOUS
  2
STDGX5
 10
1709.787745733114
 20
70.703974870738165
 30
0.0
  0
INSERT
  5
FE
  8
81TEXT
  6
CONTINUOUS
  2
STDGX5
 10
2068.4432715944699
 20
73.199430242407345
 30
0.0
  0
INSERT
  5
FF
  8
81TEXT
  6
CONTINUOUS
  2
STDGX5
 10
2068.4432715944699
 20
73.199430242407345
 30
0.0
  0
INSERT
  5
100
  8
81TEXT
  6
CONTINUOUS
  2
STDGX5
 10
1709.787745733114
 20
70.703974870738165
 30
0.0
  0
INSERT
  5
101
  8
0
  2
STDGX5
 10
1391.472368601123
 20
85.446341956888233
 30
0.0
 41
0.3
 42
0.3
 43
0.3
  0
INSERT
  5
102
  8
0
  2
STDGX5
 10
1391.472368601123
 20
85.446341956888233
 30
0.0
 41
0.3
 42
0.3
 43
0.3
  0
INSERT
  5
103
  8
0
  2
STDGX5
 10
1409.65890211807
 20
98.946341956888233
 30
0.0
 41
0.3
 42
0.3
 43
0.3
  0
INSERT
  5
104
  8
0
  2
STDGX5
 10
1578.279369133556
 20
127.3027785069699
 30
0.0
 41
0.3
 42
0.3
 43
0.3
  0
INSERT
  5
105
  8
0
  2
STDGX5
 10
1545.9078468274579
 20
157.17928279307941
 30
0.0
 41
0.3
 42
0.3
 43
0.3
  0
INSERT
  5
106
  8
0
  2
STDGX5
 10
1545.9078468274579
 20
157.17928279307941
 30
0.0
 41
0.3
 42
0.3
 43
0.3
  0
INSERT
  5
107
  8
11
  2
STDGX5
 10
1357.319436277427
 20
57.141517843099621
 30
0.0
  0
INSERT
  5
108
  8
4
  2
STDGX5
 10
1357.319436277427
 20
57.141517843099621
 30
0.0
  0
INSERT
  5
10A
  8
ITEM_HILFE
  2
ACAD
 10
749.33293494902648
 20
72.136818317336505
 30
0.0
  0
INSERT
  5
10B
  8
0
  2
ACAD
 10
945.89413094902648
 20
260.91783731733648
 30
0.0
  0
INSERT
  5
10C
  8
0
  2
37346B
 10
744.73143994902648
 20
-45.551107682663478
 30
0.0
  0
INSERT
  5
10D
  8
0
  2
37390B
 10
744.73143994902648
 20
-45.551107682663478
 30
0.0
  0
INSERT
  5
10E
  8
0
  2
37346B
 10
744.73143994902648
 20
-45.551107682663478
 30
0.0
  0
INSERT
  5
10F
  8
0
  2
37390B
 10
744.73143994902648
 20
-45.551107682663478
 30
0.0
  0
INSERT
  5
110
  8
0
  2
37346B
 10
763.51605494902651
 20
362.1258153173365
 30
0.0
  0
INSERT
  5
111
  8
0
  2
37390B
 10
763.51605494902651
 20
362.1258153173365
 30
0.0
  0
INSERT
  5
112
  8
0
  2
37346B
 10
763.51605494902651
 20
362.1258153173365
 30
0.0
  0
INSERT
  5
113
  8
0
  2
37390B
 10
763.51605494902651
 20
362.1258153173365
 30
0.0
  0
INSERT
  5
114
  8
0
  2
37390B
 10
1258.135778949026
 20
272.61170831733648
 30
0.0
  0
INSERT
  5
117
  8
4
  2
STDGX5
 10
713.61826792977104
 20
36.474520937613683
 30
0.0
  0
INSERT
  5
123
  8
81TEXT
  6
CONTINUOUS
  2
STDGX5
 10
713.61826792977104
 20
36.474520937613683
 30
0.0
  0
INSERT
  5
124
  8
0
  2
STDGX5
 10
1039.4307458736071
 20
51.280292638629881
 30
0.0
  0
INSERT
  5
125
  8
0
  2
STDGX5
 10
1039.4307458736071
 20
51.280292638629881
 30
0.0
  0
INSERT
  5
126
  8
0
  2
STDGX5
 10
1039.4307458736071
 20
51.280292638629881
 30
0.0
  0
INSERT
  5
128
  8
4
  6
CONTINUOUS
  2
STDGX5
 10
1049.907546909506
 20
55.900145060171198
 30
0.0
  0
LINE
  5
129
  8
1
 10
139.09582296226
 20
151.56061160959479
 30
0.0
 11
79.095822962260044
 21
151.56061160959479
 31
0.0
  0
LINE
  5
12A
  8
1
 10
139.09582296226
 20
111.5606116095949
 30
0.0
 11
79.095822962260044
 21
111.5606116095949
 31
0.0
  0
LINE
  5
12B
  8
1
 10
139.09582296226
 20
131.56061160959479
 30
0.0
 11
79.095822962260044
 21
131.56061160959479
 31
0.0
  0
LINE
  5
12C
  8
0
 10
134.09582296226
 20
147.5606116095949
 30
0.0
 11
84.095822962260044
 21
147.5606116095949
 31
0.0
  0
LINE
  5
12D
  8
0
 10
134.09582296226
 20
91.560611609594858
 30
0.0
 11
134.09582296226
 21
171.5606116095949
 31
0.0
  0
LINE
  5
12E
  8
0
 10
84.095822962260044
 20
91.560611609594858
 30
0.0
 11
84.095822962260044
 21
171.5606116095949
 31
0.0
  0
LINE
  5
12F
  8
0
 10
84.095822962260044
 20
155.56061160959479
 30
0.0
 11
134.09582296226
 21
155.56061160959479
 31
0.0
  0
LINE
  5
130
  8
0
 10
134.09582296226
 20
91.560611609594858
 30
0.0
 11
84.095822962260044
 21
91.560611609594858
 31
0.0
  0
LINE
  5
131
  8
0
 10
84.095822962260044
 20
171.5606116095949
 30
0.0
 11
134.09582296226
 21
171.5606116095949
 31
0.0
  0
LINE
  5
132
  8
0
 10
84.095822962260044
 20
107.5606116095948
 30
0.0
 11
134.09582296226
 21
107.5606116095948
 31
0.0
  0
LINE
  5
133
  8
0
 10
134.09582296226
 20
115.5606116095948
 30
0.0
 11
84.095822962260044
 21
115.5606116095948
 31
0.0
  0
CIRCLE
  5
135
  8
0
 10
216.631955640147
 20
131.56061160959479
 30
0.0
 40
4.25
  0
CIRCLE
  5
136
  8
0
 10
236.631955640147
 20
111.5606116095948
 30
0.0
 40
3.399999999999999
  0
CIRCLE
  5
137
  8
0
 10
196.631955640147
 20
111.5606116095948
 30
0.0
 40
3.399999999999999
  0
CIRCLE
  5
138
  8
0
 10
196.631955640147
 20
151.5606116095949
 30
0.0
 40
3.399999999999999
  0
LINE
  5
139
  8
0
 10
199.13351764014701
 20
146.86061160959491
 30
0.0
 11
199.13351764014701
 21
146.86589260959491
 31
0.0
  0
CIRCLE
  5
13A
  8
0
 10
236.631955640147
 20
151.5606116095949
 30
0.0
 40
3.399999999999999
  0
ARC
  5
13B
  8
0
 10
203.1319560136846
 20
95.560611983132461
 30
0.0
 40
0.4999996264625476
 50
359.99995719571302
 51
90.000042804286593
  0
LINE
  5
13C
  8
0
 10
203.631955640147
 20
95.560611609594872
 30
0.0
 11
203.631955640147
 21
94.060611609594858
 31
0.0
  0
ARC
  5
13D
  8
0
 10
204.1319552666094
 20
94.060611236057284
 30
0.0
 40
0.4999996264625512
 50
179.99995719571299
 51
270.00004280428658
  0
ARC
  5
13E
  8
0
 10
204.13195750783501
 20
96.060609741906916
 30
0.0
 40
2.4999981323127369
 50
269.99995719571308
 51
0.0000428042869966
  0
LINE
  5
13F
  8
0
 10
206.631955640147
 20
96.060611609594872
 30
0.0
 11
206.631955640147
 21
96.840251609594873
 31
0.0
  0
ARC
  5
140
  8
0
 10
204.63195351499061
 20
96.840251216204635
 30
0.0
 40
2.0000021251564228
 50
0.0000112697880846
 51
37.118253580533199
  0
ARC
  5
141
  8
0
 10
186.29189585165611
 20
82.960550079542386
 30
0.0
 40
25.00008514103758
 50
37.118321881662233
 51
53.358046533211152
  0
ARC
  5
142
  8
0
 10
198.82501260079221
 20
99.810613185873976
 30
0.0
 40
3.9999984237210069
 50
53.35806895405333
 51
90.000013760234467
  0
LINE
  5
143
  8
0
 10
198.82501164014701
 20
103.8106116095949
 30
0.0
 11
194.43889964014701
 21
103.8106116095949
 31
0.0
  0
ARC
  5
144
  8
0
 10
194.43889867950179
 20
99.810613185873976
 30
0.0
 40
3.9999984237210109
 50
89.999986239765548
 51
126.64193104594661
  0
ARC
  5
145
  8
0
 10
206.97201542863789
 20
82.960550079542386
 30
0.0
 40
25.00008514103758
 50
126.64195346678881
 51
142.8816781183377
  0
ARC
  5
146
  8
0
 10
188.63195776530341
 20
96.840251216204635
 30
0.0
 40
2.0000021251564228
 50
142.88174641946679
 51
179.9999887302119
  0
LINE
  5
147
  8
0
 10
186.631955640147
 20
96.840251609594873
 30
0.0
 11
186.631955640147
 21
96.060611609594872
 31
0.0
  0
ARC
  5
148
  8
0
 10
189.1319537724591
 20
96.060609741906916
 30
0.0
 40
2.4999981323127409
 50
179.99995719571299
 51
270.00004280428692
  0
ARC
  5
149
  8
0
 10
189.1319560136846
 20
94.060611236057284
 30
0.0
 40
0.4999996264625476
 50
269.99995719571342
 51
0.0000428042869966
  0
LINE
  5
14A
  8
0
 10
189.631955640147
 20
94.060611609594858
 30
0.0
 11
189.631955640147
 21
95.560611609594872
 31
0.0
  0
ARC
  5
14B
  8
0
 10
190.1319552666094
 20
95.560611983132461
 30
0.0
 40
0.4999996264625512
 50
89.999957195713407
 51
180.00004280428701
  0
LINE
  5
14C
  8
0
 10
190.131955640147
 20
96.060611609594872
 30
0.0
 11
191.631955640147
 21
96.060611609594872
 31
0.0
  0
ARC
  5
14D
  8
0
 10
191.63195638722209
 20
95.060612356670035
 30
0.0
 40
0.9999992529250951
 50
359.99995719571302
 51
90.000042804286593
  0
LINE
  5
14E
  8
0
 10
192.631955640147
 20
95.060611609594886
 30
0.0
 11
192.631955640147
 21
93.060611609594872
 31
0.0
  0
ARC
  5
14F
  8
0
 10
191.13195676075981
 20
93.060610488982093
 30
0.0
 40
1.4999988793876391
 50
269.9999571957128
 51
0.0000428042869966
  0
LINE
  5
150
  8
0
 10
191.131955640147
 20
91.560611609594858
 30
0.0
 11
180.631955640147
 21
91.560611609594858
 31
0.0
  0
ARC
  5
151
  8
0
 10
180.63195265184621
 20
95.560608621294136
 30
0.0
 40
3.9999970117003829
 50
179.99995719571299
 51
270.00004280428698
  0
LINE
  5
152
  8
0
 10
176.631955640147
 20
95.560611609594872
 30
0.0
 11
176.631955640147
 21
106.0606116095949
 31
0.0
  0
ARC
  5
153
  8
0
 10
178.13195451953419
 20
106.06061273020759
 30
0.0
 40
1.4999988793876391
 50
89.999957195712867
 51
180.00004280428681
  0
LINE
  5
154
  8
0
 10
178.131955640147
 20
107.5606116095948
 30
0.0
 11
180.131955640147
 21
107.5606116095948
 31
0.0
  0
ARC
  5
155
  8
0
 10
180.13195638722209
 20
106.56061235667001
 30
0.0
 40
0.9999992529250951
 50
359.99995719571302
 51
90.000042804286593
  0
LINE
  5
156
  8
0
 10
181.131955640147
 20
106.5606116095948
 30
0.0
 11
181.131955640147
 21
105.0606116095949
 31
0.0
  0
ARC
  5
157
  8
0
 10
180.6319560136846
 20
105.0606112360572
 30
0.0
 40
0.4999996264625512
 50
269.99995719571342
 51
0.0000428042869966
  0
LINE
  5
158
  8
0
 10
180.631955640147
 20
104.5606116095948
 30
0.0
 11
179.131955640147
 21
104.5606116095948
 31
0.0
  0
ARC
  5
159
  8
0
 10
179.1319552666094
 20
104.0606119831324
 30
0.0
 40
0.4999996264625476
 50
89.999957195713407
 51
180.00004280428701
  0
ARC
  5
15A
  8
0
 10
181.1319537724591
 20
104.0606097419069
 30
0.0
 40
2.4999981323127409
 50
179.99995719571299
 51
270.00004280428692
  0
LINE
  5
15B
  8
0
 10
181.131955640147
 20
101.5606116095948
 30
0.0
 11
181.911595640147
 21
101.5606116095948
 31
0.0
  0
ARC
  5
15C
  8
0
 10
181.91159524675669
 20
103.5606137347512
 30
0.0
 40
2.0000021251564202
 50
270.00001126978782
 51
307.11825358053289
  0
ARC
  5
15D
  8
0
 10
168.0318941100945
 20
121.90067139808571
 30
0.0
 40
25.00008514103758
 50
307.11832188166233
 51
323.35804653321122
  0
ARC
  5
15E
  8
0
 10
184.88195721642609
 20
109.36755464894961
 30
0.0
 40
3.9999984237210229
 50
323.35806895405329
 51
0.0000137602344524
  0
LINE
  5
15F
  8
0
 10
188.881955640147
 20
109.3675556095949
 30
0.0
 11
188.881955640147
 21
113.7536676095948
 31
0.0
  0
ARC
  5
160
  8
0
 10
184.88195721642609
 20
113.75366857024
 30
0.0
 40
3.9999984237210251
 50
359.99998623976552
 51
36.64193104594662
  0
ARC
  5
161
  8
0
 10
168.0318941100945
 20
101.220551821104
 30
0.0
 40
25.00008514103758
 50
36.641953466788841
 51
52.88167811833776
  0
ARC
  5
162
  8
0
 10
181.91159524675669
 20
119.5606094844385
 30
0.0
 40
2.000002125156422
 50
52.88174641946717
 51
89.999988730212223
  0
LINE
  5
163
  8
0
 10
181.911595640147
 20
121.5606116095949
 30
0.0
 11
181.131955640147
 21
121.5606116095949
 31
0.0
  0
ARC
  5
164
  8
0
 10
181.1319537724591
 20
119.0606134772828
 30
0.0
 40
2.4999981323127409
 50
89.999957195713066
 51
180.00004280428689
  0
ARC
  5
165
  8
0
 10
179.1319552666094
 20
119.0606112360573
 30
0.0
 40
0.4999996264625512
 50
179.99995719571339
 51
270.00004280428658
  0
LINE
  5
166
  8
0
 10
179.131955640147
 20
118.5606116095949
 30
0.0
 11
180.631955640147
 21
118.5606116095949
 31
0.0
  0
ARC
  5
167
  8
0
 10
180.6319560136846
 20
118.0606119831324
 30
0.0
 40
0.4999996264625512
 50
359.99995719571342
 51
90.000042804286593
  0
LINE
  5
168
  8
0
 10
181.131955640147
 20
118.0606116095948
 30
0.0
 11
181.131955640147
 21
116.5606116095948
 31
0.0
  0
ARC
  5
169
  8
0
 10
180.13195638722209
 20
116.5606108625197
 30
0.0
 40
0.9999992529251022
 50
269.99995719571342
 51
0.0000428042869966
  0
LINE
  5
16A
  8
0
 10
180.131955640147
 20
115.5606116095948
 30
0.0
 11
178.131955640147
 21
115.5606116095948
 31
0.0
  0
ARC
  5
16B
  8
0
 10
178.13195451953419
 20
117.06061048898211
 30
0.0
 40
1.499998879387646
 50
179.99995719571311
 51
270.00004280428709
  0
LINE
  5
16C
  8
0
 10
176.631955640147
 20
117.0606116095948
 30
0.0
 11
176.631955640147
 21
146.06061160959479
 31
0.0
  0
ARC
  5
16D
  8
0
 10
178.13195451953419
 20
146.06061273020759
 30
0.0
 40
1.4999988793876391
 50
89.999957195712867
 51
180.00004280428709
  0
LINE
  5
16E
  8
0
 10
178.131955640147
 20
147.5606116095949
 30
0.0
 11
180.131955640147
 21
147.5606116095949
 31
0.0
  0
ARC
  5
16F
  8
0
 10
180.13195638722209
 20
146.56061235666999
 30
0.0
 40
0.9999992529251022
 50
359.99995719571342
 51
90.000042804286593
  0
LINE
  5
170
  8
0
 10
181.131955640147
 20
146.5606116095949
 30
0.0
 11
181.131955640147
 21
145.06061160959479
 31
0.0
  0
ARC
  5
171
  8
0
 10
180.6319560136846
 20
145.0606112360573
 30
0.0
 40
0.4999996264625512
 50
269.99995719571342
 51
0.0000428042865895
  0
LINE
  5
172
  8
0
 10
180.631955640147
 20
144.5606116095949
 30
0.0
 11
179.131955640147
 21
144.5606116095949
 31
0.0
  0
ARC
  5
173
  8
0
 10
179.1319552666094
 20
144.06061198313239
 30
0.0
 40
0.4999996264625512
 50
89.999957195713407
 51
180.00004280428661
  0
ARC
  5
174
  8
0
 10
181.1319537724591
 20
144.06060974190689
 30
0.0
 40
2.4999981323127409
 50
179.99995719571311
 51
270.00004280428692
  0
LINE
  5
175
  8
0
 10
181.131955640147
 20
141.5606116095949
 30
0.0
 11
181.911595640147
 21
141.5606116095949
 31
0.0
  0
ARC
  5
176
  8
0
 10
181.9115952467568
 20
143.5606137347512
 30
0.0
 40
2.0000021251564228
 50
270.00001126978742
 51
307.11825358053238
  0
ARC
  5
177
  8
0
 10
168.03189411009441
 20
161.90067139808571
 30
0.0
 40
25.000085141037619
 50
307.11832188166233
 51
323.35804653321122
  0
ARC
  5
178
  8
0
 10
184.88195721642609
 20
149.36755464894961
 30
0.0
 40
3.9999984237210069
 50
323.35806895405329
 51
0.0000137602344524
  0
LINE
  5
179
  8
0
 10
188.881955640147
 20
149.3675556095948
 30
0.0
 11
188.881955640147
 21
153.75366760959491
 31
0.0
  0
ARC
  5
17A
  8
0
 10
184.88195721642609
 20
153.75366857024011
 30
0.0
 40
3.9999984237210109
 50
359.99998623976552
 51
36.641931045946663
  0
ARC
  5
17B
  8
0
 10
168.03189411009441
 20
141.22055182110401
 30
0.0
 40
25.000085141037619
 50
36.641953466788749
 51
52.881678118337668
  0
ARC
  5
17C
  8
0
 10
181.9115952467568
 20
159.56060948443849
 30
0.0
 40
2.0000021251564188
 50
52.881746419467632
 51
89.999988730212621
  0
LINE
  5
17D
  8
0
 10
181.911595640147
 20
161.56061160959479
 30
0.0
 11
181.131955640147
 21
161.56061160959479
 31
0.0
  0
ARC
  5
17E
  8
0
 10
181.1319537724591
 20
159.0606134772828
 30
0.0
 40
2.4999981323127409
 50
89.999957195713066
 51
180.00004280428689
  0
ARC
  5
17F
  8
0
 10
179.1319552666094
 20
159.0606112360573
 30
0.0
 40
0.4999996264625512
 50
179.99995719571339
 51
270.00004280428658
  0
LINE
  5
180
  8
0
 10
179.131955640147
 20
158.56061160959479
 30
0.0
 11
180.631955640147
 21
158.56061160959479
 31
0.0
  0
ARC
  5
181
  8
0
 10
180.6319560136846
 20
158.06061198313239
 30
0.0
 40
0.4999996264625512
 50
359.99995719571342
 51
90.000042804286593
  0
LINE
  5
182
  8
0
 10
181.131955640147
 20
158.0606116095949
 30
0.0
 11
181.131955640147
 21
156.56061160959479
 31
0.0
  0
ARC
  5
183
  8
0
 10
180.13195638722209
 20
156.5606108625197
 30
0.0
 40
0.9999992529251022
 50
269.99995719571342
 51
0.0000428042865895
  0
LINE
  5
184
  8
0
 10
180.131955640147
 20
155.56061160959479
 30
0.0
 11
178.131955640147
 21
155.56061160959479
 31
0.0
  0
ARC
  5
185
  8
0
 10
178.13195451953419
 20
157.06061048898209
 30
0.0
 40
1.4999988793876391
 50
179.99995719571291
 51
270.00004280428709
  0
LINE
  5
186
  8
0
 10
176.631955640147
 20
157.0606116095949
 30
0.0
 11
176.631955640147
 21
167.5606116095949
 31
0.0
  0
ARC
  5
187
  8
0
 10
180.63195265184621
 20
167.56061459789561
 30
0.0
 40
3.9999970117003798
 50
89.999957195712994
 51
180.00004280428701
  0
LINE
  5
188
  8
0
 10
180.631955640147
 20
171.5606116095949
 30
0.0
 11
191.131955640147
 21
171.5606116095949
 31
0.0
  0
ARC
  5
189
  8
0
 10
191.13195676075981
 20
170.06061273020759
 30
0.0
 40
1.4999988793876391
 50
359.99995719571291
 51
90.000042804287133
  0
LINE
  5
18A
  8
0
 10
192.631955640147
 20
170.06061160959479
 30
0.0
 11
192.631955640147
 21
168.06061160959479
 31
0.0
  0
ARC
  5
18B
  8
0
 10
191.63195638722209
 20
168.0606108625197
 30
0.0
 40
0.9999992529251022
 50
269.99995719571342
 51
0.0000428042865895
  0
LINE
  5
18C
  8
0
 10
191.631955640147
 20
167.06061160959479
 30
0.0
 11
190.131955640147
 21
167.06061160959479
 31
0.0
  0
ARC
  5
18D
  8
0
 10
190.1319552666094
 20
167.56061123605721
 30
0.0
 40
0.4999996264625512
 50
179.99995719571339
 51
270.00004280428658
  0
LINE
  5
18E
  8
0
 10
189.631955640147
 20
167.5606116095949
 30
0.0
 11
189.631955640147
 21
169.06061160959479
 31
0.0
  0
ARC
  5
18F
  8
0
 10
189.1319560136846
 20
169.06061198313239
 30
0.0
 40
0.4999996264625512
 50
359.99995719571342
 51
90.000042804286593
  0
ARC
  5
190
  8
0
 10
189.1319537724591
 20
167.0606134772828
 30
0.0
 40
2.4999981323127409
 50
89.999957195713066
 51
180.00004280428689
  0
LINE
  5
191
  8
0
 10
186.631955640147
 20
167.06061160959479
 30
0.0
 11
186.631955640147
 21
166.28097160959479
 31
0.0
  0
ARC
  5
192
  8
0
 10
188.63195776530341
 20
166.2809720029851
 30
0.0
 40
2.0000021251564228
 50
180.00001126978819
 51
217.11825358053329
  0
ARC
  5
193
  8
0
 10
206.97201542863789
 20
180.16067313964729
 30
0.0
 40
25.00008514103758
 50
217.11832188166221
 51
233.35804653321119
  0
ARC
  5
194
  8
0
 10
194.43889867950179
 20
163.31061003331581
 30
0.0
 40
3.9999984237210069
 50
233.35806895405329
 51
270.00001376023442
  0
LINE
  5
195
  8
0
 10
194.43889964014701
 20
159.31061160959479
 30
0.0
 11
198.82501164014701
 21
159.31061160959479
 31
0.0
  0
ARC
  5
196
  8
0
 10
198.82501260079221
 20
163.31061003331581
 30
0.0
 40
3.9999984237210109
 50
269.99998623976558
 51
306.64193104594659
  0
ARC
  5
197
  8
0
 10
186.29189585165611
 20
180.16067313964729
 30
0.0
 40
25.00008514103758
 50
306.64195346678889
 51
322.88167811833767
  0
ARC
  5
198
  8
0
 10
204.63195351499061
 20
166.2809720029851
 30
0.0
 40
2.0000021251564251
 50
322.88174641946671
 51
359.99998873021178
  0
LINE
  5
199
  8
0
 10
206.631955640147
 20
166.28097160959479
 30
0.0
 11
206.631955640147
 21
167.06061160959479
 31
0.0
  0
ARC
  5
19A
  8
0
 10
204.13195750783501
 20
167.0606134772828
 30
0.0
 40
2.4999981323127409
 50
359.99995719571308
 51
90.000042804286906
  0
ARC
  5
19B
  8
0
 10
204.1319552666094
 20
169.06061198313239
 30
0.0
 40
0.4999996264625512
 50
89.999957195713407
 51
180.00004280428661
  0
LINE
  5
19C
  8
0
 10
203.631955640147
 20
169.06061160959479
 30
0.0
 11
203.631955640147
 21
167.5606116095949
 31
0.0
  0
ARC
  5
19D
  8
0
 10
203.1319560136846
 20
167.56061123605721
 30
0.0
 40
0.4999996264625512
 50
269.99995719571342
 51
0.0000428042865895
  0
LINE
  5
19E
  8
0
 10
203.131955640147
 20
167.06061160959479
 30
0.0
 11
201.631955640147
 21
167.06061160959479
 31
0.0
  0
ARC
  5
19F
  8
0
 10
201.63195489307179
 20
168.0606108625197
 30
0.0
 40
0.9999992529251022
 50
179.99995719571339
 51
270.00004280428658
  0
LINE
  5
1A0
  8
0
 10
200.631955640147
 20
168.06061160959479
 30
0.0
 11
200.631955640147
 21
170.06061160959479
 31
0.0
  0
ARC
  5
1A1
  8
0
 10
202.13195451953419
 20
170.06061273020759
 30
0.0
 40
1.4999988793876391
 50
89.999957195712867
 51
180.00004280428709
  0
LINE
  5
1A2
  8
0
 10
202.131955640147
 20
171.5606116095949
 30
0.0
 11
231.131955640147
 21
171.5606116095949
 31
0.0
  0
ARC
  5
1A3
  8
0
 10
231.13195676075981
 20
170.06061273020759
 30
0.0
 40
1.4999988793876391
 50
359.99995719571291
 51
90.000042804287133
  0
LINE
  5
1A4
  8
0
 10
232.631955640147
 20
170.06061160959479
 30
0.0
 11
232.631955640147
 21
168.06061160959479
 31
0.0
  0
ARC
  5
1A5
  8
0
 10
231.6319563872222
 20
168.0606108625197
 30
0.0
 40
0.9999992529251022
 50
269.99995719571342
 51
0.0000428042865895
  0
LINE
  5
1A6
  8
0
 10
231.631955640147
 20
167.06061160959479
 30
0.0
 11
230.131955640147
 21
167.06061160959479
 31
0.0
  0
ARC
  5
1A7
  8
0
 10
230.1319552666094
 20
167.56061123605721
 30
0.0
 40
0.4999996264625512
 50
179.99995719571339
 51
270.00004280428658
  0
LINE
  5
1A8
  8
0
 10
229.631955640147
 20
167.5606116095949
 30
0.0
 11
229.631955640147
 21
169.06061160959479
 31
0.0
  0
ARC
  5
1A9
  8
0
 10
229.1319560136846
 20
169.06061198313239
 30
0.0
 40
0.4999996264625512
 50
359.99995719571342
 51
90.000042804286593
  0
ARC
  5
1AA
  8
0
 10
229.1319537724591
 20
167.0606134772828
 30
0.0
 40
2.4999981323127409
 50
89.999957195713066
 51
180.00004280428689
  0
LINE
  5
1AB
  8
0
 10
226.631955640147
 20
167.06061160959479
 30
0.0
 11
226.631955640147
 21
166.28097160959479
 31
0.0
  0
ARC
  5
1AC
  8
0
 10
228.63195776530341
 20
166.28097200298501
 30
0.0
 40
2.0000021251564228
 50
180.00001126978731
 51
217.11825358053241
  0
ARC
  5
1AD
  8
0
 10
246.9720154286378
 20
180.1606731396474
 30
0.0
 40
25.000085141037609
 50
217.1183218816623
 51
233.35804653321119
  0
ARC
  5
1AE
  8
0
 10
234.43889867950179
 20
163.31061003331581
 30
0.0
 40
3.9999984237210162
 50
233.35806895405321
 51
270.0000137602342
  0
LINE
  5
1AF
  8
0
 10
234.43889964014701
 20
159.31061160959479
 30
0.0
 11
238.82501164014701
 21
159.31061160959479
 31
0.0
  0
ARC
  5
1B0
  8
0
 10
238.82501260079221
 20
163.31061003331581
 30
0.0
 40
3.9999984237210109
 50
269.9999862397658
 51
306.64193104594682
  0
ARC
  5
1B1
  8
0
 10
226.29189585165619
 20
180.16067313964729
 30
0.0
 40
25.00008514103758
 50
306.64195346678889
 51
322.88167811833767
  0
ARC
  5
1B2
  8
0
 10
244.63195351499061
 20
166.2809720029851
 30
0.0
 40
2.000002125156422
 50
322.8817464194662
 51
359.99998873021138
  0
LINE
  5
1B3
  8
0
 10
246.631955640147
 20
166.28097160959479
 30
0.0
 11
246.631955640147
 21
167.06061160959479
 31
0.0
  0
ARC
  5
1B4
  8
0
 10
244.13195750783501
 20
167.0606134772828
 30
0.0
 40
2.4999981323127409
 50
359.99995719571308
 51
90.000042804286906
  0
ARC
  5
1B5
  8
0
 10
244.1319552666094
 20
169.06061198313239
 30
0.0
 40
0.4999996264625512
 50
89.999957195711772
 51
180.00004280428661
  0
LINE
  5
1B6
  8
0
 10
243.631955640147
 20
169.06061160959479
 30
0.0
 11
243.631955640147
 21
167.5606116095949
 31
0.0
  0
ARC
  5
1B7
  8
0
 10
243.1319560136846
 20
167.56061123605721
 30
0.0
 40
0.4999996264625369
 50
269.99995719571177
 51
0.0000428042865895
  0
LINE
  5
1B8
  8
0
 10
243.131955640147
 20
167.06061160959479
 30
0.0
 11
241.631955640147
 21
167.06061160959479
 31
0.0
  0
ARC
  5
1B9
  8
0
 10
241.63195489307191
 20
168.0606108625197
 30
0.0
 40
0.9999992529251022
 50
179.99995719571339
 51
270.00004280428658
  0
LINE
  5
1BA
  8
0
 10
240.631955640147
 20
168.06061160959479
 30
0.0
 11
240.631955640147
 21
170.06061160959479
 31
0.0
  0
ARC
  5
1BB
  8
0
 10
242.1319545195343
 20
170.06061273020759
 30
0.0
 40
1.4999988793876391
 50
89.999957195712867
 51
180.00004280428709
  0
LINE
  5
1BC
  8
0
 10
242.131955640147
 20
171.5606116095949
 30
0.0
 11
252.631955640147
 21
171.5606116095949
 31
0.0
  0
ARC
  5
1BD
  8
0
 10
252.63195862844779
 20
167.56061459789561
 30
0.0
 40
3.9999970117003798
 50
359.99995719571302
 51
90.000042804286991
  0
LINE
  5
1BE
  8
0
 10
256.631955640147
 20
167.5606116095949
 30
0.0
 11
256.631955640147
 21
157.0606116095949
 31
0.0
  0
ARC
  5
1BF
  8
0
 10
255.13195676075981
 20
157.06061048898209
 30
0.0
 40
1.4999988793876391
 50
269.9999571957128
 51
0.0000428042871323
  0
LINE
  5
1C0
  8
0
 10
255.131955640147
 20
155.56061160959479
 30
0.0
 11
253.131955640147
 21
155.56061160959479
 31
0.0
  0
ARC
  5
1C1
  8
0
 10
253.13195489307179
 20
156.5606108625197
 30
0.0
 40
0.9999992529251022
 50
179.99995719571339
 51
270.00004280428658
  0
LINE
  5
1C2
  8
0
 10
252.131955640147
 20
156.56061160959479
 30
0.0
 11
252.131955640147
 21
158.0606116095949
 31
0.0
  0
ARC
  5
1C3
  8
0
 10
252.6319552666094
 20
158.06061198313239
 30
0.0
 40
0.4999996264625369
 50
89.999957195711772
 51
180.00004280428661
  0
LINE
  5
1C4
  8
0
 10
252.631955640147
 20
158.56061160959479
 30
0.0
 11
254.131955640147
 21
158.56061160959479
 31
0.0
  0
ARC
  5
1C5
  8
0
 10
254.1319560136846
 20
159.0606112360573
 30
0.0
 40
0.4999996264625512
 50
269.99995719571177
 51
0.0000428042865895
  0
ARC
  5
1C6
  8
0
 10
252.13195750783501
 20
159.0606134772828
 30
0.0
 40
2.4999981323127409
 50
359.99995719571308
 51
90.000042804286906
  0
LINE
  5
1C7
  8
0
 10
252.131955640147
 20
161.56061160959479
 30
0.0
 11
251.352315640147
 21
161.56061160959479
 31
0.0
  0
ARC
  5
1C8
  8
0
 10
251.35231603353719
 20
159.56060948443849
 30
0.0
 40
2.0000021251563949
 50
90.000011269787777
 51
127.11825358053289
  0
ARC
  5
1C9
  8
0
 10
265.23201717019958
 20
141.22055182110401
 30
0.0
 40
25.000085141037619
 50
127.1183218816623
 51
143.35804653321119
  0
ARC
  5
1CA
  8
0
 10
248.38195406386791
 20
153.75366857024011
 30
0.0
 40
3.9999984237209989
 50
143.35806895405349
 51
180.00001376023471
  0
LINE
  5
1CB
  8
0
 10
244.381955640147
 20
153.75366760959491
 30
0.0
 11
244.381955640147
 21
149.3675556095948
 31
0.0
  0
ARC
  5
1CC
  8
0
 10
248.38195406386791
 20
149.36755464894961
 30
0.0
 40
3.9999984237209971
 50
179.99998623976529
 51
216.64193104594651
  0
ARC
  5
1CD
  8
0
 10
265.23201717019958
 20
161.90067139808571
 30
0.0
 40
25.000085141037619
 50
216.64195346678881
 51
232.88167811833759
  0
ARC
  5
1CE
  8
0
 10
251.35231603353719
 20
143.5606137347512
 30
0.0
 40
2.0000021251563971
 50
232.88174641946711
 51
269.99998873021218
  0
LINE
  5
1CF
  8
0
 10
251.352315640147
 20
141.5606116095949
 30
0.0
 11
252.131955640147
 21
141.5606116095949
 31
0.0
  0
ARC
  5
1D0
  8
0
 10
252.13195750783501
 20
144.06060974190689
 30
0.0
 40
2.4999981323127409
 50
269.99995719571308
 51
0.0000428042869152
  0
ARC
  5
1D1
  8
0
 10
254.1319560136846
 20
144.06061198313239
 30
0.0
 40
0.4999996264625369
 50
359.99995719571342
 51
90.000042804288213
  0
LINE
  5
1D2
  8
0
 10
254.131955640147
 20
144.5606116095949
 30
0.0
 11
252.631955640147
 21
144.5606116095949
 31
0.0
  0
ARC
  5
1D3
  8
0
 10
252.6319552666094
 20
145.0606112360573
 30
0.0
 40
0.4999996264625512
 50
179.99995719571339
 51
270.00004280428823
  0
LINE
  5
1D4
  8
0
 10
252.131955640147
 20
145.06061160959479
 30
0.0
 11
252.131955640147
 21
146.5606116095949
 31
0.0
  0
ARC
  5
1D5
  8
0
 10
253.13195489307179
 20
146.56061235666999
 30
0.0
 40
0.9999992529251022
 50
89.999957195713407
 51
180.00004280428661
  0
LINE
  5
1D6
  8
0
 10
253.131955640147
 20
147.5606116095949
 30
0.0
 11
255.131955640147
 21
147.5606116095949
 31
0.0
  0
ARC
  5
1D7
  8
0
 10
255.13195676075981
 20
146.06061273020759
 30
0.0
 40
1.4999988793876391
 50
359.99995719571291
 51
90.000042804287133
  0
LINE
  5
1D8
  8
0
 10
256.631955640147
 20
146.06061160959479
 30
0.0
 11
256.631955640147
 21
117.0606116095948
 31
0.0
  0
ARC
  5
1D9
  8
0
 10
255.13195676075981
 20
117.06061048898211
 30
0.0
 40
1.4999988793876391
 50
269.9999571957128
 51
0.0000428042868609
  0
LINE
  5
1DA
  8
0
 10
255.131955640147
 20
115.5606116095948
 30
0.0
 11
253.131955640147
 21
115.5606116095948
 31
0.0
  0
ARC
  5
1DB
  8
0
 10
253.13195489307179
 20
116.5606108625197
 30
0.0
 40
0.9999992529250951
 50
179.99995719571299
 51
270.00004280428658
  0
LINE
  5
1DC
  8
0
 10
252.131955640147
 20
116.5606116095948
 30
0.0
 11
252.131955640147
 21
118.0606116095948
 31
0.0
  0
ARC
  5
1DD
  8
0
 10
252.6319552666094
 20
118.0606119831324
 30
0.0
 40
0.4999996264625369
 50
89.999957195711772
 51
180.00004280428661
  0
LINE
  5
1DE
  8
0
 10
252.631955640147
 20
118.5606116095949
 30
0.0
 11
254.131955640147
 21
118.5606116095949
 31
0.0
  0
ARC
  5
1DF
  8
0
 10
254.1319560136846
 20
119.0606112360573
 30
0.0
 40
0.4999996264625512
 50
269.99995719571177
 51
0.0000428042865895
  0
ARC
  5
1E0
  8
0
 10
252.13195750783501
 20
119.0606134772828
 30
0.0
 40
2.4999981323127409
 50
359.99995719571308
 51
90.000042804286906
  0
LINE
  5
1E1
  8
0
 10
252.131955640147
 20
121.5606116095949
 30
0.0
 11
251.352315640147
 21
121.5606116095949
 31
0.0
  0
ARC
  5
1E2
  8
0
 10
251.35231603353719
 20
119.5606094844385
 30
0.0
 40
2.000002125156402
 50
90.000011269787777
 51
127.11825358053289
  0
ARC
  5
1E3
  8
0
 10
265.23201717019953
 20
101.220551821104
 30
0.0
 40
25.00008514103758
 50
127.1183218816622
 51
143.35804653321111
  0
ARC
  5
1E4
  8
0
 10
248.38195406386799
 20
113.75366857024009
 30
0.0
 40
3.999998423721022
 50
143.35806895405369
 51
180.00001376023479
  0
LINE
  5
1E5
  8
0
 10
244.381955640147
 20
113.7536676095948
 30
0.0
 11
244.381955640147
 21
109.3675556095949
 31
0.0
  0
ARC
  5
1E6
  8
0
 10
248.38195406386799
 20
109.36755464894961
 30
0.0
 40
3.9999984237210251
 50
179.99998623976521
 51
216.64193104594619
  0
ARC
  5
1E7
  8
0
 10
265.23201717019953
 20
121.90067139808571
 30
0.0
 40
25.00008514103758
 50
216.64195346678881
 51
232.8816781183377
  0
ARC
  5
1E8
  8
0
 10
251.35231603353719
 20
103.5606137347512
 30
0.0
 40
2.0000021251563971
 50
232.88174641946711
 51
269.99998873021218
  0
LINE
  5
1E9
  8
0
 10
251.352315640147
 20
101.5606116095948
 30
0.0
 11
252.131955640147
 21
101.5606116095948
 31
0.0
  0
ARC
  5
1EA
  8
0
 10
252.13195750783501
 20
104.0606097419069
 30
0.0
 40
2.4999981323127369
 50
269.99995719571308
 51
0.0000428042869966
  0
ARC
  5
1EB
  8
0
 10
254.1319560136846
 20
104.0606119831324
 30
0.0
 40
0.4999996264625369
 50
359.99995719571302
 51
90.000042804288213
  0
LINE
  5
1EC
  8
0
 10
254.131955640147
 20
104.5606116095948
 30
0.0
 11
252.631955640147
 21
104.5606116095948
 31
0.0
  0
ARC
  5
1ED
  8
0
 10
252.6319552666094
 20
105.0606112360572
 30
0.0
 40
0.4999996264625476
 50
179.99995719571299
 51
270.00004280428823
  0
LINE
  5
1EE
  8
0
 10
252.131955640147
 20
105.0606116095949
 30
0.0
 11
252.131955640147
 21
106.5606116095948
 31
0.0
  0
ARC
  5
1EF
  8
0
 10
253.13195489307179
 20
106.56061235667001
 30
0.0
 40
0.9999992529251022
 50
89.999957195713407
 51
180.00004280428701
  0
LINE
  5
1F0
  8
0
 10
253.131955640147
 20
107.5606116095948
 30
0.0
 11
255.131955640147
 21
107.5606116095948
 31
0.0
  0
ARC
  5
1F1
  8
0
 10
255.13195676075981
 20
106.06061273020759
 30
0.0
 40
1.499998879387646
 50
359.99995719571308
 51
90.000042804287133
  0
LINE
  5
1F2
  8
0
 10
256.631955640147
 20
106.0606116095949
 30
0.0
 11
256.631955640147
 21
95.560611609594872
 31
0.0
  0
ARC
  5
1F3
  8
0
 10
252.63195862844779
 20
95.560608621294136
 30
0.0
 40
3.9999970117003798
 50
269.99995719571302
 51
0.0000428042869457
  0
LINE
  5
1F4
  8
0
 10
252.631955640147
 20
91.560611609594858
 30
0.0
 11
242.131955640147
 21
91.560611609594858
 31
0.0
  0
ARC
  5
1F5
  8
0
 10
242.1319545195343
 20
93.060610488982093
 30
0.0
 40
1.499998879387642
 50
179.99995719571299
 51
270.00004280428709
  0
LINE
  5
1F6
  8
0
 10
240.631955640147
 20
93.060611609594872
 30
0.0
 11
240.631955640147
 21
95.060611609594886
 31
0.0
  0
ARC
  5
1F7
  8
0
 10
241.63195489307191
 20
95.060612356670035
 30
0.0
 40
0.9999992529251022
 50
89.999957195713407
 51
180.00004280428701
  0
LINE
  5
1F8
  8
0
 10
241.631955640147
 20
96.060611609594872
 30
0.0
 11
243.131955640147
 21
96.060611609594872
 31
0.0
  0
ARC
  5
1F9
  8
0
 10
243.1319560136846
 20
95.560611983132461
 30
0.0
 40
0.4999996264625476
 50
359.99995719571302
 51
90.000042804288213
  0
LINE
  5
1FA
  8
0
 10
243.631955640147
 20
95.560611609594872
 30
0.0
 11
243.631955640147
 21
94.060611609594858
 31
0.0
  0
ARC
  5
1FB
  8
0
 10
244.1319552666094
 20
94.060611236057284
 30
0.0
 40
0.4999996264625369
 50
179.99995719571299
 51
270.00004280428823
  0
ARC
  5
1FC
  8
0
 10
244.13195750783501
 20
96.060609741906916
 30
0.0
 40
2.4999981323127369
 50
269.99995719571308
 51
0.0000428042869966
  0
LINE
  5
1FD
  8
0
 10
246.631955640147
 20
96.060611609594872
 30
0.0
 11
246.631955640147
 21
96.840251609594873
 31
0.0
  0
ARC
  5
1FE
  8
0
 10
244.63195351499061
 20
96.840251216204635
 30
0.0
 40
2.0000021251564228
 50
0.0000112697886953
 51
37.118253580533917
  0
ARC
  5
1FF
  8
0
 10
226.29189585165619
 20
82.960550079542386
 30
0.0
 40
25.00008514103758
 50
37.118321881662233
 51
53.358046533211152
  0
ARC
  5
200
  8
0
 10
238.82501260079221
 20
99.810613185873976
 30
0.0
 40
3.9999984237210162
 50
53.358068954053181
 51
90.000013760234239
  0
LINE
  5
201
  8
0
 10
238.82501164014701
 20
103.8106116095949
 30
0.0
 11
234.43889964014701
 21
103.8106116095949
 31
0.0
  0
ARC
  5
202
  8
0
 10
234.43889867950179
 20
99.810613185873976
 30
0.0
 40
3.9999984237210109
 50
89.999986239765747
 51
126.64193104594681
  0
ARC
  5
203
  8
0
 10
246.9720154286378
 20
82.960550079542344
 30
0.0
 40
25.000085141037619
 50
126.64195346678871
 51
142.88167811833759
  0
ARC
  5
204
  8
0
 10
228.63195776530341
 20
96.840251216204663
 30
0.0
 40
2.0000021251564211
 50
142.8817464194675
 51
179.99998873021249
  0
LINE
  5
205
  8
0
 10
226.631955640147
 20
96.840251609594873
 30
0.0
 11
226.631955640147
 21
96.060611609594872
 31
0.0
  0
ARC
  5
206
  8
0
 10
229.1319537724591
 20
96.060609741906916
 30
0.0
 40
2.4999981323127409
 50
179.99995719571299
 51
270.00004280428692
  0
ARC
  5
207
  8
0
 10
229.1319560136846
 20
94.060611236057284
 30
0.0
 40
0.4999996264625476
 50
269.99995719571342
 51
0.0000428042869966
  0
LINE
  5
208
  8
0
 10
229.631955640147
 20
94.060611609594858
 30
0.0
 11
229.631955640147
 21
95.560611609594872
 31
0.0
  0
ARC
  5
209
  8
0
 10
230.1319552666094
 20
95.560611983132461
 30
0.0
 40
0.4999996264625512
 50
89.999957195713407
 51
180.00004280428701
  0
LINE
  5
20A
  8
0
 10
230.131955640147
 20
96.060611609594872
 30
0.0
 11
231.631955640147
 21
96.060611609594872
 31
0.0
  0
ARC
  5
20B
  8
0
 10
231.6319563872222
 20
95.060612356670035
 30
0.0
 40
0.9999992529250951
 50
359.99995719571302
 51
90.000042804286593
  0
LINE
  5
20C
  8
0
 10
232.631955640147
 20
95.060611609594886
 30
0.0
 11
232.631955640147
 21
93.060611609594872
 31
0.0
  0
ARC
  5
20D
  8
0
 10
231.13195676075981
 20
93.060610488982093
 30
0.0
 40
1.4999988793876391
 50
269.9999571957128
 51
0.0000428042869966
  0
LINE
  5
20E
  8
0
 10
231.131955640147
 20
91.560611609594858
 30
0.0
 11
202.131955640147
 21
91.560611609594858
 31
0.0
  0
ARC
  5
20F
  8
0
 10
202.13195451953419
 20
93.060610488982093
 30
0.0
 40
1.499998879387642
 50
179.99995719571299
 51
270.00004280428709
  0
LINE
  5
210
  8
0
 10
200.631955640147
 20
93.060611609594872
 30
0.0
 11
200.631955640147
 21
95.060611609594886
 31
0.0
  0
ARC
  5
211
  8
0
 10
201.63195489307179
 20
95.060612356670035
 30
0.0
 40
0.9999992529251022
 50
89.999957195713407
 51
180.00004280428701
  0
LINE
  5
212
  8
0
 10
201.631955640147
 20
96.060611609594872
 30
0.0
 11
203.131955640147
 21
96.060611609594872
 31
0.0
  0
LINE
  5
213
  8
0
 10
185.018190640147
 20
162.00857860959479
 30
0.0
 11
186.20365964014701
 21
163.1940476095948
 31
0.0
  0
LINE
  5
214
  8
0
 10
186.20365964014701
 20
163.1940476095948
 30
0.0
 11
186.20675364014701
 21
163.89803360959479
 31
0.0
  0
LINE
  5
215
  8
0
 10
186.20675364014701
 20
163.89803360959479
 30
0.0
 11
185.23195564014699
 21
166.28097160959479
 31
0.0
  0
LINE
  5
216
  8
0
 10
185.23195564014699
 20
166.28097160959479
 30
0.0
 11
185.23195564014699
 21
169.66061160959481
 31
0.0
  0
LINE
  5
217
  8
0
 10
185.23195564014699
 20
169.66061160959481
 30
0.0
 11
184.73195564014699
 21
170.16061160959481
 31
0.0
  0
LINE
  5
218
  8
0
 10
184.73195564014699
 20
170.16061160959481
 30
0.0
 11
181.092453640147
 21
170.16061160959481
 31
0.0
  0
LINE
  5
219
  8
0
 10
181.092453640147
 20
170.16061160959481
 30
0.0
 11
178.031955640147
 21
167.60171660959489
 31
0.0
  0
LINE
  5
21A
  8
0
 10
178.031955640147
 20
167.60171660959489
 30
0.0
 11
178.031955640147
 21
163.46061160959491
 31
0.0
  0
LINE
  5
21B
  8
0
 10
178.031955640147
 20
163.46061160959491
 30
0.0
 11
178.531955640147
 21
162.96061160959479
 31
0.0
  0
LINE
  5
21C
  8
0
 10
178.531955640147
 20
162.96061160959479
 30
0.0
 11
181.911595640147
 21
162.96061160959479
 31
0.0
  0
LINE
  5
21D
  8
0
 10
181.911595640147
 20
162.96061160959479
 30
0.0
 11
183.963368640147
 21
162.27174160959481
 31
0.0
  0
LINE
  5
21E
  8
0
 10
183.963368640147
 20
162.27174160959481
 30
0.0
 11
184.355479640147
 21
161.96916660959491
 31
0.0
  0
LINE
  5
21F
  8
0
 10
184.355479640147
 20
161.96916660959491
 30
0.0
 11
185.018190640147
 21
162.00857860959479
 31
0.0
  0
LINE
  5
220
  8
0
 10
194.131955640147
 20
156.17038360959481
 30
0.0
 11
194.131955640147
 21
157.46605460959481
 31
0.0
  0
LINE
  5
221
  8
0
 10
194.131955640147
 20
157.46605460959481
 30
0.0
 11
193.700340640147
 21
157.96135660959479
 31
0.0
  0
LINE
  5
222
  8
0
 10
193.700340640147
 20
157.96135660959479
 30
0.0
 11
191.216113640147
 21
158.97775460959491
 31
0.0
  0
LINE
  5
223
  8
0
 10
191.216113640147
 20
158.97775460959491
 30
0.0
 11
187.631142640147
 21
162.19138960959481
 31
0.0
  0
LINE
  5
224
  8
0
 10
187.631142640147
 20
162.19138960959481
 30
0.0
 11
186.91128564014701
 21
162.20461660959481
 31
0.0
  0
LINE
  5
225
  8
0
 10
186.91128564014701
 20
162.20461660959481
 30
0.0
 11
185.98795064014701
 21
161.2812816095948
 31
0.0
  0
LINE
  5
226
  8
0
 10
185.98795064014701
 20
161.2812816095948
 30
0.0
 11
186.00117764014701
 21
160.56142460959481
 31
0.0
  0
LINE
  5
227
  8
0
 10
186.00117764014701
 20
160.56142460959481
 30
0.0
 11
189.21481264014699
 21
156.97645360959481
 31
0.0
  0
LINE
  5
228
  8
0
 10
189.21481264014699
 20
156.97645360959481
 30
0.0
 11
190.231210640147
 21
154.49222660959481
 31
0.0
  0
LINE
  5
229
  8
0
 10
190.231210640147
 20
154.49222660959481
 30
0.0
 11
190.72651264014701
 21
154.0606116095949
 31
0.0
  0
LINE
  5
22A
  8
0
 10
190.72651264014701
 20
154.0606116095949
 30
0.0
 11
192.02218364014701
 21
154.0606116095949
 31
0.0
  0
LINE
  5
22B
  8
0
 10
192.02218364014701
 20
154.0606116095949
 30
0.0
 11
192.44125364014701
 21
154.2878846095949
 31
0.0
  0
LINE
  5
22C
  8
0
 10
192.44125364014701
 20
154.2878846095949
 30
0.0
 11
193.904682640147
 21
155.7513136095948
 31
0.0
  0
LINE
  5
22D
  8
0
 10
193.904682640147
 20
155.7513136095948
 30
0.0
 11
194.131955640147
 21
156.17038360959481
 31
0.0
  0
LINE
  5
22E
  8
0
 10
247.079922640147
 20
163.1743766095949
 30
0.0
 11
247.04051064014701
 21
163.83708760959479
 31
0.0
  0
LINE
  5
22F
  8
0
 10
247.04051064014701
 20
163.83708760959479
 30
0.0
 11
247.343085640147
 21
164.2291986095949
 31
0.0
  0
LINE
  5
230
  8
0
 10
247.343085640147
 20
164.2291986095949
 30
0.0
 11
248.031955640147
 21
166.28097160959479
 31
0.0
  0
LINE
  5
231
  8
0
 10
248.031955640147
 20
166.28097160959479
 30
0.0
 11
248.031955640147
 21
169.66061160959481
 31
0.0
  0
LINE
  5
232
  8
0
 10
248.031955640147
 20
169.66061160959481
 30
0.0
 11
248.531955640147
 21
170.16061160959481
 31
0.0
  0
LINE
  5
233
  8
0
 10
248.531955640147
 20
170.16061160959481
 30
0.0
 11
252.67306064014701
 21
170.16061160959481
 31
0.0
  0
LINE
  5
234
  8
0
 10
252.67306064014701
 20
170.16061160959481
 30
0.0
 11
255.23195564014699
 21
167.10011360959481
 31
0.0
  0
LINE
  5
235
  8
0
 10
255.23195564014699
 20
167.10011360959481
 30
0.0
 11
255.23195564014699
 21
163.46061160959491
 31
0.0
  0
LINE
  5
236
  8
0
 10
255.23195564014699
 20
163.46061160959491
 30
0.0
 11
254.73195564014699
 21
162.96061160959479
 31
0.0
  0
LINE
  5
237
  8
0
 10
254.73195564014699
 20
162.96061160959479
 30
0.0
 11
251.352315640147
 21
162.96061160959479
 31
0.0
  0
LINE
  5
238
  8
0
 10
251.352315640147
 20
162.96061160959479
 30
0.0
 11
248.969377640147
 21
161.98581360959491
 31
0.0
  0
LINE
  5
239
  8
0
 10
248.969377640147
 20
161.98581360959491
 30
0.0
 11
248.26539164014699
 21
161.9889076095948
 31
0.0
  0
LINE
  5
23A
  8
0
 10
248.26539164014699
 20
161.9889076095948
 30
0.0
 11
247.079922640147
 21
163.1743766095949
 31
0.0
  0
LINE
  5
23B
  8
0
 10
241.24172764014699
 20
154.0606116095949
 30
0.0
 11
242.53739864014699
 21
154.0606116095949
 31
0.0
  0
LINE
  5
23C
  8
0
 10
242.53739864014699
 20
154.0606116095949
 30
0.0
 11
243.032700640147
 21
154.49222660959481
 31
0.0
  0
LINE
  5
23D
  8
0
 10
243.032700640147
 20
154.49222660959481
 30
0.0
 11
244.04909864014701
 21
156.97645360959481
 31
0.0
  0
LINE
  5
23E
  8
0
 10
244.04909864014701
 20
156.97645360959481
 30
0.0
 11
247.26273364014699
 21
160.56142460959481
 31
0.0
  0
LINE
  5
23F
  8
0
 10
247.26273364014699
 20
160.56142460959481
 30
0.0
 11
247.27596064014699
 21
161.2812816095948
 31
0.0
  0
LINE
  5
240
  8
0
 10
247.27596064014699
 20
161.2812816095948
 30
0.0
 11
246.35262564014701
 21
162.20461660959481
 31
0.0
  0
LINE
  5
241
  8
0
 10
246.35262564014701
 20
162.20461660959481
 30
0.0
 11
245.63276864014699
 21
162.19138960959481
 31
0.0
  0
LINE
  5
242
  8
0
 10
245.63276864014699
 20
162.19138960959481
 30
0.0
 11
242.047797640147
 21
158.97775460959491
 31
0.0
  0
LINE
  5
243
  8
0
 10
242.047797640147
 20
158.97775460959491
 30
0.0
 11
239.56357064014699
 21
157.96135660959479
 31
0.0
  0
LINE
  5
244
  8
0
 10
239.56357064014699
 20
157.96135660959479
 30
0.0
 11
239.131955640147
 21
157.46605460959481
 31
0.0
  0
LINE
  5
245
  8
0
 10
239.131955640147
 20
157.46605460959481
 30
0.0
 11
239.131955640147
 21
156.17038360959481
 31
0.0
  0
LINE
  5
246
  8
0
 10
239.131955640147
 20
156.17038360959481
 30
0.0
 11
239.35922864014699
 21
155.7513136095948
 31
0.0
  0
LINE
  5
247
  8
0
 10
239.35922864014699
 20
155.7513136095948
 30
0.0
 11
240.82265764014701
 21
154.2878846095949
 31
0.0
  0
LINE
  5
248
  8
0
 10
240.82265764014701
 20
154.2878846095949
 30
0.0
 11
241.24172764014699
 21
154.0606116095949
 31
0.0
  0
LINE
  5
249
  8
0
 10
239.131955640147
 20
105.6551686095948
 30
0.0
 11
239.131955640147
 21
106.95083960959489
 31
0.0
  0
LINE
  5
24A
  8
0
 10
239.131955640147
 20
106.95083960959489
 30
0.0
 11
239.35922864014699
 21
107.3699096095948
 31
0.0
  0
LINE
  5
24B
  8
0
 10
239.35922864014699
 20
107.3699096095948
 30
0.0
 11
240.82265764014701
 21
108.8333386095948
 31
0.0
  0
LINE
  5
24C
  8
0
 10
240.82265764014701
 20
108.8333386095948
 30
0.0
 11
241.24172764014699
 21
109.0606116095949
 31
0.0
  0
LINE
  5
24D
  8
0
 10
241.24172764014699
 20
109.0606116095949
 30
0.0
 11
242.53739864014699
 21
109.0606116095949
 31
0.0
  0
LINE
  5
24E
  8
0
 10
242.53739864014699
 20
109.0606116095949
 30
0.0
 11
243.032700640147
 21
108.62899660959491
 31
0.0
  0
LINE
  5
24F
  8
0
 10
243.032700640147
 20
108.62899660959491
 30
0.0
 11
244.04909864014701
 21
106.1447696095948
 31
0.0
  0
LINE
  5
250
  8
0
 10
244.04909864014701
 20
106.1447696095948
 30
0.0
 11
247.26273364014699
 21
102.55979860959479
 31
0.0
  0
LINE
  5
251
  8
0
 10
247.26273364014699
 20
102.55979860959479
 30
0.0
 11
247.27596064014699
 21
101.8399416095949
 31
0.0
  0
LINE
  5
252
  8
0
 10
247.27596064014699
 20
101.8399416095949
 30
0.0
 11
246.35262564014701
 21
100.91660660959479
 31
0.0
  0
LINE
  5
253
  8
0
 10
246.35262564014701
 20
100.91660660959479
 30
0.0
 11
245.63276864014699
 21
100.92983360959489
 31
0.0
  0
LINE
  5
254
  8
0
 10
245.63276864014699
 20
100.92983360959489
 30
0.0
 11
242.047797640147
 21
104.14346860959481
 31
0.0
  0
LINE
  5
255
  8
0
 10
242.047797640147
 20
104.14346860959481
 30
0.0
 11
239.56357064014699
 21
105.1598666095948
 31
0.0
  0
LINE
  5
256
  8
0
 10
239.56357064014699
 20
105.1598666095948
 30
0.0
 11
239.131955640147
 21
105.6551686095948
 31
0.0
  0
LINE
  5
257
  8
0
 10
251.352315640147
 20
100.1606116095948
 30
0.0
 11
249.300542640147
 21
100.8494816095949
 31
0.0
  0
LINE
  5
258
  8
0
 10
249.300542640147
 20
100.8494816095949
 30
0.0
 11
248.908431640147
 21
101.15205660959479
 31
0.0
  0
LINE
  5
259
  8
0
 10
248.908431640147
 20
101.15205660959479
 30
0.0
 11
248.245720640147
 21
101.1126446095948
 31
0.0
  0
LINE
  5
25A
  8
0
 10
248.245720640147
 20
101.1126446095948
 30
0.0
 11
247.06025164014699
 21
99.927175609594869
 31
0.0
  0
LINE
  5
25B
  8
0
 10
247.06025164014699
 20
99.927175609594869
 30
0.0
 11
247.05715764014701
 21
99.223189609594854
 31
0.0
  0
LINE
  5
25C
  8
0
 10
247.05715764014701
 20
99.223189609594854
 30
0.0
 11
248.031955640147
 21
96.840251609594873
 31
0.0
  0
LINE
  5
25D
  8
0
 10
248.031955640147
 20
96.840251609594873
 30
0.0
 11
248.031955640147
 21
93.460611609594878
 31
0.0
  0
LINE
  5
25E
  8
0
 10
248.031955640147
 20
93.460611609594878
 30
0.0
 11
248.531955640147
 21
92.960611609594864
 31
0.0
  0
LINE
  5
25F
  8
0
 10
248.531955640147
 20
92.960611609594864
 30
0.0
 11
252.171457640147
 21
92.960611609594864
 31
0.0
  0
LINE
  5
260
  8
0
 10
252.171457640147
 20
92.960611609594864
 30
0.0
 11
255.23195564014699
 21
95.51950660959487
 31
0.0
  0
LINE
  5
261
  8
0
 10
255.23195564014699
 20
95.51950660959487
 30
0.0
 11
255.23195564014699
 21
99.660611609594866
 31
0.0
  0
LINE
  5
262
  8
0
 10
255.23195564014699
 20
99.660611609594866
 30
0.0
 11
254.73195564014699
 21
100.1606116095948
 31
0.0
  0
LINE
  5
263
  8
0
 10
254.73195564014699
 20
100.1606116095948
 30
0.0
 11
251.352315640147
 21
100.1606116095948
 31
0.0
  0
LINE
  5
264
  8
0
 10
186.91128564014701
 20
100.91660660959479
 30
0.0
 11
187.631142640147
 21
100.92983360959489
 31
0.0
  0
LINE
  5
265
  8
0
 10
187.631142640147
 20
100.92983360959489
 30
0.0
 11
191.216113640147
 21
104.14346860959481
 31
0.0
  0
LINE
  5
266
  8
0
 10
191.216113640147
 20
104.14346860959481
 30
0.0
 11
193.700340640147
 21
105.1598666095948
 31
0.0
  0
LINE
  5
267
  8
0
 10
193.700340640147
 20
105.1598666095948
 30
0.0
 11
194.131955640147
 21
105.6551686095948
 31
0.0
  0
LINE
  5
268
  8
0
 10
194.131955640147
 20
105.6551686095948
 30
0.0
 11
194.131955640147
 21
106.95083960959489
 31
0.0
  0
LINE
  5
269
  8
0
 10
194.131955640147
 20
106.95083960959489
 30
0.0
 11
193.904682640147
 21
107.3699096095948
 31
0.0
  0
LINE
  5
26A
  8
0
 10
193.904682640147
 20
107.3699096095948
 30
0.0
 11
192.44125364014701
 21
108.8333386095948
 31
0.0
  0
LINE
  5
26B
  8
0
 10
192.44125364014701
 20
108.8333386095948
 30
0.0
 11
192.02218364014701
 21
109.0606116095949
 31
0.0
  0
LINE
  5
26C
  8
0
 10
192.02218364014701
 20
109.0606116095949
 30
0.0
 11
190.72651264014701
 21
109.0606116095949
 31
0.0
  0
LINE
  5
26D
  8
0
 10
190.72651264014701
 20
109.0606116095949
 30
0.0
 11
190.231210640147
 21
108.62899660959491
 31
0.0
  0
LINE
  5
26E
  8
0
 10
190.231210640147
 20
108.62899660959491
 30
0.0
 11
189.21481264014699
 21
106.1447696095948
 31
0.0
  0
LINE
  5
26F
  8
0
 10
189.21481264014699
 20
106.1447696095948
 30
0.0
 11
186.00117764014701
 21
102.55979860959479
 31
0.0
  0
LINE
  5
270
  8
0
 10
186.00117764014701
 20
102.55979860959479
 30
0.0
 11
185.98795064014701
 21
101.8399416095949
 31
0.0
  0
LINE
  5
271
  8
0
 10
185.98795064014701
 20
101.8399416095949
 30
0.0
 11
186.91128564014701
 21
100.91660660959479
 31
0.0
  0
LINE
  5
272
  8
0
 10
185.23195564014699
 20
93.460611609594878
 30
0.0
 11
185.23195564014699
 21
96.840251609594873
 31
0.0
  0
LINE
  5
273
  8
0
 10
185.23195564014699
 20
96.840251609594873
 30
0.0
 11
185.920825640147
 21
98.892024609594884
 31
0.0
  0
LINE
  5
274
  8
0
 10
185.920825640147
 20
98.892024609594884
 30
0.0
 11
186.22340064014699
 21
99.28413560959487
 31
0.0
  0
LINE
  5
275
  8
0
 10
186.22340064014699
 20
99.28413560959487
 30
0.0
 11
186.18398864014699
 21
99.946846609594871
 31
0.0
  0
LINE
  5
276
  8
0
 10
186.18398864014699
 20
99.946846609594871
 30
0.0
 11
184.99851964014701
 21
101.1323156095949
 31
0.0
  0
LINE
  5
277
  8
0
 10
184.99851964014701
 20
101.1323156095949
 30
0.0
 11
184.29453364014699
 21
101.1354096095949
 31
0.0
  0
LINE
  5
278
  8
0
 10
184.29453364014699
 20
101.1354096095949
 30
0.0
 11
181.911595640147
 21
100.1606116095948
 31
0.0
  0
LINE
  5
279
  8
0
 10
181.911595640147
 20
100.1606116095948
 30
0.0
 11
178.531955640147
 21
100.1606116095948
 31
0.0
  0
LINE
  5
27A
  8
0
 10
178.531955640147
 20
100.1606116095948
 30
0.0
 11
178.031955640147
 21
99.660611609594866
 31
0.0
  0
LINE
  5
27B
  8
0
 10
178.031955640147
 20
99.660611609594866
 30
0.0
 11
178.031955640147
 21
96.021109609594873
 31
0.0
  0
LINE
  5
27C
  8
0
 10
178.031955640147
 20
96.021109609594873
 30
0.0
 11
180.59085064014701
 21
92.960611609594864
 31
0.0
  0
LINE
  5
27D
  8
0
 10
180.59085064014701
 20
92.960611609594864
 30
0.0
 11
184.73195564014699
 21
92.960611609594864
 31
0.0
  0
LINE
  5
27E
  8
0
 10
184.73195564014699
 20
92.960611609594864
 30
0.0
 11
185.23195564014699
 21
93.460611609594878
 31
0.0
  0
ARC
  5
27F
  8
0
 10
199.6335121934944
 20
146.86356134194159
 30
0.0
 40
0.4999999527082446
 50
44.999985495958292
 51
180.21127666282419
  0
LINE
  5
280
  8
0
 10
199.98706564014699
 20
147.2171146095948
 30
0.0
 11
210.902656640147
 21
136.30152360959491
 31
0.0
  0
ARC
  5
281
  8
0
 10
210.54910427731451
 20
135.94796969184731
 30
0.0
 40
0.4999996460189444
 50
324.1983820058382
 51
45.000125992467503
  0
ARC
  5
282
  8
0
 10
216.6319502851031
 20
131.56061102963781
 30
0.0
 40
6.9999957930022871
 50
144.1983114582014
 51
215.78457266809369
  0
ARC
  5
283
  8
0
 10
210.5477942236424
 20
127.17506883001271
 30
0.0
 40
0.4999998979899442
 50
315.0000158886113
 51
35.784601617937227
  0
LINE
  5
284
  8
0
 10
210.90134764014701
 20
126.8215156095948
 30
0.0
 11
199.985508640147
 21
115.90567660959481
 31
0.0
  0
ARC
  5
285
  8
0
 10
199.63195546737589
 20
116.2592299736757
 30
0.0
 40
0.4999998272293393
 50
179.99992712900629
 51
314.99998449845731
  0
LINE
  5
286
  8
0
 10
199.131955640147
 20
116.25923060959489
 30
0.0
 11
199.131955640147
 21
116.2606116095949
 31
0.0
  0
ARC
  5
287
  8
0
 10
198.83195586426959
 20
116.26061183371741
 30
0.0
 40
0.2999997758775221
 50
359.99995719571371
 51
90.000042804287659
  0
LINE
  5
288
  8
0
 10
198.83195564014699
 20
116.5606116095948
 30
0.0
 11
194.43195564014701
 21
116.5606116095948
 31
0.0
  0
ARC
  5
289
  8
0
 10
194.43195541602441
 20
116.26061183371741
 30
0.0
 40
0.2999997758775292
 50
89.999957195712327
 51
180.00004280428629
  0
LINE
  5
28A
  8
0
 10
194.131955640147
 20
116.2606116095949
 30
0.0
 11
194.131955640147
 21
116.17038360959479
 31
0.0
  0
ARC
  5
28B
  8
0
 10
193.6319560285973
 20
116.1703837790206
 30
0.0
 40
0.4999996115497683
 50
303.0556697225976
 51
359.99998058522527
  0
ARC
  5
28C
  8
0
 10
196.63195135014431
 20
111.5606168555049
 30
0.0
 40
4.9999933901226941
 50
123.0557255194674
 51
135.00000774558089
  0
ARC
  5
28D
  8
0
 10
196.6319503942369
 20
111.56061589959749
 30
0.0
 40
4.9999933901226843
 50
134.999992254419
 51
146.9442744805325
  0
ARC
  5
28E
  8
0
 10
192.0221834707213
 20
114.5606112211446
 30
0.0
 40
0.4999996115497733
 50
270.00001941477382
 51
326.94433027740172
  0
LINE
  5
28F
  8
0
 10
192.02218364014701
 20
114.0606116095948
 30
0.0
 11
191.33167164014699
 21
114.0606116095948
 31
0.0
  0
ARC
  5
290
  8
0
 10
191.33167111330329
 20
114.5606110341393
 30
0.0
 40
0.4999994245447757
 50
187.13138283811011
 51
270.00006037190627
  0
ARC
  5
291
  8
0
 10
184.8819371144086
 20
113.75366246667041
 30
0.0
 40
6.0000186252023964
 50
7.1314201674082058
 51
36.641866268289107
  0
ARC
  5
292
  8
0
 10
168.0318934732376
 20
101.22054603677211
 30
0.0
 40
27.000089533518558
 50
36.641961519445481
 51
52.881686170994392
  0
ARC
  5
293
  8
0
 10
181.91159336413261
 20
119.5606068592821
 30
0.0
 40
4.0000047503134066
 50
52.881725087789619
 51
89.999967398534736
  0
LINE
  5
294
  8
0
 10
181.911595640147
 20
123.5606116095949
 30
0.0
 11
181.131955640147
 21
123.5606116095949
 31
0.0
  0
ARC
  5
295
  8
0
 10
181.1319537724591
 20
126.0606097419069
 30
0.0
 40
2.4999981323127409
 50
179.99995719571311
 51
270.00004280428692
  0
LINE
  5
296
  8
0
 10
178.631955640147
 20
126.0606116095948
 30
0.0
 11
178.631955640147
 21
137.0606116095949
 31
0.0
  0
ARC
  5
297
  8
0
 10
181.1319537724591
 20
137.0606134772828
 30
0.0
 40
2.4999981323127409
 50
89.999957195713066
 51
180.00004280428689
  0
LINE
  5
298
  8
0
 10
181.131955640147
 20
139.56061160959479
 30
0.0
 11
181.911595640147
 21
139.56061160959479
 31
0.0
  0
ARC
  5
299
  8
0
 10
181.91159336413261
 20
143.56061635990761
 30
0.0
 40
4.0000047503134164
 50
270.00003260146519
 51
307.11827491221032
  0
ARC
  5
29A
  8
0
 10
168.0318934732376
 20
161.90067718241761
 30
0.0
 40
27.000089533518558
 50
307.11831382900561
 51
323.35803848055451
  0
ARC
  5
29B
  8
0
 10
184.8819371144086
 20
149.3675607525193
 30
0.0
 40
6.000018625202399
 50
323.35813373171078
 51
352.86857983259182
  0
ARC
  5
29C
  8
0
 10
191.33167111330329
 20
148.5606121850503
 30
0.0
 40
0.4999994245447803
 50
89.999939628093713
 51
172.8686171618898
  0
LINE
  5
29D
  8
0
 10
191.33167164014699
 20
149.06061160959479
 30
0.0
 11
192.02218364014701
 21
149.06061160959479
 31
0.0
  0
ARC
  5
29E
  8
0
 10
192.0221834707213
 20
148.56061199804509
 30
0.0
 40
0.4999996115497683
 50
33.055669722597628
 51
89.999980585226126
  0
ARC
  5
29F
  8
0
 10
196.63195039423701
 20
151.56060731959209
 30
0.0
 40
4.9999933901227394
 50
213.0557255194669
 51
225.00000774558049
  0
ARC
  5
2A0
  8
0
 10
196.6319471768048
 20
151.56060059293199
 30
0.0
 40
4.9999863585879121
 50
224.99997931077729
 51
238.4702689021972
  0
ARC
  5
2A1
  8
0
 10
193.8603672637295
 20
147.04305706598771
 30
0.0
 40
0.2999999369037449
 50
342.29748254259999
 51
58.470239954233421
  0
ARC
  5
2A2
  8
0
 10
194.43195582659709
 20
146.8606115491915
 30
0.0
 40
0.2999999395967298
 50
162.29736161530531
 51
269.99996439063972
  0
LINE
  5
2A3
  8
0
 10
194.43195564014701
 20
146.5606116095949
 30
0.0
 11
198.83351764014699
 21
146.5606116095949
 31
0.0
  0
ARC
  5
2A4
  8
0
 10
198.8335178642696
 20
146.86061138547231
 30
0.0
 40
0.2999997758775221
 50
269.99995719571228
 51
0.0000428042876751
  0
LINE
  5
2A5
  8
0
 10
199.13351764014701
 20
146.86061160959491
 30
0.0
 11
199.13351764014701
 21
146.86589260959491
 31
0.0
  0
LINE
  5
2A6
  8
0
 10
199.13351764014701
 20
146.86589260959491
 30
0.0
 11
199.13351764014701
 21
146.86061160959491
 31
0.0
  0
ARC
  5
2A7
  8
0
 10
201.32900590780031
 20
114.5621681629422
 30
0.0
 40
0.4999999527082446
 50
134.99998549595821
 51
270.21127666282422
  0
LINE
  5
2A8
  8
0
 10
200.97545264014701
 20
114.9157216095948
 30
0.0
 11
211.89104364014699
 21
125.8313126095949
 31
0.0
  0
ARC
  5
2A9
  8
0
 10
212.24459755789451
 20
125.4777602467623
 30
0.0
 40
0.4999996460189343
 50
54.198382005837679
 51
135.0001259924675
  0
ARC
  5
2AA
  8
0
 10
216.631956220104
 20
131.56060625455089
 30
0.0
 40
6.9999957930022934
 50
234.19831145820149
 51
305.78457266809357
  0
ARC
  5
2AB
  8
0
 10
221.01749841972909
 20
125.4764501930902
 30
0.0
 40
0.4999998979899499
 50
45.00001588861187
 51
125.7846016179367
  0
LINE
  5
2AC
  8
0
 10
221.37105164014699
 20
125.8300036095949
 30
0.0
 11
232.28689064014699
 21
114.91416460959481
 31
0.0
  0
ARC
  5
2AD
  8
0
 10
231.9333372760662
 20
114.56061143682381
 30
0.0
 40
0.4999998272293293
 50
269.99992712900632
 51
44.999984498458417
  0
LINE
  5
2AE
  8
0
 10
231.93333664014699
 20
114.0606116095948
 30
0.0
 11
231.93195564014701
 21
114.0606116095948
 31
0.0
  0
ARC
  5
2AF
  8
0
 10
231.93195541602441
 20
113.76061183371741
 30
0.0
 40
0.2999997758775292
 50
89.999957195712327
 51
180.00004280428629
  0
LINE
  5
2B0
  8
0
 10
231.631955640147
 20
113.7606116095948
 30
0.0
 11
231.631955640147
 21
109.3606116095948
 31
0.0
  0
ARC
  5
2B1
  8
0
 10
231.93195541602441
 20
109.3606113854723
 30
0.0
 40
0.2999997758775221
 50
179.99995719571371
 51
270.00004280428772
  0
LINE
  5
2B2
  8
0
 10
231.93195564014701
 20
109.0606116095949
 30
0.0
 11
232.02218364014701
 21
109.0606116095949
 31
0.0
  0
ARC
  5
2B3
  8
0
 10
232.0221834707213
 20
108.5606119980451
 30
0.0
 40
0.4999996115497754
 50
33.05566972259831
 51
89.999980585226126
  0
ARC
  5
2B4
  8
0
 10
236.63195039423701
 20
111.56060731959219
 30
0.0
 40
4.9999933901226843
 50
213.05572551946739
 51
225.00000774558089
  0
ARC
  5
2B5
  8
0
 10
236.63195135014431
 20
111.5606063636848
 30
0.0
 40
4.9999933901226843
 50
224.9999922544192
 51
236.9442744805327
  0
ARC
  5
2B6
  8
0
 10
233.6319560285973
 20
106.9508394401691
 30
0.0
 40
0.4999996115497695
 50
0.0000194147746793
 51
56.944330277402379
  0
LINE
  5
2B7
  8
0
 10
234.131955640147
 20
106.95083960959489
 30
0.0
 11
234.131955640147
 21
106.2603276095948
 31
0.0
  0
ARC
  5
2B8
  8
0
 10
233.63195621560249
 20
106.2603270827512
 30
0.0
 40
0.4999994245447757
 50
277.1313828381102
 51
0.0000603719062813
  0
ARC
  5
2B9
  8
0
 10
234.43890478307151
 20
99.810593083856574
 30
0.0
 40
6.0000186252023813
 50
97.131420167408365
 51
126.64186626828931
  0
ARC
  5
2BA
  8
0
 10
246.97202121296971
 20
82.960549442685476
 30
0.0
 40
27.000089533518601
 50
126.6419615194454
 51
142.88168617099441
  0
ARC
  5
2BB
  8
0
 10
228.6319603904598
 20
96.84024933358053
 30
0.0
 40
4.0000047503134146
 50
142.88172508778959
 51
179.99996739853469
  0
LINE
  5
2BC
  8
0
 10
224.631955640147
 20
96.840251609594873
 30
0.0
 11
224.631955640147
 21
96.060611609594872
 31
0.0
  0
ARC
  5
2BD
  8
0
 10
222.13195750783501
 20
96.060609741906916
 30
0.0
 40
2.4999981323127409
 50
269.99995719571308
 51
0.0000428042869966
  0
LINE
  5
2BE
  8
0
 10
222.131955640147
 20
93.560611609594872
 30
0.0
 11
211.131955640147
 21
93.560611609594872
 31
0.0
  0
ARC
  5
2BF
  8
0
 10
211.1319537724591
 20
96.060609741906916
 30
0.0
 40
2.4999981323127369
 50
179.99995719571299
 51
270.00004280428692
  0
LINE
  5
2C0
  8
0
 10
208.631955640147
 20
96.060611609594872
 30
0.0
 11
208.631955640147
 21
96.840251609594873
 31
0.0
  0
ARC
  5
2C1
  8
0
 10
204.63195088983429
 20
96.84024933358053
 30
0.0
 40
4.0000047503134164
 50
0.0000326014653158
 51
37.11827491221036
  0
ARC
  5
2C2
  8
0
 10
186.29189006732429
 20
82.960549442685476
 30
0.0
 40
27.000089533518601
 50
37.118313829005629
 51
53.358038480554548
  0
ARC
  5
2C3
  8
0
 10
198.8250064972226
 20
99.810593083856574
 30
0.0
 40
6.000018625202383
 50
53.358133731710701
 51
82.868579832591635
  0
ARC
  5
2C4
  8
0
 10
199.63195506469151
 20
106.2603270827512
 30
0.0
 40
0.4999994245447803
 50
179.9999396280937
 51
262.86861716188992
  0
LINE
  5
2C5
  8
0
 10
199.131955640147
 20
106.2603276095948
 30
0.0
 11
199.131955640147
 21
106.95083960959489
 31
0.0
  0
ARC
  5
2C6
  8
0
 10
199.6319552516967
 20
106.9508394401691
 30
0.0
 40
0.4999996115497683
 50
123.0556697225976
 51
179.9999805852253
  0
ARC
  5
2C7
  8
0
 10
196.63195993014969
 20
111.5606063636848
 30
0.0
 40
4.9999933901226941
 50
303.0557255194675
 51
315.000007745581
  0
ARC
  5
2C8
  8
0
 10
196.63196665680979
 20
111.5606031462528
 30
0.0
 40
4.9999863585879529
 50
314.99997931077689
 51
328.47026890219672
  0
ARC
  5
2C9
  8
0
 10
201.1495101837541
 20
108.7890232331773
 30
0.0
 40
0.2999999369037412
 50
72.297482542599553
 51
148.47023995423459
  0
ARC
  5
2CA
  8
0
 10
201.3319557005504
 20
109.36061179604501
 30
0.0
 40
0.299999939596723
 50
252.29736161530491
 51
359.99996439064103
  0
LINE
  5
2CB
  8
0
 10
201.631955640147
 20
109.3606116095948
 30
0.0
 11
201.631955640147
 21
113.7621736095948
 31
0.0
  0
ARC
  5
2CC
  8
0
 10
201.33195586426959
 20
113.7621738337174
 30
0.0
 40
0.2999997758775221
 50
359.99995719571371
 51
90.000042804287659
  0
LINE
  5
2CD
  8
0
 10
201.33195564014699
 20
114.06217360959479
 30
0.0
 11
201.32667464014699
 21
114.06217360959479
 31
0.0
  0
LINE
  5
2CE
  8
0
 10
201.32667464014699
 20
114.06217360959479
 30
0.0
 11
201.33195564014699
 21
114.06217360959479
 31
0.0
  0
ARC
  5
2CF
  8
0
 10
233.6303990867996
 20
116.2576618772481
 30
0.0
 40
0.4999999527082447
 50
224.99998549595821
 51
0.2112766628249867
  0
LINE
  5
2D0
  8
0
 10
233.276845640147
 20
115.9041086095949
 30
0.0
 11
222.361254640147
 21
126.81969960959481
 31
0.0
  0
ARC
  5
2D1
  8
0
 10
222.71480700297951
 20
127.1732535273424
 30
0.0
 40
0.4999996460189493
 50
144.19838200583811
 51
225.0001259924681
  0
ARC
  5
2D2
  8
0
 10
216.63196099519101
 20
131.5606121895519
 30
0.0
 40
6.9999957930022871
 50
324.19831145820137
 51
35.784572668093638
  0
ARC
  5
2D3
  8
0
 10
222.71611705665171
 20
135.946154389177
 30
0.0
 40
0.4999998979899442
 50
135.0000158886113
 51
215.7846016179372
  0
LINE
  5
2D4
  8
0
 10
222.36256364014699
 20
136.2997076095948
 30
0.0
 11
233.27840264014699
 21
147.21554660959481
 31
0.0
  0
ARC
  5
2D5
  8
0
 10
233.63195581291811
 20
146.86199324551399
 30
0.0
 40
0.4999998272293393
 50
359.99992712900632
 51
134.99998449845731
  0
LINE
  5
2D6
  8
0
 10
234.131955640147
 20
146.86199260959481
 30
0.0
 11
234.131955640147
 21
146.86061160959491
 31
0.0
  0
ARC
  5
2D7
  8
0
 10
234.43195541602449
 20
146.86061138547231
 30
0.0
 40
0.2999997758775363
 50
179.99995719571231
 51
270.00004280428487
  0
LINE
  5
2D8
  8
0
 10
234.43195564014701
 20
146.5606116095949
 30
0.0
 11
238.83195564014699
 21
146.5606116095949
 31
0.0
  0
ARC
  5
2D9
  8
0
 10
238.83195586426959
 20
146.86061138547231
 30
0.0
 40
0.2999997758775363
 50
269.99995719570961
 51
0.0000428042849611
  0
LINE
  5
2DA
  8
0
 10
239.131955640147
 20
146.86061160959491
 30
0.0
 11
239.131955640147
 21
146.95083960959491
 31
0.0
  0
ARC
  5
2DB
  8
0
 10
239.6319552516967
 20
146.9508394401692
 30
0.0
 40
0.4999996115497541
 50
123.0556697226008
 51
179.99998058522769
  0
ARC
  5
2DC
  8
0
 10
236.6319599301498
 20
151.56060636368491
 30
0.0
 40
4.9999933901227012
 50
303.05572551946619
 51
315.00000774557981
  0
ARC
  5
2DD
  8
0
 10
236.63196088605699
 20
151.56060731959209
 30
0.0
 40
4.99999339012275
 50
314.99999225441968
 51
326.94427448053318
  0
ARC
  5
2DE
  8
0
 10
241.24172780957269
 20
148.56061199804509
 30
0.0
 40
0.4999996115497695
 50
90.000019414773874
 51
146.94433027740229
  0
LINE
  5
2DF
  8
0
 10
241.24172764014699
 20
149.06061160959479
 30
0.0
 11
241.932239640147
 21
149.06061160959479
 31
0.0
  0
ARC
  5
2E0
  8
0
 10
241.93224016699071
 20
148.5606121850503
 30
0.0
 40
0.4999994245447899
 50
7.1313828381117608
 51
90.000060371907907
  0
ARC
  5
2E1
  8
0
 10
248.38197416588531
 20
149.3675607525193
 30
0.0
 40
6.0000186252023964
 50
187.13142016740809
 51
216.64186626828919
  0
ARC
  5
2E2
  8
0
 10
265.23201780705642
 20
161.9006771824175
 30
0.0
 40
27.000089533518519
 50
216.6419615194454
 51
232.8816861709943
  0
ARC
  5
2E3
  8
0
 10
251.35231791616141
 20
143.56061635990761
 30
0.0
 40
4.0000047503134217
 50
232.8817250877895
 51
269.99996739853452
  0
LINE
  5
2E4
  8
0
 10
251.352315640147
 20
139.56061160959479
 30
0.0
 11
252.131955640147
 21
139.56061160959479
 31
0.0
  0
ARC
  5
2E5
  8
0
 10
252.13195750783501
 20
137.0606134772828
 30
0.0
 40
2.4999981323127409
 50
359.99995719571308
 51
90.000042804286906
  0
LINE
  5
2E6
  8
0
 10
254.631955640147
 20
137.0606116095949
 30
0.0
 11
254.631955640147
 21
126.0606116095948
 31
0.0
  0
ARC
  5
2E7
  8
0
 10
252.13195750783501
 20
126.0606097419069
 30
0.0
 40
2.4999981323127409
 50
269.99995719571308
 51
0.0000428042869152
  0
LINE
  5
2E8
  8
0
 10
252.131955640147
 20
123.5606116095949
 30
0.0
 11
251.352315640147
 21
123.5606116095949
 31
0.0
  0
ARC
  5
2E9
  8
0
 10
251.35231791616141
 20
119.5606068592821
 30
0.0
 40
4.0000047503134093
 50
90.000032601465463
 51
127.1182749122105
  0
ARC
  5
2EA
  8
0
 10
265.23201780705642
 20
101.22054603677221
 30
0.0
 40
27.00008953351854
 50
127.1183138290057
 51
143.3580384805546
  0
ARC
  5
2EB
  8
0
 10
248.38197416588531
 20
113.75366246667041
 30
0.0
 40
6.0000186252023946
 50
143.35813373171089
 51
172.86857983259179
  0
ARC
  5
2EC
  8
0
 10
241.93224016699071
 20
114.5606110341394
 30
0.0
 40
0.4999994245447812
 50
269.99993962809208
 51
352.86861716188912
  0
LINE
  5
2ED
  8
0
 10
241.932239640147
 20
114.0606116095948
 30
0.0
 11
241.24172764014699
 21
114.0606116095948
 31
0.0
  0
ARC
  5
2EE
  8
0
 10
241.24172780957269
 20
114.5606112211446
 30
0.0
 40
0.4999996115497754
 50
213.05566972259831
 51
269.99998058522613
  0
ARC
  5
2EF
  8
0
 10
236.6319608860571
 20
111.56061589959749
 30
0.0
 40
4.9999933901226843
 50
33.055725519467408
 51
45.000007745580938
  0
ARC
  5
2F0
  8
0
 10
236.63196410348911
 20
111.5606226262577
 30
0.0
 40
4.9999863585879476
 50
44.999979310776823
 51
58.470268902196658
  0
ARC
  5
2F1
  8
0
 10
239.4035440165645
 20
116.07816615320191
 30
0.0
 40
0.2999999369037328
 50
162.29748254259661
 51
238.470239954232
  0
ARC
  5
2F2
  8
0
 10
238.83195545369691
 20
116.2606116699982
 30
0.0
 40
0.2999999395967433
 50
342.29736161530622
 51
89.999964390639676
  0
LINE
  5
2F3
  8
0
 10
238.83195564014699
 20
116.5606116095948
 30
0.0
 11
234.430393640147
 21
116.5606116095948
 31
0.0
  0
ARC
  5
2F4
  8
0
 10
234.43039341602449
 20
116.26061183371741
 30
0.0
 40
0.2999997758775221
 50
89.999957195715027
 51
180.0000428042876
  0
LINE
  5
2F5
  8
0
 10
234.13039364014699
 20
116.2606116095949
 30
0.0
 11
234.13039364014699
 21
116.25533060959479
 31
0.0
  0
LINE
  5
2F6
  8
0
 10
234.13039364014699
 20
116.25533060959479
 30
0.0
 11
234.13039364014699
 21
116.2606116095949
 31
0.0
  0
ARC
  5
2F7
  8
0
 10
231.93490537249369
 20
148.55905505624739
 30
0.0
 40
0.4999999527082447
 50
314.99998549595819
 51
90.211276662825796
  0
LINE
  5
2F8
  8
0
 10
232.28845864014701
 20
148.20550160959479
 30
0.0
 11
221.37286764014701
 21
137.2899106095949
 31
0.0
  0
ARC
  5
2F9
  8
0
 10
221.01931372239949
 20
137.64346297242739
 30
0.0
 40
0.4999996460189343
 50
234.19838200583769
 51
315.00012599246747
  0
ARC
  5
2FA
  8
0
 10
216.63195506018999
 20
131.5606169646388
 30
0.0
 40
6.9999957930022934
 50
54.198311458201502
 51
125.7845726680936
  0
ARC
  5
2FB
  8
0
 10
212.2464128605649
 20
137.6447730260995
 30
0.0
 40
0.4999998979899556
 50
225.0000158886119
 51
305.78460161793629
  0
LINE
  5
2FC
  8
0
 10
211.89285964014701
 20
137.2912196095948
 30
0.0
 11
200.977020640147
 21
148.20705860959481
 31
0.0
  0
ARC
  5
2FD
  8
0
 10
201.3305740042278
 20
148.5606117823659
 30
0.0
 40
0.4999998272293393
 50
89.999927129007986
 51
224.99998449845731
  0
LINE
  5
2FE
  8
0
 10
201.33057464014701
 20
149.06061160959479
 30
0.0
 11
201.33195564014699
 21
149.06061160959479
 31
0.0
  0
ARC
  5
2FF
  8
0
 10
201.33195586426959
 20
149.36061138547231
 30
0.0
 40
0.2999997758775221
 50
269.99995719571228
 51
0.0000428042876751
  0
LINE
  5
300
  8
0
 10
201.631955640147
 20
149.36061160959491
 30
0.0
 11
201.631955640147
 21
153.7606116095948
 31
0.0
  0
ARC
  5
301
  8
0
 10
201.33195586426959
 20
153.76061183371741
 30
0.0
 40
0.2999997758775221
 50
359.99995719571228
 51
90.000042804287659
  0
LINE
  5
302
  8
0
 10
201.33195564014699
 20
154.0606116095949
 30
0.0
 11
201.24172764014699
 21
154.0606116095949
 31
0.0
  0
ARC
  5
303
  8
0
 10
201.24172780957269
 20
154.5606112211446
 30
0.0
 40
0.4999996115497683
 50
213.0556697225976
 51
269.99998058522613
  0
ARC
  5
304
  8
0
 10
196.63196088605699
 20
151.56061589959759
 30
0.0
 40
4.9999933901227394
 50
33.055725519466897
 51
45.000007745580419
  0
ARC
  5
305
  8
0
 10
196.6319599301498
 20
151.56061685550489
 30
0.0
 40
4.9999933901226479
 50
44.999992254419681
 51
56.944274480533203
  0
ARC
  5
306
  8
0
 10
199.6319552516967
 20
156.1703837790206
 30
0.0
 40
0.4999996115497617
 50
180.00001941477549
 51
236.94433027740371
  0
LINE
  5
307
  8
0
 10
199.131955640147
 20
156.17038360959481
 30
0.0
 11
199.131955640147
 21
156.86089560959491
 31
0.0
  0
ARC
  5
308
  8
0
 10
199.63195506469151
 20
156.8608961364385
 30
0.0
 40
0.4999994245447757
 50
97.131382838110355
 51
180.0000603719063
  0
ARC
  5
309
  8
0
 10
198.8250064972226
 20
163.31063013533321
 30
0.0
 40
6.0000186252023857
 50
277.13142016740852
 51
306.64186626828939
  0
ARC
  5
30A
  8
0
 10
186.29189006732429
 20
180.16067377650421
 30
0.0
 40
27.00008953351858
 50
306.64196151944537
 51
322.88168617099439
  0
ARC
  5
30B
  8
0
 10
204.63195088983429
 20
166.2809738856092
 30
0.0
 40
4.0000047503134128
 50
322.88172508778968
 51
359.99996739853469
  0
LINE
  5
30C
  8
0
 10
208.631955640147
 20
166.28097160959479
 30
0.0
 11
208.631955640147
 21
167.06061160959479
 31
0.0
  0
ARC
  5
30D
  8
0
 10
211.1319537724591
 20
167.0606134772828
 30
0.0
 40
2.4999981323127409
 50
89.999957195713066
 51
180.00004280428689
  0
LINE
  5
30E
  8
0
 10
211.131955640147
 20
169.5606116095949
 30
0.0
 11
222.131955640147
 21
169.5606116095949
 31
0.0
  0
ARC
  5
30F
  8
0
 10
222.13195750783501
 20
167.0606134772828
 30
0.0
 40
2.4999981323127409
 50
359.99995719571308
 51
90.000042804286906
  0
LINE
  5
310
  8
0
 10
224.631955640147
 20
167.06061160959479
 30
0.0
 11
224.631955640147
 21
166.28097160959479
 31
0.0
  0
ARC
  5
311
  8
0
 10
228.6319603904598
 20
166.2809738856092
 30
0.0
 40
4.0000047503134164
 50
180.00003260146519
 51
217.1182749122103
  0
ARC
  5
312
  8
0
 10
246.97202121296971
 20
180.16067377650421
 30
0.0
 40
27.00008953351858
 50
217.11831382900559
 51
233.3580384805546
  0
ARC
  5
313
  8
0
 10
234.43890478307151
 20
163.31063013533321
 30
0.0
 40
6.0000186252023928
 50
233.3581337317105
 51
262.86857983259142
  0
ARC
  5
314
  8
0
 10
233.63195621560249
 20
156.8608961364385
 30
0.0
 40
0.4999994245447662
 50
359.99993962809373
 51
82.868617161889645
  0
LINE
  5
315
  8
0
 10
234.131955640147
 20
156.86089560959491
 30
0.0
 11
234.131955640147
 21
156.17038360959481
 31
0.0
  0
ARC
  5
316
  8
0
 10
233.6319560285973
 20
156.1703837790206
 30
0.0
 40
0.4999996115497541
 50
303.05566972259618
 51
359.99998058522448
  0
ARC
  5
317
  8
0
 10
236.63195135014419
 20
151.56061685550489
 30
0.0
 40
4.9999933901226479
 50
123.0557255194668
 51
135.00000774558029
  0
ARC
  5
318
  8
0
 10
236.63194462348429
 20
151.5606200729369
 30
0.0
 40
4.9999863585880444
 50
134.99997931077669
 51
148.47026890219661
  0
ARC
  5
319
  8
0
 10
232.11440109653989
 20
154.3321999860124
 30
0.0
 40
0.2999999369037253
 50
252.2974825425992
 51
328.47023995423427
  0
ARC
  5
31A
  8
0
 10
231.93195557974369
 20
153.7606114231447
 30
0.0
 40
0.2999999395967298
 50
72.297361615305334
 51
179.99996439063969
  0
LINE
  5
31B
  8
0
 10
231.631955640147
 20
153.7606116095948
 30
0.0
 11
231.631955640147
 21
149.35904960959479
 31
0.0
  0
ARC
  5
31C
  8
0
 10
231.93195541602441
 20
149.3590493854723
 30
0.0
 40
0.2999997758775363
 50
179.99995719571231
 51
270.00004280428487
  0
LINE
  5
31D
  8
0
 10
231.93195564014701
 20
149.05904960959481
 30
0.0
 11
231.93723664014701
 21
149.05904960959481
 31
0.0
  0
LINE
  5
31E
  8
0
 10
231.93723664014701
 20
149.05904960959481
 30
0.0
 11
231.93195564014701
 21
149.05904960959481
 31
0.0
  0
LINE
  5
31F
  8
1
 10
216.631955640147
 20
176.5606116095949
 30
0.0
 11
216.631955640147
 21
86.560611609594858
 31
0.0
  0
LINE
  5
320
  8
1
 10
196.631955640147
 20
176.5606116095949
 30
0.0
 11
196.631955640147
 21
86.560611609594858
 31
0.0
  0
LINE
  5
321
  8
1
 10
236.631955640147
 20
176.5606116095949
 30
0.0
 11
236.631955640147
 21
86.560611609594858
 31
0.0
  0
LINE
  5
322
  8
1
 10
171.631955640147
 20
131.56061160959479
 30
0.0
 11
261.631955640147
 21
131.56061160959479
 31
0.0
  0
LINE
  5
323
  8
1
 10
171.631955640147
 20
151.5606116095949
 30
0.0
 11
261.631955640147
 21
151.5606116095949
 31
0.0
  0
LINE
  5
324
  8
1
 10
171.631955640147
 20
111.5606116095948
 30
0.0
 11
261.631955640147
 21
111.5606116095948
 31
0.0
  0
INSERT
  5
325
  8
0
  2
STDGX5
 10
0.0
 20
0.0
 30
0.0
  0
TEXT
  5
40B
  8
0
 62
     3
 10
0.0
 20
0.0
 30
0.0
 40
10.0
  1
SPE8080N-3M
  7
STANDARD1
  0
ENDSEC
  0
EOF
