  0
SECTION
  2
HEADER
  9
$ACADVER
  1
AC1009
  9
$INSBASE
 10
0.0
 20
0.0
 30
0.0
  9
$EXTMIN
 10
0.0
 20
-2.960436562073669
 30
0.0
  9
$EXTMAX
 10
219.82794800389189
 20
231.06673293462001
 30
0.0
  9
$LIMMIN
 10
0.0
 20
0.0
  9
$LIMMAX
 10
375.0
 20
270.0
  9
$ORTHOMODE
 70
     1
  9
$REGENMODE
 70
     1
  9
$FILLMODE
 70
     1
  9
$QTEXTMODE
 70
     0
  9
$MIRRTEXT
 70
     0
  9
$DRAGMODE
 70
     2
  9
$LTSCALE
 40
5.0
  9
$OSMODE
 70
    55
  9
$ATTMODE
 70
     1
  9
$TEXTSIZE
 40
4.000000000000048
  9
$TRACEWID
 40
0.05
  9
$TEXTSTYLE
  7
STANDARD
  9
$CLAYER
  8
0
  9
$CELTYPE
  6
BYLAYER
  9
$CECOLOR
 62
   256
  9
$DIMSCALE
 40
0.5
  9
$DIMASZ
 40
3.0
  9
$DIMEXO
 40
2.0
  9
$DIMDLI
 40
0.38
  9
$DIMRND
 40
0.0
  9
$DIMDLE
 40
0.0
  9
$DIMEXE
 40
2.0
  9
$DIMTP
 40
0.0
  9
$DIMTM
 40
0.0
  9
$DIMTXT
 40
3.2000000000000002
  9
$DIMCEN
 40
0.0
  9
$DIMTSZ
 40
0.0
  9
$DIMTOL
 70
     0
  9
$DIMLIM
 70
     0
  9
$DIMTIH
 70
     0
  9
$DIMTOH
 70
     0
  9
$DIMSE1
 70
     0
  9
$DIMSE2
 70
     0
  9
$DIMTAD
 70
     1
  9
$DIMZIN
 70
     0
  9
$DIMBLK
  1

  9
$DIMASO
 70
     0
  9
$DIMSHO
 70
     0
  9
$DIMPOST
  1

  9
$DIMAPOST
  1

  9
$DIMALT
 70
     0
  9
$DIMALTD
 70
     2
  9
$DIMALTF
 40
25.399999999999999
  9
$DIMLFAC
 40
1.0
  9
$DIMTOFL
 70
     0
  9
$DIMTVP
 40
1.6000000000000001
  9
$DIMTIX
 70
     1
  9
$DIMSOXD
 70
     0
  9
$DIMSAH
 70
     0
  9
$DIMBLK1
  1

  9
$DIMBLK2
  1

  9
$DIMSTYLE
  2
STANDARD
  9
$DIMCLRD
 70
     4
  9
$DIMCLRE
 70
     4
  9
$DIMCLRT
 70
     4
  9
$DIMTFAC
 40
1.0
  9
$DIMGAP
 40
0.09
  9
$LUNITS
 70
     2
  9
$LUPREC
 70
     1
  9
$SKETCHINC
 40
0.1
  9
$FILLETRAD
 40
0.0
  9
$AUNITS
 70
     0
  9
$AUPREC
 70
     0
  9
$MENU
  1
E:\r13\win\SUPPORT\ACAD
  9
$ELEVATION
 40
0.0
  9
$PELEVATION
 40
0.0
  9
$THICKNESS
 40
0.0
  9
$LIMCHECK
 70
     0
  9
$BLIPMODE
 70
     0
  9
$CHAMFERA
 40
1.1999999999999991
  9
$CHAMFERB
 40
1.1999999999999991
  9
$SKPOLY
 70
     0
  9
$TDCREATE
 40
2449982.691956019
  9
$TDUPDATE
 40
2456598.545204815
  9
$TDINDWG
 40
0.0028490394
  9
$TDUSRTIMER
 40
0.0028490394
  9
$USRTIMER
 70
     1
  9
$ANGBASE
 50
0.0
  9
$ANGDIR
 70
     0
  9
$PDMODE
 70
     0
  9
$PDSIZE
 40
0.0
  9
$PLINEWID
 40
0.0
  9
$COORDS
 70
     1
  9
$SPLFRAME
 70
     0
  9
$SPLINETYPE
 70
     6
  9
$SPLINESEGS
 70
     8
  9
$ATTDIA
 70
     0
  9
$ATTREQ
 70
     1
  9
$HANDLING
 70
     1
  9
$HANDSEED
  5
283
  9
$SURFTAB1
 70
     6
  9
$SURFTAB2
 70
     6
  9
$SURFTYPE
 70
     6
  9
$SURFU
 70
     6
  9
$SURFV
 70
     6
  9
$UCSNAME
  2

  9
$UCSORG
 10
0.0
 20
0.0
 30
0.0
  9
$UCSXDIR
 10
1.0
 20
0.0
 30
0.0
  9
$UCSYDIR
 10
0.0
 20
1.0
 30
0.0
  9
$PUCSNAME
  2

  9
$PUCSORG
 10
0.0
 20
0.0
 30
0.0
  9
$PUCSXDIR
 10
1.0
 20
0.0
 30
0.0
  9
$PUCSYDIR
 10
0.0
 20
1.0
 30
0.0
  9
$USERI1
 70
     0
  9
$USERI2
 70
     1
  9
$USERI3
 70
     0
  9
$USERI4
 70
     0
  9
$USERI5
 70
     0
  9
$USERR1
 40
0.0
  9
$USERR2
 40
0.0
  9
$USERR3
 40
0.0
  9
$USERR4
 40
0.0
  9
$USERR5
 40
0.0
  9
$WORLDVIEW
 70
     1
  9
$SHADEDGE
 70
     3
  9
$SHADEDIF
 70
    70
  9
$TILEMODE
 70
     1
  9
$MAXACTVP
 70
    16
  9
$PLIMCHECK
 70
     0
  9
$PEXTMIN
 10
1.0000000000000000E+020
 20
1.0000000000000000E+020
 30
1.0000000000000000E+020
  9
$PEXTMAX
 10
-1.0000000000000000E+020
 20
-1.0000000000000000E+020
 30
-1.0000000000000000E+020
  9
$PLIMMIN
 10
0.0
 20
0.0
  9
$PLIMMAX
 10
12.0
 20
9.0
  9
$UNITMODE
 70
     0
  9
$VISRETAIN
 70
     0
  9
$PLINEGEN
 70
     0
  9
$PSLTSCALE
 70
     0
  0
ENDSEC
  0
SECTION
  2
TABLES
  0
TABLE
  2
VPORT
 70
     1
  0
VPORT
  2
*ACTIVE
 70
     0
 10
0.0
 20
0.0
 11
1.0
 21
1.0
 12
187.49427839065231
 22
174.91677254346851
 13
0.0
 23
0.0
 14
5.0
 24
5.0
 15
5.0
 25
5.0
 16
0.0
 26
0.0
 36
1.0
 17
0.0
 27
0.0
 37
0.0
 40
358.92027899574339
 41
1.7807262569832401
 42
50.0
 43
0.0
 44
0.0
 50
0.0
 51
0.0
 71
     0
 72
   500
 73
     1
 74
     0
 75
     0
 76
     0
 77
     0
 78
     2
  0
ENDTAB
  0
TABLE
  2
LTYPE
 70
     3
  0
LTYPE
  2
CONTINUOUS
 70
     0
  3
Solid Line
 72
    65
 73
     0
 40
0.0
  0
LTYPE
  2
CENTER
 70
     0
  3
____ _ ____ _ ____ _ ____ _ ____ _ ____ _ ____
 72
    65
 73
     4
 40
2.0
 49
1.25
 49
-0.25
 49
0.25
 49
-0.25
  0
LTYPE
  2
PHANTOM2
 70
     0
  3
___ _ _ ___ _ _ ___ _ _ ___ _ _
 72
    65
 73
     6
 40
1.25
 49
0.625
 49
-0.125
 49
0.125
 49
-0.125
 49
0.125
 49
-0.125
  0
ENDTAB
  0
TABLE
  2
LAYER
 70
     2
  0
LAYER
  2
0
 70
     0
 62
     7
  6
CONTINUOUS
  0
LAYER
  2
1
 70
     0
 62
     1
  6
CENTER
  0
ENDTAB
  0
TABLE
  2
STYLE
 70
     2
  0
STYLE
  2
STANDARD
 70
     0
 40
0.0
 41
1.0
 50
0.0
 71
     0
 42
4.000000000000048
  3
SIMPLEX
  4
BIGFONT
  0
STYLE
  2
STANDARD1
 70
     0
 40
0.0
 41
1.0
 50
0.0
 71
     0
 42
3.0
  3
txt
  4

  0
ENDTAB
  0
TABLE
  2
VIEW
 70
     1
  0
VIEW
  2
ALL
 70
     0
 40
270.0
 10
220.78595317725751
 20
135.0
 41
441.57190635451502
 11
0.0
 21
0.0
 31
1.0
 12
0.0
 22
0.0
 32
0.0
 42
50.0
 43
0.0
 44
0.0
 50
0.0
 71
     0
  0
ENDTAB
  0
TABLE
  2
UCS
 70
     0
  0
ENDTAB
  0
TABLE
  2
APPID
 70
     3
  0
APPID
  2
ACAD
 70
     0
  0
APPID
  2
ACAD_MLEADERVER
 70
     0
  0
APPID
  2
ACAD_NAV_VCDISPLAY
 70
     0
  0
ENDTAB
  0
TABLE
  2
DIMSTYLE
 70
     1
  0
DIMSTYLE
  2
STANDARD
 70
     0
  3

  4

  5

  6

  7

 40
1.0
 41
0.18
 42
0.0625
 43
0.38
 44
0.18
 45
0.0
 46
0.0
 47
0.0
 48
0.0
140
0.18
141
0.09
142
0.0
143
25.399999999999999
144
1.0
145
0.0
146
1.0
147
0.09
 71
     0
 72
     0
 73
     1
 74
     1
 75
     0
 76
     0
 77
     0
 78
     0
170
     0
171
     2
172
     0
173
     0
174
     0
175
     0
176
     0
177
     0
178
     0
  0
ENDTAB
  0
ENDSEC
  0
SECTION
  2
BLOCKS
  0
BLOCK
  8
0
  2
$MODEL_SPACE
 70
     0
 10
0.0
 20
0.0
 30
0.0
  3
$MODEL_SPACE
  1

  0
ENDBLK
  5
142
  8
0
  0
BLOCK
 67
     1
  8
0
  2
$PAPER_SPACE
 70
     0
 10
0.0
 20
0.0
 30
0.0
  3
$PAPER_SPACE
  1

  0
ENDBLK
  5
140
 67
     1
  8
0
  0
BLOCK
  8
0
  2
STDGX5
 70
     0
 10
0.0
 20
0.0
 30
0.0
  3
STDGX5
  1

  0
ENDBLK
  5
30
  8
0
  0
ENDSEC
  0
SECTION
  2
ENTITIES
  0
LINE
  5
3E
  8
0
 10
141.50186816203939
 20
120.2502887187287
 30
0.0
 11
91.501868162039443
 21
120.2502887187287
 31
0.0
  0
LINE
  5
3F
  8
0
 10
141.50186816203939
 20
128.2502887187278
 30
0.0
 11
91.501868162039443
 21
128.2502887187278
 31
0.0
  0
LINE
  5
40
  8
1
 10
146.50186816203939
 20
124.2502887187283
 30
0.0
 11
86.501868162039443
 21
124.2502887187283
 31
0.0
  0
LINE
  5
41
  8
0
 10
141.50186816203939
 20
144.25028871872831
 30
0.0
 11
91.501868162039443
 21
144.25028871872831
 31
0.0
  0
LINE
  5
42
  8
0
 10
91.501868162039443
 20
104.2502887187283
 30
0.0
 11
141.50186816203939
 21
104.2502887187283
 31
0.0
  0
LINE
  5
43
  8
0
 10
141.50186816203939
 20
104.2502887187283
 30
0.0
 11
141.50186816203939
 21
144.25028871872831
 31
0.0
  0
LINE
  5
44
  8
0
 10
91.501868162039443
 20
104.2502887187283
 30
0.0
 11
91.501868162039443
 21
144.25028871872831
 31
0.0
  0
CIRCLE
  5
47
  8
0
 10
194.82794800389189
 20
124.2502868551213
 30
0.0
 40
3.399999999999999
  0
POLYLINE
  5
48
  8
0
 66
     1
 10
0.0
 20
0.0
 30
0.0
 70
     1
  0
VERTEX
  5
49
  8
0
 10
208.29138300389189
 20
133.8450688551213
 30
0.0
 42
0.069979
  0
VERTEX
  5
4A
  8
0
 10
203.3779480038919
 20
128.91028685512131
 30
0.0
 42
0.162278
  0
VERTEX
  5
4B
  8
0
 10
202.57794800389189
 20
126.51028685512129
 30
0.0
  0
VERTEX
  5
4C
  8
0
 10
202.57794800389189
 20
121.9902868551213
 30
0.0
 42
0.162278
  0
VERTEX
  5
4D
  8
0
 10
203.3779480038919
 20
119.59028685512131
 30
0.0
 42
0.069979
  0
VERTEX
  5
4E
  8
0
 10
208.29138300389189
 20
114.6555038551213
 30
0.0
 42
0.16339
  0
VERTEX
  5
4F
  8
0
 10
209.49830800389191
 20
114.2502868551213
 30
0.0
  0
VERTEX
  5
50
  8
0
 10
210.1448690038919
 20
114.2502868551213
 30
0.0
 42
0.4142140000000001
  0
VERTEX
  5
51
  8
0
 10
212.6448690038919
 20
116.7502868551213
 30
0.0
 42
0.4142140000000001
  0
VERTEX
  5
52
  8
0
 10
212.1448690038919
 20
117.2502868551213
 30
0.0
  0
VERTEX
  5
53
  8
0
 10
210.77794800389191
 20
117.2502868551213
 30
0.0
 42
-0.4142140000000001
  0
VERTEX
  5
54
  8
0
 10
210.27794800389191
 20
117.7502868551213
 30
0.0
  0
VERTEX
  5
55
  8
0
 10
210.27794800389191
 20
119.2502868551213
 30
0.0
 42
-0.4142140000000001
  0
VERTEX
  5
56
  8
0
 10
211.27794800389191
 20
120.2502868551213
 30
0.0
  0
VERTEX
  5
57
  8
0
 10
213.32794800389189
 20
120.2502868551213
 30
0.0
 42
-0.4142140000000001
  0
VERTEX
  5
58
  8
0
 10
214.82794800389189
 20
118.7502868551213
 30
0.0
  0
VERTEX
  5
59
  8
0
 10
214.82794800389189
 20
108.2502868551213
 30
0.0
 42
-0.4142140000000001
  0
VERTEX
  5
5A
  8
0
 10
210.82794800389189
 20
104.2502868551213
 30
0.0
  0
VERTEX
  5
5B
  8
0
 10
178.82794800389189
 20
104.2502868551213
 30
0.0
 42
-0.4142140000000001
  0
VERTEX
  5
5C
  8
0
 10
174.82794800389189
 20
108.2502868551213
 30
0.0
  0
VERTEX
  5
5D
  8
0
 10
174.82794800389189
 20
118.7502868551213
 30
0.0
 42
-0.4142140000000001
  0
VERTEX
  5
5E
  8
0
 10
176.32794800389189
 20
120.2502868551213
 30
0.0
  0
VERTEX
  5
5F
  8
0
 10
178.3779480038919
 20
120.2502868551213
 30
0.0
 42
-0.4142140000000001
  0
VERTEX
  5
60
  8
0
 10
179.3779480038919
 20
119.2502868551213
 30
0.0
  0
VERTEX
  5
61
  8
0
 10
179.3779480038919
 20
117.7502868551213
 30
0.0
 42
-0.4142140000000001
  0
VERTEX
  5
62
  8
0
 10
178.8779480038919
 20
117.2502868551213
 30
0.0
  0
VERTEX
  5
63
  8
0
 10
177.51102700389191
 20
117.2502868551213
 30
0.0
 42
0.4142140000000001
  0
VERTEX
  5
64
  8
0
 10
177.01102700389191
 20
116.7502868551213
 30
0.0
 42
0.4142140000000001
  0
VERTEX
  5
65
  8
0
 10
179.51102700389191
 20
114.2502868551213
 30
0.0
  0
VERTEX
  5
66
  8
0
 10
180.15758800389179
 20
114.2502868551213
 30
0.0
 42
0.16339
  0
VERTEX
  5
67
  8
0
 10
181.36451300389189
 20
114.6555038551213
 30
0.0
 42
0.069979
  0
VERTEX
  5
68
  8
0
 10
186.27794800389179
 20
119.59028685512131
 30
0.0
 42
0.162278
  0
VERTEX
  5
69
  8
0
 10
187.07794800389189
 20
121.9902868551213
 30
0.0
  0
VERTEX
  5
6A
  8
0
 10
187.07794800389189
 20
126.51028685512129
 30
0.0
 42
0.162278
  0
VERTEX
  5
6B
  8
0
 10
186.27794800389179
 20
128.91028685512131
 30
0.0
 42
0.069979
  0
VERTEX
  5
6C
  8
0
 10
181.36451300389189
 20
133.8450688551213
 30
0.0
 42
0.16339
  0
VERTEX
  5
6D
  8
0
 10
180.15758800389179
 20
134.25028685512129
 30
0.0
  0
VERTEX
  5
6E
  8
0
 10
179.51102700389191
 20
134.25028685512129
 30
0.0
 42
0.4142140000000001
  0
VERTEX
  5
6F
  8
0
 10
177.01102700389191
 20
131.75028685512129
 30
0.0
 42
0.4142140000000001
  0
VERTEX
  5
70
  8
0
 10
177.51102700389191
 20
131.25028685512129
 30
0.0
  0
VERTEX
  5
71
  8
0
 10
178.8779480038919
 20
131.25028685512129
 30
0.0
 42
-0.4142140000000001
  0
VERTEX
  5
72
  8
0
 10
179.3779480038919
 20
130.75028685512129
 30
0.0
  0
VERTEX
  5
73
  8
0
 10
179.3779480038919
 20
129.25028685512129
 30
0.0
 42
-0.4142140000000001
  0
VERTEX
  5
74
  8
0
 10
178.3779480038919
 20
128.25028685512129
 30
0.0
  0
VERTEX
  5
75
  8
0
 10
176.32794800389189
 20
128.25028685512129
 30
0.0
 42
-0.4142140000000001
  0
VERTEX
  5
76
  8
0
 10
174.82794800389189
 20
129.75028685512129
 30
0.0
  0
VERTEX
  5
77
  8
0
 10
174.82794800389189
 20
140.25028685512129
 30
0.0
 42
-0.4142140000000001
  0
VERTEX
  5
78
  8
0
 10
178.82794800389189
 20
144.25028685512129
 30
0.0
  0
VERTEX
  5
79
  8
0
 10
210.82794800389189
 20
144.25028685512129
 30
0.0
 42
-0.4142140000000001
  0
VERTEX
  5
7A
  8
0
 10
214.82794800389189
 20
140.25028685512129
 30
0.0
  0
VERTEX
  5
7B
  8
0
 10
214.82794800389189
 20
129.75028685512129
 30
0.0
 42
-0.4142140000000001
  0
VERTEX
  5
7C
  8
0
 10
213.32794800389189
 20
128.25028685512129
 30
0.0
  0
VERTEX
  5
7D
  8
0
 10
211.27794800389191
 20
128.25028685512129
 30
0.0
 42
-0.4142140000000001
  0
VERTEX
  5
7E
  8
0
 10
210.27794800389191
 20
129.25028685512129
 30
0.0
  0
VERTEX
  5
7F
  8
0
 10
210.27794800389191
 20
130.75028685512129
 30
0.0
 42
-0.4142140000000001
  0
VERTEX
  5
80
  8
0
 10
210.77794800389191
 20
131.25028685512129
 30
0.0
  0
VERTEX
  5
81
  8
0
 10
212.1448690038919
 20
131.25028685512129
 30
0.0
 42
0.4142140000000001
  0
VERTEX
  5
82
  8
0
 10
212.6448690038919
 20
131.75028685512129
 30
0.0
 42
0.4142140000000001
  0
VERTEX
  5
83
  8
0
 10
210.1448690038919
 20
134.25028685512129
 30
0.0
  0
VERTEX
  5
84
  8
0
 10
209.49830800389191
 20
134.25028685512129
 30
0.0
 42
0.16339
  0
SEQEND
  5
85
  8
0
  0
ARC
  5
86
  8
0
 10
178.82794800389189
 20
108.2502868551213
 30
0.0
 40
4.0
 50
180.0
 51
270.0
  0
ARC
  5
87
  8
0
 10
210.82794800389189
 20
108.2502868551213
 30
0.0
 40
4.0
 50
270.0
 51
0.0
  0
ARC
  5
88
  8
0
 10
210.82794800389189
 20
140.25028685512129
 30
0.0
 40
4.0
 50
0.0
 51
90.0
  0
ARC
  5
89
  8
0
 10
178.82794800389189
 20
140.25028685512129
 30
0.0
 40
4.0
 50
90.0
 51
180.0
  0
LINE
  5
8A
  8
0
 10
213.32794800389189
 20
120.2502868551213
 30
0.0
 11
211.27794800389191
 21
120.2502868551213
 31
0.0
  0
ARC
  5
8B
  8
0
 10
213.32794800389189
 20
118.7502868551213
 30
0.0
 40
1.5
 50
0.0
 51
90.0
  0
LINE
  5
8C
  8
0
 10
213.32794800389189
 20
128.25028685512129
 30
0.0
 11
211.27794800389191
 21
128.25028685512129
 31
0.0
  0
ARC
  5
8D
  8
0
 10
213.32794800389189
 20
129.75028685512129
 30
0.0
 40
1.5
 50
270.0
 51
0.0
  0
LINE
  5
8E
  8
0
 10
214.82794800389189
 20
108.2502868551213
 30
0.0
 11
214.82794800389189
 21
118.7502868551213
 31
0.0
  0
LINE
  5
8F
  8
0
 10
214.82794800389189
 20
140.25028685512129
 30
0.0
 11
214.82794800389189
 21
129.75028685512129
 31
0.0
  0
ARC
  5
90
  8
0
 10
176.32794800389189
 20
118.7502868551213
 30
0.0
 40
1.5
 50
90.0
 51
180.0
  0
ARC
  5
91
  8
0
 10
176.32794800389189
 20
129.75028685512129
 30
0.0
 40
1.5
 50
180.0
 51
270.0
  0
LINE
  5
92
  8
0
 10
174.82794800389189
 20
140.25028685512129
 30
0.0
 11
174.82794800389189
 21
129.75028685512129
 31
0.0
  0
LINE
  5
93
  8
0
 10
174.82794800389189
 20
108.2502868551213
 30
0.0
 11
174.82794800389189
 21
118.7502868551213
 31
0.0
  0
ARC
  5
94
  8
0
 10
183.07794800389189
 20
121.9902868551213
 30
0.0
 40
4.0
 50
323.13010200000002
 51
0.0
  0
ARC
  5
95
  8
0
 10
177.51102700389191
 20
116.7502868551213
 30
0.0
 40
0.5
 50
90.0
 51
180.0
  0
LINE
  5
96
  8
0
 10
179.3779480038919
 20
119.2502868551213
 30
0.0
 11
179.3779480038919
 21
117.7502868551213
 31
0.0
  0
ARC
  5
97
  8
0
 10
178.3779480038919
 20
119.2502868551213
 30
0.0
 40
1.0
 50
0.0
 51
90.0
  0
LINE
  5
98
  8
0
 10
176.32794800389189
 20
120.2502868551213
 30
0.0
 11
178.3779480038919
 21
120.2502868551213
 31
0.0
  0
ARC
  5
99
  8
0
 10
211.27794800389191
 20
129.25028685512129
 30
0.0
 40
1.0
 50
180.0
 51
270.0
  0
LINE
  5
9A
  8
0
 10
210.27794800389191
 20
129.25028685512129
 30
0.0
 11
210.27794800389191
 21
130.75028685512129
 31
0.0
  0
ARC
  5
9B
  8
0
 10
210.77794800389191
 20
130.75028685512129
 30
0.0
 40
0.5
 50
90.0
 51
180.0
  0
LINE
  5
9C
  8
0
 10
210.77794800389191
 20
131.25028685512129
 30
0.0
 11
212.1448690038919
 21
131.25028685512129
 31
0.0
  0
ARC
  5
9D
  8
0
 10
212.1448690038919
 20
131.75028685512129
 30
0.0
 40
0.5
 50
270.0
 51
0.0
  0
ARC
  5
9E
  8
0
 10
210.1448690038919
 20
131.75028685512129
 30
0.0
 40
2.5
 50
0.0
 51
90.0
  0
LINE
  5
9F
  8
0
 10
210.1448690038919
 20
134.25028685512129
 30
0.0
 11
209.49830800389191
 21
134.25028685512129
 31
0.0
  0
ARC
  5
A0
  8
0
 10
209.49830800389191
 20
132.25028685512129
 30
0.0
 40
2.0
 50
90.0
 51
127.11829299999999
  0
ARC
  5
A1
  8
0
 10
223.3779480038919
 20
113.9102868551213
 30
0.0
 40
25.0
 50
127.11829299999999
 51
143.13010199999999
  0
ARC
  5
A2
  8
0
 10
206.57794800389189
 20
126.51028685512129
 30
0.0
 40
4.0
 50
143.13010199999999
 51
180.0
  0
LINE
  5
A3
  8
0
 10
202.57794800389189
 20
121.9902868551213
 30
0.0
 11
202.57794800389189
 21
126.51028685512129
 31
0.0
  0
ARC
  5
A4
  8
0
 10
206.57794800389189
 20
121.9902868551213
 30
0.0
 40
4.0
 50
180.0
 51
216.86989800000001
  0
ARC
  5
A5
  8
0
 10
212.1448690038919
 20
116.7502868551213
 30
0.0
 40
0.5
 50
0.0
 51
90.0
  0
LINE
  5
A6
  8
0
 10
210.77794800389191
 20
117.2502868551213
 30
0.0
 11
212.1448690038919
 21
117.2502868551213
 31
0.0
  0
ARC
  5
A7
  8
0
 10
210.77794800389191
 20
117.7502868551213
 30
0.0
 40
0.5
 50
180.0
 51
270.0
  0
LINE
  5
A8
  8
0
 10
210.27794800389191
 20
119.2502868551213
 30
0.0
 11
210.27794800389191
 21
117.7502868551213
 31
0.0
  0
ARC
  5
A9
  8
0
 10
211.27794800389191
 20
119.2502868551213
 30
0.0
 40
1.0
 50
90.0
 51
180.0
  0
LINE
  5
AA
  8
0
 10
176.32794800389189
 20
128.25028685512129
 30
0.0
 11
178.3779480038919
 21
128.25028685512129
 31
0.0
  0
ARC
  5
AB
  8
0
 10
178.3779480038919
 20
129.25028685512129
 30
0.0
 40
1.0
 50
270.0
 51
0.0
  0
LINE
  5
AC
  8
0
 10
179.3779480038919
 20
129.25028685512129
 30
0.0
 11
179.3779480038919
 21
130.75028685512129
 31
0.0
  0
ARC
  5
AD
  8
0
 10
178.8779480038919
 20
130.75028685512129
 30
0.0
 40
0.5
 50
0.0
 51
90.0
  0
LINE
  5
AE
  8
0
 10
178.8779480038919
 20
131.25028685512129
 30
0.0
 11
177.51102700389191
 21
131.25028685512129
 31
0.0
  0
ARC
  5
AF
  8
0
 10
177.51102700389191
 20
131.75028685512129
 30
0.0
 40
0.5
 50
180.0
 51
270.0
  0
ARC
  5
B0
  8
0
 10
179.51102700389191
 20
131.75028685512129
 30
0.0
 40
2.5
 50
90.0
 51
180.0
  0
LINE
  5
B1
  8
0
 10
179.51102700389191
 20
134.25028685512129
 30
0.0
 11
180.15758800389179
 21
134.25028685512129
 31
0.0
  0
ARC
  5
B2
  8
0
 10
180.15758800389179
 20
132.25028685512129
 30
0.0
 40
2.0
 50
52.881706999999992
 51
90.0
  0
ARC
  5
B3
  8
0
 10
166.27794800389191
 20
113.9102868551213
 30
0.0
 40
25.0
 50
36.869897999999999
 51
52.881706999999992
  0
ARC
  5
B4
  8
0
 10
183.07794800389189
 20
126.51028685512129
 30
0.0
 40
4.0
 50
0.0
 51
36.869897999999999
  0
LINE
  5
B5
  8
0
 10
187.07794800389189
 20
121.9902868551213
 30
0.0
 11
187.07794800389189
 21
126.51028685512129
 31
0.0
  0
LINE
  5
B6
  8
0
 10
210.82794800389189
 20
144.25028685512129
 30
0.0
 11
178.82794800389189
 21
144.25028685512129
 31
0.0
  0
ARC
  5
B7
  8
0
 10
210.1448690038919
 20
116.7502868551213
 30
0.0
 40
2.5
 50
270.0
 51
0.0
  0
LINE
  5
B8
  8
0
 10
210.1448690038919
 20
114.2502868551213
 30
0.0
 11
209.49830800389191
 21
114.2502868551213
 31
0.0
  0
ARC
  5
B9
  8
0
 10
209.49830800389191
 20
116.2502868551213
 30
0.0
 40
2.0
 50
232.88170700000001
 51
270.0
  0
ARC
  5
BA
  8
0
 10
223.3779480038919
 20
134.59028685512129
 30
0.0
 40
25.0
 50
216.86989800000001
 51
232.88170700000001
  0
ARC
  5
BB
  8
0
 10
178.8779480038919
 20
117.7502868551213
 30
0.0
 40
0.5
 50
270.0
 51
0.0
  0
LINE
  5
BC
  8
0
 10
178.8779480038919
 20
117.2502868551213
 30
0.0
 11
177.51102700389191
 21
117.2502868551213
 31
0.0
  0
ARC
  5
BD
  8
0
 10
179.51102700389191
 20
116.7502868551213
 30
0.0
 40
2.5
 50
180.0
 51
270.0
  0
LINE
  5
BE
  8
0
 10
179.51102700389191
 20
114.2502868551213
 30
0.0
 11
180.15758800389179
 21
114.2502868551213
 31
0.0
  0
ARC
  5
BF
  8
0
 10
180.15758800389179
 20
116.2502868551213
 30
0.0
 40
2.0
 50
270.0
 51
307.11829299999999
  0
ARC
  5
C0
  8
0
 10
166.27794800389191
 20
134.59028685512129
 30
0.0
 40
25.0
 50
307.11829299999999
 51
323.13010200000002
  0
LINE
  5
C1
  8
0
 10
210.82794800389189
 20
104.2502868551213
 30
0.0
 11
178.82794800389189
 21
104.2502868551213
 31
0.0
  0
ARC
  5
C2
  8
0
 10
199.43771925136389
 20
127.250285966671
 30
0.0
 40
0.499999111550293
 50
213.05577537087399
 51
270.00008623350288
  0
ARC
  5
C3
  8
0
 10
194.82796195846819
 20
124.2503026733046
 30
0.0
 40
4.9999792574883264
 50
33.055659626822589
 51
56.944301221460456
  0
ARC
  5
C4
  8
0
 10
197.82794761544159
 20
128.86005902454701
 30
0.0
 40
0.4999996115498166
 50
180.00001941477379
 51
236.94433027740001
  0
LINE
  5
C5
  8
0
 10
197.32794800389181
 20
128.86005885512131
 30
0.0
 11
197.32794800389181
 21
128.95028685512131
 31
0.0
  0
ARC
  5
C6
  8
0
 10
197.0279482280144
 20
128.95028707924379
 30
0.0
 40
0.2999997758775506
 50
359.99995719571513
 51
90.000042804284959
  0
LINE
  5
C7
  8
0
 10
197.02794800389179
 20
129.25028685512129
 30
0.0
 11
194.82794800389189
 21
129.25028685512129
 31
0.0
  0
LINE
  5
C8
  8
0
 10
194.82794800389189
 20
129.25028685512129
 30
0.0
 11
192.6279480038919
 21
129.25028685512129
 31
0.0
  0
ARC
  5
C9
  8
0
 10
192.6279477797693
 20
128.95028707924379
 30
0.0
 40
0.2999997758775506
 50
89.999957195715027
 51
180.0000428042849
  0
LINE
  5
CA
  8
0
 10
192.32794800389189
 20
128.95028685512131
 30
0.0
 11
192.32794800389189
 21
128.86005885512131
 31
0.0
  0
ARC
  5
CB
  8
0
 10
191.82794839234211
 20
128.86005902454701
 30
0.0
 40
0.499999611549811
 50
303.05566972259999
 51
359.99998058522613
  0
ARC
  5
CC
  8
0
 10
194.8279340493155
 20
124.2503026733046
 30
0.0
 40
4.9999792574883291
 50
123.05569877853949
 51
146.9443403731774
  0
ARC
  5
CD
  8
0
 10
190.21817675641981
 20
127.250285966671
 30
0.0
 40
0.4999991115502876
 50
269.99991376649712
 51
326.94422462912598
  0
LINE
  5
CE
  8
0
 10
190.2181760038919
 20
126.7502868551213
 30
0.0
 11
189.53568700389189
 21
126.7502868551213
 31
0.0
  0
ARC
  5
CF
  8
0
 10
189.53568687778841
 20
127.2502864845835
 30
0.0
 40
0.4999996294622395
 50
186.53703070761529
 51
270.0000144504026
  0
ARC
  5
D0
  8
0
 10
183.07794155312999
 20
126.51028497873151
 30
0.0
 40
6.0000062864438393
 50
6.537089348615102
 51
36.869875020286592
  0
ARC
  5
D1
  8
0
 10
166.27805973508711
 20
113.910396739768
 30
0.0
 40
26.99984468426387
 50
36.869853360195322
 51
52.881755738498292
  0
ARC
  5
D2
  8
0
 10
180.15758572787749
 20
132.25028210480849
 30
0.0
 40
4.0000047503134377
 50
52.881725087790208
 51
89.999967398535347
  0
LINE
  5
D3
  8
0
 10
180.15758800389179
 20
136.25028685512129
 30
0.0
 11
179.32794800389189
 21
136.25028685512129
 31
0.0
  0
ARC
  5
D4
  8
0
 10
179.32794613620391
 20
138.7502849874333
 30
0.0
 40
2.4999981323127409
 50
179.99995719571311
 51
270.00004280428692
  0
LINE
  5
D5
  8
0
 10
176.82794800389189
 20
138.75028685512129
 30
0.0
 11
176.82794800389189
 21
140.25028685512129
 31
0.0
  0
ARC
  5
D6
  8
0
 10
178.82794650974151
 20
140.25028834927161
 30
0.0
 40
1.9999985058502039
 50
89.999957195713407
 51
180.00004280428661
  0
LINE
  5
D7
  8
0
 10
178.82794800389189
 20
142.25028685512129
 30
0.0
 11
194.82794800389189
 21
142.25028685512129
 31
0.0
  0
LINE
  5
D8
  8
0
 10
194.82794800389189
 20
142.25028685512129
 30
0.0
 11
210.82794800389189
 21
142.25028685512129
 31
0.0
  0
ARC
  5
D9
  8
0
 10
210.82794949804219
 20
140.25028834927161
 30
0.0
 40
1.9999985058502039
 50
359.99995719571342
 51
90.000042804286593
  0
LINE
  5
DA
  8
0
 10
212.82794800389189
 20
140.25028685512129
 30
0.0
 11
212.82794800389189
 21
138.75028685512129
 31
0.0
  0
ARC
  5
DB
  8
0
 10
210.3279498715799
 20
138.7502849874333
 30
0.0
 40
2.4999981323127409
 50
269.99995719571308
 51
0.0000428042869152
  0
LINE
  5
DC
  8
0
 10
210.32794800389189
 20
136.25028685512129
 30
0.0
 11
209.49830800389191
 21
136.25028685512129
 31
0.0
  0
ARC
  5
DD
  8
0
 10
209.49831027990621
 20
132.25028210480849
 30
0.0
 40
4.0000047503134439
 50
90.000032601464625
 51
127.1182749122097
  0
ARC
  5
DE
  8
0
 10
223.3778362726967
 20
113.910396739768
 30
0.0
 40
26.99984468426387
 50
127.1182442615017
 51
143.13014663980459
  0
ARC
  5
DF
  8
0
 10
206.57795445465379
 20
126.5102849787316
 30
0.0
 40
6.00000628644381
 50
143.13012497971371
 51
173.4629106513853
  0
ARC
  5
E0
  8
0
 10
200.12020862999529
 20
127.2502870451506
 30
0.0
 40
0.5000001900297072
 50
269.99992825385601
 51
353.46291199664267
  0
LINE
  5
E1
  8
0
 10
200.12020800389189
 20
126.7502868551213
 30
0.0
 11
199.43772000389191
 21
126.7502868551213
 31
0.0
  0
ARC
  5
E2
  8
0
 10
199.43772017331759
 20
121.25028724357151
 30
0.0
 40
0.4999996115497825
 50
90.000019414777114
 51
146.9443302774055
  0
ARC
  5
E3
  8
0
 10
194.8279643220753
 20
124.2502705369379
 30
0.0
 40
4.9999775491791612
 50
303.05567920268061
 51
326.94432079731843
  0
ARC
  5
E4
  8
0
 10
197.82794853739529
 20
119.64051418569559
 30
0.0
 40
0.5000005335035095
 50
123.0557270183527
 51
180.00003788098181
  0
LINE
  5
E5
  8
0
 10
197.32794800389181
 20
119.6405138551213
 30
0.0
 11
197.32794800389181
 21
119.5502868551213
 31
0.0
  0
ARC
  5
E6
  8
0
 10
197.0279482280144
 20
119.5502866309988
 30
0.0
 40
0.2999997758775506
 50
269.99995719571501
 51
0.0000428042876751
  0
LINE
  5
E7
  8
0
 10
197.02794800389179
 20
119.2502868551213
 30
0.0
 11
194.82794800389189
 21
119.2502868551213
 31
0.0
  0
LINE
  5
E8
  8
0
 10
194.82794800389189
 20
119.2502868551213
 30
0.0
 11
192.6279480038919
 21
119.2502868551213
 31
0.0
  0
ARC
  5
E9
  8
0
 10
192.6279477797693
 20
119.5502866309988
 30
0.0
 40
0.2999997758775363
 50
179.99995719571231
 51
270.00004280428487
  0
LINE
  5
EA
  8
0
 10
192.32794800389189
 20
119.5502868551213
 30
0.0
 11
192.32794800389189
 21
119.6405138551213
 31
0.0
  0
ARC
  5
EB
  8
0
 10
191.82794747038849
 20
119.64051418569559
 30
0.0
 40
0.5000005335035054
 50
359.99996211901822
 51
56.94427298164733
  0
ARC
  5
EC
  8
0
 10
194.82793168570839
 20
124.2502705369379
 30
0.0
 40
4.9999775491791576
 50
213.0556792026816
 51
236.94432079731939
  0
ARC
  5
ED
  8
0
 10
190.21817583446611
 20
121.25028724357151
 30
0.0
 40
0.4999996115497855
 50
33.055669722594487
 51
89.999980585222872
  0
LINE
  5
EE
  8
0
 10
190.2181760038919
 20
121.7502868551213
 30
0.0
 11
189.53568700389189
 21
121.7502868551213
 31
0.0
  0
ARC
  5
EF
  8
0
 10
189.53568687778841
 20
121.25028722565899
 30
0.0
 40
0.4999996294622679
 50
89.999985549600652
 51
173.46296929238829
  0
ARC
  5
F0
  8
0
 10
183.0779415531301
 20
121.990288731511
 30
0.0
 40
6.00000628644373
 50
323.13012497971289
 51
353.4629106513845
  0
ARC
  5
F1
  8
0
 10
166.27805618008151
 20
134.5901764704746
 30
0.0
 40
26.999847228270411
 50
307.11824963672802
 51
323.130152015031
  0
ARC
  5
F2
  8
0
 10
180.1575872171114
 20
116.2502911054341
 30
0.0
 40
4.0000042503128794
 50
270.00001126978742
 51
307.11825358053238
  0
LINE
  5
F3
  8
0
 10
180.15758800389179
 20
112.2502868551213
 30
0.0
 11
179.32794800389189
 21
112.2502868551213
 31
0.0
  0
ARC
  5
F4
  8
0
 10
179.32794613620391
 20
109.7502887228092
 30
0.0
 40
2.4999981323127409
 50
89.999957195713066
 51
180.00004280428689
  0
LINE
  5
F5
  8
0
 10
176.82794800389189
 20
109.7502868551213
 30
0.0
 11
176.82794800389189
 21
108.2502868551213
 31
0.0
  0
ARC
  5
F6
  8
0
 10
178.82794650974151
 20
108.25028536097091
 30
0.0
 40
1.9999985058502039
 50
179.99995719571299
 51
270.00004280428658
  0
LINE
  5
F7
  8
0
 10
178.82794800389189
 20
106.2502868551213
 30
0.0
 11
194.82794800389189
 21
106.2502868551213
 31
0.0
  0
LINE
  5
F8
  8
0
 10
194.82794800389189
 20
106.2502868551213
 30
0.0
 11
210.82794800389189
 21
106.2502868551213
 31
0.0
  0
ARC
  5
F9
  8
0
 10
210.82794949804219
 20
108.25028536097091
 30
0.0
 40
1.9999985058501899
 50
269.99995719571342
 51
0.0000428042869966
  0
LINE
  5
FA
  8
0
 10
212.82794800389189
 20
108.2502868551213
 30
0.0
 11
212.82794800389189
 21
109.7502868551213
 31
0.0
  0
ARC
  5
FB
  8
0
 10
210.3279498715799
 20
109.7502887228092
 30
0.0
 40
2.4999981323127409
 50
359.99995719571308
 51
90.000042804286906
  0
LINE
  5
FC
  8
0
 10
210.32794800389189
 20
112.2502868551213
 30
0.0
 11
209.49830800389191
 21
112.2502868551213
 31
0.0
  0
ARC
  5
FD
  8
0
 10
209.4983087906723
 20
116.2502911054341
 30
0.0
 40
4.000004250312875
 50
232.8817464194675
 51
269.99998873021258
  0
ARC
  5
FE
  8
0
 10
223.37783982770219
 20
134.5901764704746
 30
0.0
 40
26.999847228270411
 50
216.86984798496911
 51
232.881750363272
  0
ARC
  5
FF
  8
0
 10
206.57795445465371
 20
121.990288731511
 30
0.0
 40
6.0000062864437247
 50
186.5370893486151
 51
216.8698750202866
  0
ARC
  5
100
  8
0
 10
200.12020862999529
 20
121.25028666509201
 30
0.0
 40
0.5000001900297323
 50
6.5370880033537073
 51
90.000071746140719
  0
LINE
  5
101
  8
0
 10
200.12020800389189
 20
121.7502868551213
 30
0.0
 11
199.43772000389191
 21
121.7502868551213
 31
0.0
  0
LINE
  5
102
  8
1
 10
169.82794800389189
 20
124.2502868551213
 30
0.0
 11
219.82794800389189
 21
124.2502868551213
 31
0.0
  0
LINE
  5
103
  8
1
 10
194.82794800389189
 20
149.25028685512129
 30
0.0
 11
194.82794800389189
 21
99.250286855121317
 31
0.0
  0
LINE
  5
104
  8
1
 10
194.82791536752501
 20
231.06673293462001
 30
0.0
 11
194.82791536752501
 21
171.06673293462001
 31
0.0
  0
LINE
  5
105
  8
0
 10
214.82791536752509
 20
226.06673293462001
 30
0.0
 11
174.82791536752501
 21
226.06673293462001
 31
0.0
  0
LINE
  5
107
  8
0
 10
214.82791536752509
 20
176.06673293462001
 30
0.0
 11
174.82791536752501
 21
176.06673293462001
 31
0.0
  0
LINE
  5
108
  8
0
 10
214.82791536752509
 20
176.06673293462001
 30
0.0
 11
214.82791536752509
 21
226.06673293462001
 31
0.0
  0
LINE
  5
109
  8
0
 10
174.82791536752501
 20
226.06673293462001
 30
0.0
 11
174.82791536752501
 21
176.06673293462001
 31
0.0
  0
INSERT
  5
10A
  8
0
  2
STDGX5
 10
0.0
 20
0.0
 30
0.0
  0
TEXT
  5
1EF
  8
0
 62
     3
 10
0.0
 20
0.0
 30
0.0
 40
10.0
  1
SPE4040N3-3M
  7
STANDARD1
  0
ENDSEC
  0
EOF
