  0
SECTION
  2
HEADER
  9
$ACADVER
  1
AC1009
  9
$INSBASE
 10
0.0
 20
0.0
 30
0.0
  9
$EXTMIN
 10
0.0
 20
-2.960436562073669
 30
0.0
  9
$EXTMAX
 10
269.03822200000002
 20
224.85748899999999
 30
0.0
  9
$LIMMIN
 10
0.0
 20
0.0
  9
$LIMMAX
 10
390.0
 20
270.0
  9
$ORTHOMODE
 70
     1
  9
$REGENMODE
 70
     1
  9
$FILLMODE
 70
     1
  9
$QTEXTMODE
 70
     0
  9
$MIRRTEXT
 70
     0
  9
$DRAGMODE
 70
     2
  9
$LTSCALE
 40
10.0
  9
$OSMODE
 70
    55
  9
$ATTMODE
 70
     1
  9
$TEXTSIZE
 40
1.5
  9
$TRACEWID
 40
0.05
  9
$TEXTSTYLE
  7
06000
  9
$CLAYER
  8
4
  9
$CELTYPE
  6
BYLAYER
  9
$CECOLOR
 62
   256
  9
$DIMSCALE
 40
1.0
  9
$DIMASZ
 40
3.0
  9
$DIMEXO
 40
1.0
  9
$DIMDLI
 40
6.0
  9
$DIMRND
 40
0.0
  9
$DIMDLE
 40
0.0
  9
$DIMEXE
 40
1.0
  9
$DIMTP
 40
495.0
  9
$DIMTM
 40
0.0
  9
$DIMTXT
 40
3.0
  9
$DIMCEN
 40
0.0
  9
$DIMTSZ
 40
0.0
  9
$DIMTOL
 70
     0
  9
$DIMLIM
 70
     0
  9
$DIMTIH
 70
     0
  9
$DIMTOH
 70
     0
  9
$DIMSE1
 70
     0
  9
$DIMSE2
 70
     0
  9
$DIMTAD
 70
     1
  9
$DIMZIN
 70
     0
  9
$DIMBLK
  1

  9
$DIMASO
 70
     0
  9
$DIMSHO
 70
     0
  9
$DIMPOST
  1

  9
$DIMAPOST
  1

  9
$DIMALT
 70
     0
  9
$DIMALTD
 70
     2
  9
$DIMALTF
 40
25.399999999999999
  9
$DIMLFAC
 40
1.0
  9
$DIMTOFL
 70
     1
  9
$DIMTVP
 40
0.0
  9
$DIMTIX
 70
     1
  9
$DIMSOXD
 70
     0
  9
$DIMSAH
 70
     0
  9
$DIMBLK1
  1

  9
$DIMBLK2
  1

  9
$DIMSTYLE
  2
STANDARD
  9
$DIMCLRD
 70
     0
  9
$DIMCLRE
 70
     0
  9
$DIMCLRT
 70
     0
  9
$DIMTFAC
 40
1.0
  9
$DIMGAP
 40
0.09
  9
$LUNITS
 70
     2
  9
$LUPREC
 70
     2
  9
$SKETCHINC
 40
0.1
  9
$FILLETRAD
 40
0.0
  9
$AUNITS
 70
     0
  9
$AUPREC
 70
     2
  9
$MENU
  1
E:\r13\win\SUPPORT\ACAD
  9
$ELEVATION
 40
0.0
  9
$PELEVATION
 40
0.0
  9
$THICKNESS
 40
0.0
  9
$LIMCHECK
 70
     0
  9
$BLIPMODE
 70
     0
  9
$CHAMFERA
 40
0.0
  9
$CHAMFERB
 40
0.0
  9
$SKPOLY
 70
     0
  9
$TDCREATE
 40
2449840.6558564822
  9
$TDUPDATE
 40
2456598.5450878129
  9
$TDINDWG
 40
0.0019906481
  9
$TDUSRTIMER
 40
0.0019906481
  9
$USRTIMER
 70
     1
  9
$ANGBASE
 50
0.0
  9
$ANGDIR
 70
     0
  9
$PDMODE
 70
     0
  9
$PDSIZE
 40
0.0
  9
$PLINEWID
 40
0.0
  9
$COORDS
 70
     1
  9
$SPLFRAME
 70
     0
  9
$SPLINETYPE
 70
     6
  9
$SPLINESEGS
 70
     8
  9
$ATTDIA
 70
     0
  9
$ATTREQ
 70
     1
  9
$HANDLING
 70
     1
  9
$HANDSEED
  5
567
  9
$SURFTAB1
 70
     6
  9
$SURFTAB2
 70
     6
  9
$SURFTYPE
 70
     6
  9
$SURFU
 70
     6
  9
$SURFV
 70
     6
  9
$UCSNAME
  2

  9
$UCSORG
 10
0.0
 20
0.0
 30
0.0
  9
$UCSXDIR
 10
1.0
 20
0.0
 30
0.0
  9
$UCSYDIR
 10
0.0
 20
1.0
 30
0.0
  9
$PUCSNAME
  2

  9
$PUCSORG
 10
0.0
 20
0.0
 30
0.0
  9
$PUCSXDIR
 10
1.0
 20
0.0
 30
0.0
  9
$PUCSYDIR
 10
0.0
 20
1.0
 30
0.0
  9
$USERI1
 70
     3
  9
$USERI2
 70
     1
  9
$USERI3
 70
     1
  9
$USERI4
 70
     1
  9
$USERI5
 70
     0
  9
$USERR1
 40
1.0
  9
$USERR2
 40
3.0
  9
$USERR3
 40
3.0
  9
$USERR4
 40
3.0
  9
$USERR5
 40
10.0
  9
$WORLDVIEW
 70
     1
  9
$SHADEDGE
 70
     3
  9
$SHADEDIF
 70
    70
  9
$TILEMODE
 70
     1
  9
$MAXACTVP
 70
    16
  9
$PLIMCHECK
 70
     0
  9
$PEXTMIN
 10
1.0000000000000000E+020
 20
1.0000000000000000E+020
 30
1.0000000000000000E+020
  9
$PEXTMAX
 10
-1.0000000000000000E+020
 20
-1.0000000000000000E+020
 30
-1.0000000000000000E+020
  9
$PLIMMIN
 10
0.0
 20
0.0
  9
$PLIMMAX
 10
12.0
 20
9.0
  9
$UNITMODE
 70
     0
  9
$VISRETAIN
 70
     0
  9
$PLINEGEN
 70
     0
  9
$PSLTSCALE
 70
     0
  0
ENDSEC
  0
SECTION
  2
TABLES
  0
TABLE
  2
VPORT
 70
     1
  0
VPORT
  2
*ACTIVE
 70
     0
 10
0.0
 20
0.0
 11
1.0
 21
1.0
 12
194.9940495262785
 22
174.91677254346851
 13
0.0
 23
0.0
 14
10.0
 24
10.0
 15
10.0
 25
10.0
 16
0.0
 26
0.0
 36
1.0
 17
0.0
 27
0.0
 37
0.0
 40
358.92027899574339
 41
1.7807262569832401
 42
50.0
 43
0.0
 44
0.0
 50
0.0
 51
0.0
 71
     0
 72
   100
 73
     1
 74
     0
 75
     0
 76
     0
 77
     0
 78
     0
  0
ENDTAB
  0
TABLE
  2
LTYPE
 70
     4
  0
LTYPE
  2
CONTINUOUS
 70
     0
  3
Solid Line
 72
    65
 73
     0
 40
0.0
  0
LTYPE
  2
CENTER
 70
     0
  3
____ _ ____ _ ____ _ ____ _ ____ _ ____ _ ____
 72
    65
 73
     4
 40
2.0
 49
1.25
 49
-0.25
 49
0.25
 49
-0.25
  0
LTYPE
  2
PHL_THICK
 70
     0
  3
THICK
 72
    65
 73
     0
 40
0.0
  0
LTYPE
  2
PHANTOM2
 70
     0
  3
___ _ _ ___ _ _ ___ _ _ ___ _ _
 72
    65
 73
     6
 40
1.25
 49
0.625
 49
-0.125
 49
0.125
 49
-0.125
 49
0.125
 49
-0.125
  0
ENDTAB
  0
TABLE
  2
LAYER
 70
     4
  0
LAYER
  2
0
 70
     0
 62
     7
  6
CONTINUOUS
  0
LAYER
  2
4
 70
     0
 62
     4
  6
CONTINUOUS
  0
LAYER
  2
1
 70
     0
 62
     1
  6
CENTER
  0
LAYER
  2
ITEM_HILFE
 70
     0
 62
     3
  6
CONTINUOUS
  0
ENDTAB
  0
TABLE
  2
STYLE
 70
     3
  0
STYLE
  2
STANDARD
 70
     0
 40
0.0
 41
1.0
 50
0.0
 71
     0
 42
1.5
  3
txt
  4
bigfont
  0
STYLE
  2
06000
 70
     0
 40
0.0
 41
0.6
 50
0.0
 71
     0
 42
1.5
  3
TXT
  4
BIGFONT
  0
STYLE
  2
STANDARD1
 70
     0
 40
0.0
 41
1.0
 50
0.0
 71
     0
 42
3.0
  3
txt
  4

  0
ENDTAB
  0
TABLE
  2
VIEW
 70
     0
  0
ENDTAB
  0
TABLE
  2
UCS
 70
     0
  0
ENDTAB
  0
TABLE
  2
APPID
 70
     7
  0
APPID
  2
ACAD
 70
     0
  0
APPID
  2
ACAD_PSEXT
 70
     0
  0
APPID
  2
ACADANNOTATIVE
 70
     0
  0
APPID
  2
ACAD_DSTYLE_DIMJAG
 70
     0
  0
APPID
  2
ACAD_DSTYLE_DIMTALN
 70
     0
  0
APPID
  2
ACAD_MLEADERVER
 70
     0
  0
APPID
  2
ACAD_NAV_VCDISPLAY
 70
     0
  0
ENDTAB
  0
TABLE
  2
DIMSTYLE
 70
     3
  0
DIMSTYLE
  2
STANDARD
 70
     0
  3

  4

  5

  6

  7

 40
1.0
 41
0.18
 42
0.0625
 43
0.38
 44
0.18
 45
0.0
 46
0.0
 47
0.0
 48
0.0
140
0.18
141
0.09
142
0.0
143
25.399999999999999
144
1.0
145
0.0
146
1.0
147
0.09
 71
     0
 72
     0
 73
     1
 74
     1
 75
     0
 76
     0
 77
     0
 78
     0
170
     0
171
     2
172
     0
173
     0
174
     0
175
     0
176
     0
177
     0
178
     0
  0
DIMSTYLE
  2
ANNOTATIVE
 70
     0
  3

  4

  5

  6

  7

 40
0.0
 41
2.5
 42
0.625
 43
3.75
 44
1.25
 45
0.0
 46
0.0
 47
0.0
 48
0.0
140
2.5
141
2.5
142
0.0
143
0.03937007874016
144
1.0
145
0.0
146
1.0
147
0.625
 71
     0
 72
     0
 73
     0
 74
     0
 75
     0
 76
     0
 77
     1
 78
     8
170
     0
171
     3
172
     1
173
     0
174
     0
175
     0
176
     0
177
     0
178
     0
  0
DIMSTYLE
  2
ISO-25
 70
     0
  3

  4

  5

  6

  7

 40
1.0
 41
2.5
 42
0.625
 43
3.75
 44
1.25
 45
0.0
 46
0.0
 47
0.0
 48
0.0
140
2.5
141
2.5
142
0.0
143
0.03937007874016
144
1.0
145
0.0
146
1.0
147
0.625
 71
     0
 72
     0
 73
     0
 74
     0
 75
     0
 76
     0
 77
     1
 78
     8
170
     0
171
     3
172
     1
173
     0
174
     0
175
     0
176
     0
177
     0
178
     0
  0
ENDTAB
  0
ENDSEC
  0
SECTION
  2
BLOCKS
  0
BLOCK
  8
0
  2
$MODEL_SPACE
 70
     0
 10
0.0
 20
0.0
 30
0.0
  3
$MODEL_SPACE
  1

  0
ENDBLK
  5
1D2
  8
0
  0
BLOCK
 67
     1
  8
0
  2
$PAPER_SPACE
 70
     0
 10
0.0
 20
0.0
 30
0.0
  3
$PAPER_SPACE
  1

  0
ENDBLK
  5
1D0
 67
     1
  8
0
  0
BLOCK
  8
0
  2
ACAD
 70
     0
 10
0.0
 20
0.0
 30
0.0
  3
ACAD
  1

  0
ENDBLK
  5
2F
  8
0
  0
BLOCK
  8
0
  2
37346B
 70
     0
 10
0.0
 20
0.0
 30
0.0
  3
37346B
  1

  0
ENDBLK
  5
31
  8
0
  0
BLOCK
  8
0
  2
37390B
 70
     0
 10
0.0
 20
0.0
 30
0.0
  3
37390B
  1

  0
ENDBLK
  5
33
  8
0
  0
ENDSEC
  0
SECTION
  2
ENTITIES
  0
INSERT
  5
3F
  8
ITEM_HILFE
  2
ACAD
 10
33.407186000000003
 20
37.964684000000013
 30
0.0
  0
INSERT
  5
40
  8
0
  2
ACAD
 10
229.96838199999999
 20
226.74570299999999
 30
0.0
  0
INSERT
  5
41
  8
0
  2
37346B
 10
28.805690999999999
 20
-79.723241999999999
 30
0.0
  0
INSERT
  5
42
  8
0
  2
37390B
 10
28.805690999999999
 20
-79.723241999999999
 30
0.0
  0
INSERT
  5
43
  8
0
  2
37346B
 10
28.805690999999999
 20
-79.723241999999999
 30
0.0
  0
INSERT
  5
44
  8
0
  2
37390B
 10
28.805690999999999
 20
-79.723241999999999
 30
0.0
  0
INSERT
  5
45
  8
0
  2
37346B
 10
47.590305999999991
 20
327.95368100000002
 30
0.0
  0
INSERT
  5
46
  8
0
  2
37390B
 10
47.590305999999991
 20
327.95368100000002
 30
0.0
  0
INSERT
  5
47
  8
0
  2
37346B
 10
47.590305999999991
 20
327.95368100000002
 30
0.0
  0
INSERT
  5
48
  8
0
  2
37390B
 10
47.590305999999991
 20
327.95368100000002
 30
0.0
  0
INSERT
  5
49
  8
0
  2
37390B
 10
542.21002999999985
 20
238.43957399999999
 30
0.0
  0
LINE
  5
113
  8
1
 10
151.03822199999999
 20
131.85748899999999
 30
0.0
 11
201.03822199999999
 21
131.85748899999999
 31
0.0
  0
LINE
  5
114
  8
1
 10
176.03822199999999
 20
106.857489
 30
0.0
 11
176.03822199999999
 21
156.85748899999999
 31
0.0
  0
LINE
  5
11E
  8
0
 10
156.03822199999999
 20
171.85748899999999
 30
0.0
 11
156.03822199999999
 21
221.85748899999999
 31
0.0
  0
LINE
  5
11F
  8
0
 10
196.03822199999991
 20
171.85748899999999
 30
0.0
 11
196.03822199999991
 21
221.85748899999999
 31
0.0
  0
LINE
  5
120
  8
0
 10
216.03822199999999
 20
151.85748899999999
 30
0.0
 11
266.03822200000002
 21
151.85748899999999
 31
0.0
  0
LINE
  5
121
  8
0
 10
216.03822199999999
 20
111.857489
 30
0.0
 11
266.03822200000002
 21
111.857489
 31
0.0
  0
LINE
  5
122
  8
0
 10
196.03822199999991
 20
91.857489000000001
 30
0.0
 11
196.03822199999991
 21
41.857489000000001
 31
0.0
  0
LINE
  5
123
  8
0
 10
156.03822199999999
 20
91.857489000000001
 30
0.0
 11
156.03822199999999
 21
41.857489000000001
 31
0.0
  0
LINE
  5
124
  8
0
 10
136.03822199999999
 20
111.857489
 30
0.0
 11
86.03822199999999
 21
111.857489
 31
0.0
  0
LINE
  5
125
  8
0
 10
136.03822199999999
 20
151.85748899999999
 30
0.0
 11
86.03822199999999
 21
151.85748899999999
 31
0.0
  0
LINE
  5
126
  8
0
 10
216.03822199999999
 20
111.857489
 30
0.0
 11
216.03822199999999
 21
151.85748899999999
 31
0.0
  0
LINE
  5
127
  8
0
 10
136.03822199999999
 20
111.857489
 30
0.0
 11
136.03822199999999
 21
151.85748899999999
 31
0.0
  0
LINE
  5
128
  8
0
 10
86.03822199999999
 20
111.857489
 30
0.0
 11
86.03822199999999
 21
151.85748899999999
 31
0.0
  0
LINE
  5
129
  8
0
 10
266.03822200000002
 20
111.857489
 30
0.0
 11
266.03822200000002
 21
151.85748899999999
 31
0.0
  0
LINE
  5
12A
  8
0
 10
196.03822199999991
 20
171.85748899999999
 30
0.0
 11
156.03822199999999
 21
171.85748899999999
 31
0.0
  0
LINE
  5
12B
  8
0
 10
196.03822199999991
 20
91.857489000000001
 30
0.0
 11
156.03822199999999
 21
91.857489000000001
 31
0.0
  0
LINE
  5
12C
  8
0
 10
196.03822199999991
 20
221.85748899999999
 30
0.0
 11
156.03822199999999
 21
221.85748899999999
 31
0.0
  0
LINE
  5
12D
  8
0
 10
196.03822199999991
 20
41.857489000000001
 30
0.0
 11
156.03822199999999
 21
41.857489000000001
 31
0.0
  0
LINE
  5
12E
  8
0
 10
216.03822199999999
 20
127.857489
 30
0.0
 11
266.03822200000002
 21
127.857489
 31
0.0
  0
LINE
  5
12F
  8
0
 10
216.03822199999999
 20
135.85748899999999
 30
0.0
 11
266.03822200000002
 21
135.85748899999999
 31
0.0
  0
LINE
  5
130
  8
0
 10
136.03822199999999
 20
135.85748899999999
 30
0.0
 11
86.03822199999999
 21
135.85748899999999
 31
0.0
  0
LINE
  5
131
  8
0
 10
136.03822199999999
 20
127.857489
 30
0.0
 11
86.03822199999999
 21
127.857489
 31
0.0
  0
LINE
  5
133
  8
0
 10
172.03822199999999
 20
41.857489000000001
 30
0.0
 11
172.03822199999999
 21
91.857489000000001
 31
0.0
  0
LINE
  5
134
  8
0
 10
180.03822199999999
 20
41.857489000000001
 30
0.0
 11
180.03822199999999
 21
91.857489000000001
 31
0.0
  0
LINE
  5
135
  8
0
 10
172.03822199999999
 20
171.85748899999999
 30
0.0
 11
172.03822199999999
 21
221.85748899999999
 31
0.0
  0
LINE
  5
136
  8
0
 10
180.03822199999999
 20
171.85748899999999
 30
0.0
 11
180.03822199999999
 21
221.85748899999999
 31
0.0
  0
LINE
  5
137
  8
1
 10
176.03822199999999
 20
94.857489000000001
 30
0.0
 11
176.03822199999999
 21
38.857489000000001
 31
0.0
  0
LINE
  5
138
  8
1
 10
213.03822199999999
 20
131.85748899999999
 30
0.0
 11
269.03822200000002
 21
131.85748899999999
 31
0.0
  0
LINE
  5
139
  8
1
 10
176.03822199999999
 20
168.85748899999999
 30
0.0
 11
176.03822199999999
 21
224.85748899999999
 31
0.0
  0
LINE
  5
13A
  8
1
 10
83.03822199999999
 20
131.85748899999999
 30
0.0
 11
139.03822199999999
 21
131.85748899999999
 31
0.0
  0
LINE
  5
339
  8
0
  6
PHL_THICK
 62
     7
 10
165.7511439999999
 20
144.25354599999989
 30
0.0
 11
165.48690300000001
 21
144.59676999999991
 31
0.0
  0
LINE
  5
33A
  8
0
  6
PHL_THICK
 62
     7
 10
186.58954099999991
 20
119.11820899999999
 30
0.0
 11
186.32529899999989
 21
119.4614329999999
 31
0.0
  0
LINE
  5
33B
  8
0
  6
PHL_THICK
 62
     7
 10
165.710711
 20
120.12360099999999
 30
0.0
 11
164.304001
 21
121.53031200000009
 31
0.0
  0
LINE
  5
33C
  8
0
  6
PHL_THICK
 62
     7
 10
187.7724429999999
 20
142.18466599999991
 30
0.0
 11
186.36573299999989
 21
143.59137799999999
 31
0.0
  0
LINE
  5
33D
  8
0
  6
PHL_THICK
 62
     7
 10
166.43501299999991
 20
121.0960239999999
 30
0.0
 11
165.27675699999989
 21
122.25427999999989
 31
0.0
  0
LINE
  5
33E
  8
0
  6
PHL_THICK
 62
     7
 10
186.79968700000001
 20
141.46069900000001
 30
0.0
 11
185.64143200000001
 21
142.618954
 31
0.0
  0
LINE
  5
33F
  8
0
  6
PHL_THICK
 62
     7
 10
163.64250000000001
 20
142.14490000000001
 30
0.0
 11
163.29927599999999
 21
142.40914199999989
 31
0.0
  0
LINE
  5
340
  8
0
  6
PHL_THICK
 62
     7
 10
188.77716699999999
 20
121.3058369999999
 30
0.0
 11
188.43394300000011
 21
121.5700779999999
 31
0.0
  0
LINE
  5
341
  8
0
  6
PHL_THICK
 62
     7
 10
181.53822199999999
 20
111.857489
 30
0.0
 11
192.03822199999999
 21
111.857489
 31
0.0
  0
LINE
  5
342
  8
0
  6
PHL_THICK
 62
     7
 10
160.03822199999999
 20
111.857489
 30
0.0
 11
170.53822199999999
 21
111.857489
 31
0.0
  0
LINE
  5
343
  8
0
  6
PHL_THICK
 62
     7
 10
187.73788900000011
 20
113.057489
 30
0.0
 11
192.03788999999989
 21
113.057489
 31
0.0
  0
LINE
  5
344
  8
0
  6
PHL_THICK
 62
     7
 10
160.03822199999999
 20
113.057822
 30
0.0
 11
164.33822199999989
 21
113.057822
 31
0.0
  0
LINE
  5
345
  8
0
  6
PHL_THICK
 62
     7
 10
168.53822199999999
 20
113.857489
 30
0.0
 11
168.78822199999999
 21
113.857489
 31
0.0
  0
LINE
  5
346
  8
0
  6
PHL_THICK
 62
     7
 10
183.28822199999999
 20
113.857489
 30
0.0
 11
183.53822199999991
 21
113.857489
 31
0.0
  0
LINE
  5
347
  8
0
  6
PHL_THICK
 62
     7
 10
169.28822199999999
 20
116.357489
 30
0.0
 11
171.03822199999999
 21
116.357489
 31
0.0
  0
LINE
  5
348
  8
0
  6
PHL_THICK
 62
     7
 10
181.03822199999999
 20
116.357489
 30
0.0
 11
182.78822199999999
 21
116.357489
 31
0.0
  0
LINE
  5
349
  8
0
  6
PHL_THICK
 62
     7
 10
190.70825099999979
 20
120.6574889999999
 30
0.0
 11
194.33788899999999
 21
120.6574889999999
 31
0.0
  0
LINE
  5
34A
  8
0
  6
PHL_THICK
 62
     7
 10
157.73822200000001
 20
120.6578219999999
 30
0.0
 11
161.36786199999989
 21
120.6578219999999
 31
0.0
  0
LINE
  5
34B
  8
0
  6
PHL_THICK
 62
     7
 10
190.75858199999999
 20
121.857489
 30
0.0
 11
191.53822199999999
 21
121.857489
 31
0.0
  0
LINE
  5
34C
  8
0
  6
PHL_THICK
 62
     7
 10
160.53822199999999
 20
121.857489
 30
0.0
 11
161.31786199999991
 21
121.857489
 31
0.0
  0
LINE
  5
34D
  8
0
  6
PHL_THICK
 62
     7
 10
173.84516599999989
 20
124.107489
 30
0.0
 11
178.231278
 21
124.107489
 31
0.0
  0
LINE
  5
34E
  8
0
  6
PHL_THICK
 62
     7
 10
191.78822199999999
 20
124.857489
 30
0.0
 11
193.78822199999999
 21
124.857489
 31
0.0
  0
LINE
  5
34F
  8
0
  6
PHL_THICK
 62
     7
 10
158.28822199999999
 20
124.857489
 30
0.0
 11
160.28822199999999
 21
124.857489
 31
0.0
  0
LINE
  5
350
  8
0
  6
PHL_THICK
 62
     7
 10
192.53822199999999
 20
127.857489
 30
0.0
 11
194.53822199999999
 21
127.857489
 31
0.0
  0
LINE
  5
351
  8
0
  6
PHL_THICK
 62
     7
 10
157.53822199999999
 20
127.857489
 30
0.0
 11
159.53822199999999
 21
127.857489
 31
0.0
  0
LINE
  5
352
  8
0
  6
PHL_THICK
 62
     7
 10
180.64799400000001
 20
129.35748899999999
 30
0.0
 11
182.13646199999999
 21
129.35748899999999
 31
0.0
  0
LINE
  5
353
  8
0
  6
PHL_THICK
 62
     7
 10
169.9399830000001
 20
129.35748899999999
 30
0.0
 11
171.42844900000011
 21
129.35748899999999
 31
0.0
  0
LINE
  5
354
  8
0
  6
PHL_THICK
 62
     7
 10
169.9399830000001
 20
134.35748899999999
 30
0.0
 11
171.42844900000011
 21
134.35748899999999
 31
0.0
  0
LINE
  5
355
  8
0
  6
PHL_THICK
 62
     7
 10
180.64799400000001
 20
134.35748899999999
 30
0.0
 11
182.13646199999999
 21
134.35748899999999
 31
0.0
  0
LINE
  5
356
  8
0
  6
PHL_THICK
 62
     7
 10
192.53822199999999
 20
135.85748899999999
 30
0.0
 11
194.53822199999999
 21
135.85748899999999
 31
0.0
  0
LINE
  5
357
  8
0
  6
PHL_THICK
 62
     7
 10
157.53822199999999
 20
135.85748899999999
 30
0.0
 11
159.53822199999999
 21
135.85748899999999
 31
0.0
  0
LINE
  5
358
  8
0
  6
PHL_THICK
 62
     7
 10
191.78822199999999
 20
138.85748899999999
 30
0.0
 11
193.78822199999999
 21
138.85748899999999
 31
0.0
  0
LINE
  5
359
  8
0
  6
PHL_THICK
 62
     7
 10
158.28822199999999
 20
138.85748899999999
 30
0.0
 11
160.28822199999999
 21
138.85748899999999
 31
0.0
  0
LINE
  5
35A
  8
0
  6
PHL_THICK
 62
     7
 10
173.84516599999989
 20
139.60748899999999
 30
0.0
 11
178.231278
 21
139.60748899999999
 31
0.0
  0
LINE
  5
35B
  8
0
  6
PHL_THICK
 62
     7
 10
190.75858199999999
 20
141.85748899999999
 30
0.0
 11
191.53822199999999
 21
141.85748899999999
 31
0.0
  0
LINE
  5
35C
  8
0
  6
PHL_THICK
 62
     7
 10
160.53822199999999
 20
141.85748899999999
 30
0.0
 11
161.31786199999991
 21
141.85748899999999
 31
0.0
  0
LINE
  5
35D
  8
0
  6
PHL_THICK
 62
     7
 10
190.70858299999989
 20
143.05715600000011
 30
0.0
 11
194.338221
 21
143.05715600000011
 31
0.0
  0
LINE
  5
35E
  8
0
  6
PHL_THICK
 62
     7
 10
157.73855499999999
 20
143.05748999999989
 30
0.0
 11
161.3681950000001
 21
143.05748999999989
 31
0.0
  0
LINE
  5
35F
  8
0
  6
PHL_THICK
 62
     7
 10
181.03822199999999
 20
147.35748899999999
 30
0.0
 11
182.78822199999999
 21
147.35748899999999
 31
0.0
  0
LINE
  5
360
  8
0
  6
PHL_THICK
 62
     7
 10
169.28822199999999
 20
147.35748899999999
 30
0.0
 11
171.03822199999999
 21
147.35748899999999
 31
0.0
  0
LINE
  5
361
  8
0
  6
PHL_THICK
 62
     7
 10
183.28822199999999
 20
149.85748899999999
 30
0.0
 11
183.53822199999991
 21
149.85748899999999
 31
0.0
  0
LINE
  5
362
  8
0
  6
PHL_THICK
 62
     7
 10
168.53822199999999
 20
149.85748899999999
 30
0.0
 11
168.78822199999999
 21
149.85748899999999
 31
0.0
  0
LINE
  5
363
  8
0
  6
PHL_THICK
 62
     7
 10
187.73822299999989
 20
150.65715599999999
 30
0.0
 11
192.03822199999999
 21
150.65715599999999
 31
0.0
  0
LINE
  5
364
  8
0
  6
PHL_THICK
 62
     7
 10
160.03855499999989
 20
150.657488
 30
0.0
 11
164.3385549999999
 21
150.657488
 31
0.0
  0
LINE
  5
365
  8
0
  6
PHL_THICK
 62
     7
 10
181.53822199999999
 20
151.85748899999999
 30
0.0
 11
192.03822199999999
 21
151.85748899999999
 31
0.0
  0
LINE
  5
366
  8
0
  6
PHL_THICK
 62
     7
 10
160.03822199999999
 20
151.85748899999999
 30
0.0
 11
170.53822199999999
 21
151.85748899999999
 31
0.0
  0
LINE
  5
367
  8
0
  6
PHL_THICK
 62
     7
 10
163.29894200000001
 20
121.30616999999999
 30
0.0
 11
163.64216599999989
 21
121.57041099999989
 31
0.0
  0
LINE
  5
368
  8
0
  6
PHL_THICK
 62
     7
 10
188.43427899999989
 20
142.14456599999991
 30
0.0
 11
188.77750299999991
 21
142.40880799999991
 31
0.0
  0
LINE
  5
369
  8
0
  6
PHL_THICK
 62
     7
 10
186.36539899999991
 20
120.123268
 30
0.0
 11
187.77211100000011
 21
121.529978
 31
0.0
  0
LINE
  5
36A
  8
0
  6
PHL_THICK
 62
     7
 10
165.27675699999989
 20
141.46069900000001
 30
0.0
 11
166.43501299999991
 21
142.618954
 31
0.0
  0
LINE
  5
36B
  8
0
  6
PHL_THICK
 62
     7
 10
164.30433400000001
 20
142.18499999999989
 30
0.0
 11
165.7110450000001
 21
143.59170999999989
 31
0.0
  0
LINE
  5
36C
  8
0
  6
PHL_THICK
 62
     7
 10
185.64143200000001
 20
121.0960239999999
 30
0.0
 11
186.79968700000001
 21
122.25427999999989
 31
0.0
  0
LINE
  5
36D
  8
0
  6
PHL_THICK
 62
     7
 10
186.32563300000001
 20
144.25321000000011
 30
0.0
 11
186.58987499999989
 21
144.59643399999999
 31
0.0
  0
LINE
  5
36E
  8
0
  6
PHL_THICK
 62
     7
 10
165.48656999999989
 20
119.118543
 30
0.0
 11
165.750811
 21
119.46176699999999
 31
0.0
  0
LINE
  5
36F
  8
0
  6
PHL_THICK
 62
     7
 10
156.03822199999999
 20
137.35748899999999
 30
0.0
 11
156.03822199999999
 21
147.85748899999999
 31
0.0
  0
LINE
  5
370
  8
0
  6
PHL_THICK
 62
     7
 10
156.03822199999999
 20
115.857489
 30
0.0
 11
156.03822199999999
 21
126.357489
 31
0.0
  0
LINE
  5
371
  8
0
  6
PHL_THICK
 62
     7
 10
157.23822200000001
 20
115.8578219999999
 30
0.0
 11
157.23822200000001
 21
120.1578219999999
 31
0.0
  0
LINE
  5
372
  8
0
  6
PHL_THICK
 62
     7
 10
157.23855499999999
 20
143.55748999999989
 30
0.0
 11
157.23855499999999
 21
147.85748899999999
 31
0.0
  0
LINE
  5
373
  8
0
  6
PHL_THICK
 62
     7
 10
158.03822199999999
 20
139.10748899999999
 30
0.0
 11
158.03822199999999
 21
139.35748899999999
 31
0.0
  0
LINE
  5
374
  8
0
  6
PHL_THICK
 62
     7
 10
158.03822199999999
 20
124.357489
 30
0.0
 11
158.03822199999999
 21
124.607489
 31
0.0
  0
LINE
  5
375
  8
0
  6
PHL_THICK
 62
     7
 10
160.53822199999999
 20
136.85748899999999
 30
0.0
 11
160.53822199999999
 21
138.60748899999999
 31
0.0
  0
LINE
  5
376
  8
0
  6
PHL_THICK
 62
     7
 10
160.53822199999999
 20
125.107489
 30
0.0
 11
160.53822199999999
 21
126.857489
 31
0.0
  0
LINE
  5
377
  8
0
  6
PHL_THICK
 62
     7
 10
164.83822199999989
 20
113.557822
 30
0.0
 11
164.83822199999989
 21
117.1874620000001
 31
0.0
  0
LINE
  5
378
  8
0
  6
PHL_THICK
 62
     7
 10
164.8385549999999
 20
146.52784999999989
 30
0.0
 11
164.8385549999999
 21
150.157488
 31
0.0
  0
LINE
  5
379
  8
0
  6
PHL_THICK
 62
     7
 10
166.03822199999999
 20
146.57784899999999
 30
0.0
 11
166.03822199999999
 21
147.35748899999999
 31
0.0
  0
LINE
  5
37A
  8
0
  6
PHL_THICK
 62
     7
 10
166.03822199999999
 20
116.357489
 30
0.0
 11
166.03822199999999
 21
117.1371289999999
 31
0.0
  0
LINE
  5
37B
  8
0
  6
PHL_THICK
 62
     7
 10
168.28822199999999
 20
129.66443299999989
 30
0.0
 11
168.28822199999999
 21
134.050545
 31
0.0
  0
LINE
  5
37C
  8
0
  6
PHL_THICK
 62
     7
 10
169.03822199999999
 20
147.60748899999999
 30
0.0
 11
169.03822199999999
 21
149.60748899999999
 31
0.0
  0
LINE
  5
37D
  8
0
  6
PHL_THICK
 62
     7
 10
169.03822199999999
 20
114.107489
 30
0.0
 11
169.03822199999999
 21
116.107489
 31
0.0
  0
LINE
  5
37E
  8
0
  6
PHL_THICK
 62
     7
 10
172.03822199999999
 20
148.35748899999999
 30
0.0
 11
172.03822199999999
 21
150.35748899999999
 31
0.0
  0
LINE
  5
37F
  8
0
  6
PHL_THICK
 62
     7
 10
172.03822199999999
 20
113.357489
 30
0.0
 11
172.03822199999999
 21
115.357489
 31
0.0
  0
LINE
  5
380
  8
0
  6
PHL_THICK
 62
     7
 10
173.53822199999999
 20
125.75925000000009
 30
0.0
 11
173.53822199999999
 21
127.2477160000001
 31
0.0
  0
LINE
  5
381
  8
0
  6
PHL_THICK
 62
     7
 10
173.53822199999999
 20
136.46726100000001
 30
0.0
 11
173.53822199999999
 21
137.95572899999999
 31
0.0
  0
LINE
  5
382
  8
0
  6
PHL_THICK
 62
     7
 10
178.53822199999999
 20
125.75925000000009
 30
0.0
 11
178.53822199999999
 21
127.2477160000001
 31
0.0
  0
LINE
  5
383
  8
0
  6
PHL_THICK
 62
     7
 10
178.53822199999999
 20
136.46726100000001
 30
0.0
 11
178.53822199999999
 21
137.95572899999999
 31
0.0
  0
LINE
  5
384
  8
0
  6
PHL_THICK
 62
     7
 10
180.03822199999999
 20
113.357489
 30
0.0
 11
180.03822199999999
 21
115.357489
 31
0.0
  0
LINE
  5
385
  8
0
  6
PHL_THICK
 62
     7
 10
180.03822199999999
 20
148.35748899999999
 30
0.0
 11
180.03822199999999
 21
150.35748899999999
 31
0.0
  0
LINE
  5
386
  8
0
  6
PHL_THICK
 62
     7
 10
183.03822199999999
 20
147.60748899999999
 30
0.0
 11
183.03822199999999
 21
149.60748899999999
 31
0.0
  0
LINE
  5
387
  8
0
  6
PHL_THICK
 62
     7
 10
183.03822199999999
 20
114.107489
 30
0.0
 11
183.03822199999999
 21
116.107489
 31
0.0
  0
LINE
  5
388
  8
0
  6
PHL_THICK
 62
     7
 10
183.78822199999999
 20
129.66443299999989
 30
0.0
 11
183.78822199999999
 21
134.050545
 31
0.0
  0
LINE
  5
389
  8
0
  6
PHL_THICK
 62
     7
 10
186.03822199999999
 20
146.57784899999999
 30
0.0
 11
186.03822199999999
 21
147.35748899999999
 31
0.0
  0
LINE
  5
38A
  8
0
  6
PHL_THICK
 62
     7
 10
186.03822199999999
 20
116.357489
 30
0.0
 11
186.03822199999999
 21
117.1371289999999
 31
0.0
  0
LINE
  5
38B
  8
0
  6
PHL_THICK
 62
     7
 10
187.23788900000011
 20
113.557489
 30
0.0
 11
187.23788900000011
 21
117.1871289999999
 31
0.0
  0
LINE
  5
38C
  8
0
  6
PHL_THICK
 62
     7
 10
187.23822299999989
 20
146.5275179999999
 30
0.0
 11
187.23822299999989
 21
150.15715599999999
 31
0.0
  0
LINE
  5
38D
  8
0
  6
PHL_THICK
 62
     7
 10
191.53822199999999
 20
125.107489
 30
0.0
 11
191.53822199999999
 21
126.857489
 31
0.0
  0
LINE
  5
38E
  8
0
  6
PHL_THICK
 62
     7
 10
191.53822199999999
 20
136.85748899999999
 30
0.0
 11
191.53822199999999
 21
138.60748899999999
 31
0.0
  0
LINE
  5
38F
  8
0
  6
PHL_THICK
 62
     7
 10
194.03822199999999
 20
124.357489
 30
0.0
 11
194.03822199999999
 21
124.607489
 31
0.0
  0
LINE
  5
390
  8
0
  6
PHL_THICK
 62
     7
 10
194.03822199999999
 20
139.10748899999999
 30
0.0
 11
194.03822199999999
 21
139.35748899999999
 31
0.0
  0
LINE
  5
391
  8
0
  6
PHL_THICK
 62
     7
 10
194.83788899999999
 20
115.857489
 30
0.0
 11
194.83788899999999
 21
120.1574889999999
 31
0.0
  0
LINE
  5
392
  8
0
  6
PHL_THICK
 62
     7
 10
194.838221
 20
143.55715599999999
 30
0.0
 11
194.838221
 21
147.85715699999989
 31
0.0
  0
LINE
  5
393
  8
0
  6
PHL_THICK
 62
     7
 10
196.03822199999991
 20
115.857489
 30
0.0
 11
196.03822199999991
 21
126.357489
 31
0.0
  0
LINE
  5
394
  8
0
  6
PHL_THICK
 62
     7
 10
196.03822199999991
 20
137.35748899999999
 30
0.0
 11
196.03822199999991
 21
147.85748899999999
 31
0.0
  0
ARC
  5
395
  8
0
  6
PHL_THICK
 62
     7
 10
147.438222
 20
121.5174890000001
 30
0.0
 40
25.000000087992021
 50
36.641928143052667
 51
52.881707407739952
  0
ARC
  5
396
  8
0
  6
PHL_THICK
 62
     7
 10
147.438222
 20
142.1974889999999
 30
0.0
 40
25.000000335126281
 50
307.1182925922601
 51
323.35807185694739
  0
ARC
  5
397
  8
0
  6
PHL_THICK
 62
     7
 10
147.48822200000001
 20
121.5174890000001
 30
0.0
 40
26.199999999999999
 50
36.869897645841583
 51
47.197060108431167
  0
ARC
  5
398
  8
0
  6
PHL_THICK
 62
     7
 10
147.48822200000001
 20
142.1974889999999
 30
0.0
 40
26.20000030092141
 50
312.80293989156883
 51
323.1301023541584
  0
ARC
  5
399
  8
0
  6
PHL_THICK
 62
     7
 10
157.53822199999999
 20
126.357489
 30
0.0
 40
1.5
 50
90.0
 51
180.0
  0
ARC
  5
39A
  8
0
  6
PHL_THICK
 62
     7
 10
157.53822199999999
 20
137.35748899999999
 30
0.0
 40
1.5
 50
180.0
 51
270.0
  0
ARC
  5
39B
  8
0
  6
PHL_THICK
 62
     7
 10
157.73822200000001
 20
120.1578219999999
 30
0.0
 40
0.5
 50
90.0
 51
180.0
  0
ARC
  5
39C
  8
0
  6
PHL_THICK
 62
     7
 10
157.73855499999999
 20
143.557489
 30
0.0
 40
0.5
 50
180.0
 51
270.0
  0
ARC
  5
39D
  8
0
  6
PHL_THICK
 62
     7
 10
158.28822199999999
 20
124.607489
 30
0.0
 40
0.25
 50
90.0
 51
180.0
  0
ARC
  5
39E
  8
0
  6
PHL_THICK
 62
     7
 10
158.28822199999999
 20
139.10748899999999
 30
0.0
 40
0.25
 50
180.0
 51
270.0
  0
ARC
  5
39F
  8
0
  6
PHL_THICK
 62
     7
 10
159.53822199999999
 20
126.857489
 30
0.0
 40
1.0
 50
0.0
 51
90.0
  0
ARC
  5
3A0
  8
0
  6
PHL_THICK
 62
     7
 10
159.53822199999999
 20
136.85748899999999
 30
0.0
 40
1.0
 50
270.0
 51
0.0
  0
ARC
  5
3A1
  8
0
  6
PHL_THICK
 62
     7
 10
160.03822199999999
 20
115.857489
 30
0.0
 40
4.0
 50
180.0
 51
270.0
  0
ARC
  5
3A2
  8
0
  6
PHL_THICK
 62
     7
 10
160.03822199999999
 20
115.8578219999999
 30
0.0
 40
2.7999999999999989
 50
180.0
 51
270.0
  0
ARC
  5
3A3
  8
0
  6
PHL_THICK
 62
     7
 10
160.03822199999999
 20
147.85748899999999
 30
0.0
 40
4.0
 50
90.0
 51
180.0
  0
ARC
  5
3A4
  8
0
  6
PHL_THICK
 62
     7
 10
160.03855499999989
 20
147.85748899999999
 30
0.0
 40
2.7999999999999972
 50
90.0
 51
180.0
  0
ARC
  5
3A5
  8
0
  6
PHL_THICK
 62
     7
 10
160.28822199999999
 20
125.107489
 30
0.0
 40
0.25
 50
270.0
 51
0.0
  0
ARC
  5
3A6
  8
0
  6
PHL_THICK
 62
     7
 10
160.28822199999999
 20
138.60748899999999
 30
0.0
 40
0.25
 50
0.0
 51
90.0
  0
ARC
  5
3A7
  8
0
  6
PHL_THICK
 62
     7
 10
160.53822199999999
 20
124.357489
 30
0.0
 40
2.5
 50
180.0
 51
270.0
  0
ARC
  5
3A8
  8
0
  6
PHL_THICK
 62
     7
 10
160.53822199999999
 20
139.35748899999999
 30
0.0
 40
2.5
 50
90.0
 51
180.0
  0
ARC
  5
3A9
  8
0
  6
PHL_THICK
 62
     7
 10
161.31786199999991
 20
123.857489
 30
0.0
 40
2.0
 50
270.0
 51
307.11829264461841
  0
ARC
  5
3AA
  8
0
  6
PHL_THICK
 62
     7
 10
161.31786199999991
 20
139.85748899999999
 30
0.0
 40
2.0000001931784901
 50
52.881707355381629
 51
90.0
  0
ARC
  5
3AB
  8
0
  6
PHL_THICK
 62
     7
 10
161.36786199999989
 20
123.8578219999999
 30
0.0
 40
3.1999999999999988
 50
270.0
 51
307.11829270944622
  0
ARC
  5
3AC
  8
0
  6
PHL_THICK
 62
     7
 10
161.3681950000001
 20
139.85748899999999
 30
0.0
 40
3.1999996711724821
 50
52.881707290553827
 51
90.0
  0
ARC
  5
3AD
  8
0
  6
PHL_THICK
 62
     7
 10
163.95044799999991
 20
121.17675800000001
 30
0.0
 40
0.4999994476176941
 50
44.999998379438267
 51
128.06556124982001
  0
ARC
  5
3AE
  8
0
  6
PHL_THICK
 62
     7
 10
163.95078100000009
 20
142.53855300000009
 30
0.0
 40
0.4999998593699817
 50
231.93443875017999
 51
314.99999999999108
  0
ARC
  5
3AF
  8
0
  6
PHL_THICK
 62
     7
 10
164.28822199999999
 20
129.597489
 30
0.0
 40
5.2000000000000002
 50
323.1301023541584
 51
352.54054548364809
  0
ARC
  5
3B0
  8
0
  6
PHL_THICK
 62
     7
 10
164.28822199999999
 20
129.66443299999989
 30
0.0
 40
4.0000002618221151
 50
323.35807183278592
 51
0.0
  0
ARC
  5
3B1
  8
0
  6
PHL_THICK
 62
     7
 10
164.28822199999999
 20
134.050545
 30
0.0
 40
4.0
 50
0.0
 51
36.64192816721409
  0
ARC
  5
3B2
  8
0
  6
PHL_THICK
 62
     7
 10
164.28822199999999
 20
134.11748900000001
 30
0.0
 40
5.199999741519993
 50
7.4594545163519994
 51
36.869897645841583
  0
ARC
  5
3B3
  8
0
  6
PHL_THICK
 62
     7
 10
164.33822199999989
 20
113.557822
 30
0.0
 40
0.5
 50
270.0
 51
0.0
  0
ARC
  5
3B4
  8
0
  6
PHL_THICK
 62
     7
 10
164.3385549999999
 20
150.15748899999991
 30
0.0
 40
0.5
 50
0.0
 51
90.0
  0
ARC
  5
3B5
  8
0
  6
PHL_THICK
 62
     7
 10
165.35715799999991
 20
119.7700480000001
 30
0.0
 40
0.4999998593699803
 50
321.93443875017942
 51
44.9999999999905
  0
ARC
  5
3B6
  8
0
  6
PHL_THICK
 62
     7
 10
165.3574910000001
 20
143.94526300000001
 30
0.0
 40
0.4999994476176936
 50
314.99999837943892
 51
38.065561249820632
  0
ARC
  5
3B7
  8
0
  6
PHL_THICK
 62
     7
 10
165.63031000000009
 20
122.6078319999999
 30
0.0
 40
0.4999993095295233
 50
132.80294027747951
 51
225.0000000000006
  0
ARC
  5
3B8
  8
0
  6
PHL_THICK
 62
     7
 10
165.63031000000009
 20
141.107146
 30
0.0
 40
0.4999994476176946
 50
135.00000000000861
 51
227.1970597225118
  0
ARC
  5
3B9
  8
0
  6
PHL_THICK
 62
     7
 10
165.6982220000001
 20
103.25748900000001
 30
0.0
 40
25.000000335126281
 50
37.118292592259742
 51
53.35807185694734
  0
ARC
  5
3BA
  8
0
  6
PHL_THICK
 62
     7
 10
165.6982220000001
 20
103.307489
 30
0.0
 40
26.20000030092141
 50
42.802939891567959
 51
53.130102354158673
  0
ARC
  5
3BB
  8
0
  6
PHL_THICK
 62
     7
 10
165.6982220000001
 20
160.40748899999991
 30
0.0
 40
26.199999999999999
 50
306.86989764584058
 51
317.19706010843203
  0
ARC
  5
3BC
  8
0
  6
PHL_THICK
 62
     7
 10
165.6982220000001
 20
160.4574889999999
 30
0.0
 40
25.000000087992021
 50
306.64192814305272
 51
322.88170740774018
  0
ARC
  5
3BD
  8
0
  6
PHL_THICK
 62
     7
 10
166.78856499999989
 20
121.4495770000001
 30
0.0
 40
0.4999994476176946
 50
225.00000000000981
 51
317.1970597225112
  0
ARC
  5
3BE
  8
0
  6
PHL_THICK
 62
     7
 10
166.78856499999989
 20
142.26540099999991
 30
0.0
 40
0.4999993095295245
 50
42.802940277480097
 51
134.9999999999994
  0
ARC
  5
3BF
  8
0
  6
PHL_THICK
 62
     7
 10
168.03822199999999
 20
117.1371289999999
 30
0.0
 40
2.0000001931784901
 50
142.8817073553825
 51
180.0
  0
ARC
  5
3C0
  8
0
  6
PHL_THICK
 62
     7
 10
168.03822199999999
 20
117.1874620000001
 30
0.0
 40
3.1999996711724821
 50
142.8817072905544
 51
180.0
  0
ARC
  5
3C1
  8
0
  6
PHL_THICK
 62
     7
 10
168.03822199999999
 20
146.57784899999999
 30
0.0
 40
2.0
 50
180.0
 51
217.1182926446175
  0
ARC
  5
3C2
  8
0
  6
PHL_THICK
 62
     7
 10
168.03855499999989
 20
146.527849
 30
0.0
 40
3.1999999999999988
 50
180.0
 51
217.1182927094456
  0
ARC
  5
3C3
  8
0
  6
PHL_THICK
 62
     7
 10
168.53822199999999
 20
116.357489
 30
0.0
 40
2.5
 50
180.0
 51
270.0
  0
ARC
  5
3C4
  8
0
  6
PHL_THICK
 62
     7
 10
168.53822199999999
 20
147.35748899999999
 30
0.0
 40
2.5
 50
90.0
 51
180.0
  0
ARC
  5
3C5
  8
0
  6
PHL_THICK
 62
     7
 10
168.78822199999999
 20
114.107489
 30
0.0
 40
0.25
 50
270.0
 51
0.0
  0
ARC
  5
3C6
  8
0
  6
PHL_THICK
 62
     7
 10
168.78822199999999
 20
149.60748899999999
 30
0.0
 40
0.25
 50
0.0
 51
90.0
  0
ARC
  5
3C7
  8
0
  6
PHL_THICK
 62
     7
 10
169.28822199999999
 20
116.107489
 30
0.0
 40
0.25
 50
90.0
 51
180.0
  0
ARC
  5
3C8
  8
0
  6
PHL_THICK
 62
     7
 10
169.28822199999999
 20
147.60748899999999
 30
0.0
 40
0.25
 50
180.0
 51
270.0
  0
ARC
  5
3C9
  8
0
  6
PHL_THICK
 62
     7
 10
169.9399830000001
 20
128.85748899999999
 30
0.0
 40
0.5
 50
90.0
 51
172.5405455653316
  0
ARC
  5
3CA
  8
0
  6
PHL_THICK
 62
     7
 10
169.9399830000001
 20
134.85748899999999
 30
0.0
 40
0.4999994775677268
 50
187.4594544346684
 51
270.0
  0
ARC
  5
3CB
  8
0
  6
PHL_THICK
 62
     7
 10
170.53822199999999
 20
113.357489
 30
0.0
 40
1.5
 50
270.0
 51
0.0
  0
ARC
  5
3CC
  8
0
  6
PHL_THICK
 62
     7
 10
170.53822199999999
 20
150.35748899999999
 30
0.0
 40
1.5
 50
0.0
 51
90.0
  0
ARC
  5
3CD
  8
0
  6
PHL_THICK
 62
     7
 10
171.03822199999999
 20
115.357489
 30
0.0
 40
1.0
 50
0.0
 51
90.0
  0
ARC
  5
3CE
  8
0
  6
PHL_THICK
 62
     7
 10
171.03822199999999
 20
148.35748899999999
 30
0.0
 40
1.0
 50
270.0
 51
0.0
  0
ARC
  5
3CF
  8
0
  6
PHL_THICK
 62
     7
 10
171.42844999999991
 20
128.85748899999999
 30
0.0
 40
0.4999996814288991
 50
33.055731051688063
 51
90.0
  0
ARC
  5
3D0
  8
0
  6
PHL_THICK
 62
     7
 10
171.42844999999991
 20
134.85748899999999
 30
0.0
 40
0.5
 50
270.0
 51
326.94426894830201
  0
ARC
  5
3D1
  8
0
  6
PHL_THICK
 62
     7
 10
173.03822199999999
 20
125.75925000000009
 30
0.0
 40
0.4999994775677268
 50
277.45945443466849
 51
0.0
  0
ARC
  5
3D2
  8
0
  6
PHL_THICK
 62
     7
 10
173.03822199999999
 20
127.24771699999989
 30
0.0
 40
0.5
 50
0.0
 51
56.944268948301122
  0
ARC
  5
3D3
  8
0
  6
PHL_THICK
 62
     7
 10
173.03822199999999
 20
136.46726100000001
 30
0.0
 40
0.4999996814288976
 50
303.05573105168708
 51
0.0
  0
ARC
  5
3D4
  8
0
  6
PHL_THICK
 62
     7
 10
173.03822199999999
 20
137.95572799999991
 30
0.0
 40
0.5
 50
0.0
 51
82.540545565331513
  0
ARC
  5
3D5
  8
0
  6
PHL_THICK
 62
     7
 10
173.778222
 20
120.107489
 30
0.0
 40
5.199999741519993
 50
97.459454516352039
 51
126.86989764584131
  0
ARC
  5
3D6
  8
0
  6
PHL_THICK
 62
     7
 10
173.778222
 20
143.60748899999999
 30
0.0
 40
5.2000000000000002
 50
233.13010235415871
 51
262.54054548364797
  0
ARC
  5
3D7
  8
0
  6
PHL_THICK
 62
     7
 10
173.84516599999989
 20
120.107489
 30
0.0
 40
4.0
 50
90.0
 51
126.64192816721319
  0
ARC
  5
3D8
  8
0
  6
PHL_THICK
 62
     7
 10
173.84516599999989
 20
143.60748899999999
 30
0.0
 40
4.000000261822116
 50
233.35807183278681
 51
270.0
  0
CIRCLE
  5
3D9
  8
0
  6
PHL_THICK
 62
     7
 10
176.03822199999999
 20
131.85748899999999
 30
0.0
 40
3.3999999999999981
  0
ARC
  5
3DA
  8
0
  6
PHL_THICK
 62
     7
 10
176.03822199999999
 20
131.85748899999999
 30
0.0
 40
5.0000001269333003
 50
303.05573115231419
 51
326.94426884768609
  0
ARC
  5
3DB
  8
0
  6
PHL_THICK
 62
     7
 10
176.03822199999999
 20
131.85748899999999
 30
0.0
 40
5.0000001269332977
 50
213.05573115231439
 51
236.94426884768581
  0
ARC
  5
3DC
  8
0
  6
PHL_THICK
 62
     7
 10
176.03822199999999
 20
131.85748899999999
 30
0.0
 40
5.0000001269332959
 50
123.05573115231419
 51
146.94426884768561
  0
ARC
  5
3DD
  8
0
  6
PHL_THICK
 62
     7
 10
176.03822199999999
 20
131.85748899999999
 30
0.0
 40
5.0000001269333003
 50
33.055731152313967
 51
56.944268847685812
  0
ARC
  5
3DE
  8
0
  6
PHL_THICK
 62
     7
 10
178.231278
 20
120.107489
 30
0.0
 40
4.0000002618221151
 50
53.358071832786813
 51
90.0
  0
ARC
  5
3DF
  8
0
  6
PHL_THICK
 62
     7
 10
178.231278
 20
143.60748899999999
 30
0.0
 40
4.0
 50
270.0
 51
306.64192816721322
  0
ARC
  5
3E0
  8
0
  6
PHL_THICK
 62
     7
 10
178.29822200000001
 20
120.107489
 30
0.0
 40
5.2000000000000002
 50
53.130102354158673
 51
82.540545483647975
  0
ARC
  5
3E1
  8
0
  6
PHL_THICK
 62
     7
 10
178.29822200000001
 20
143.60748899999999
 30
0.0
 40
5.1999997415199912
 50
277.45945451635203
 51
306.86989764584058
  0
ARC
  5
3E2
  8
0
  6
PHL_THICK
 62
     7
 10
179.03822199999999
 20
125.75925000000009
 30
0.0
 40
0.5
 50
180.0
 51
262.54054556533151
  0
ARC
  5
3E3
  8
0
  6
PHL_THICK
 62
     7
 10
179.03822199999999
 20
127.24771699999989
 30
0.0
 40
0.4999996814288991
 50
123.0557310516871
 51
180.0
  0
ARC
  5
3E4
  8
0
  6
PHL_THICK
 62
     7
 10
179.03822199999999
 20
136.46726100000001
 30
0.0
 40
0.5
 50
180.0
 51
236.94426894830201
  0
ARC
  5
3E5
  8
0
  6
PHL_THICK
 62
     7
 10
179.03822199999999
 20
137.95572799999991
 30
0.0
 40
0.4999994775677268
 50
97.459454434668487
 51
180.0
  0
ARC
  5
3E6
  8
0
  6
PHL_THICK
 62
     7
 10
180.64799400000001
 20
128.85748899999999
 30
0.0
 40
0.5
 50
90.0
 51
146.94426894830201
  0
ARC
  5
3E7
  8
0
  6
PHL_THICK
 62
     7
 10
180.64799400000001
 20
134.85748899999999
 30
0.0
 40
0.4999996814288976
 50
213.05573105168801
 51
270.0
  0
ARC
  5
3E8
  8
0
  6
PHL_THICK
 62
     7
 10
181.03822199999999
 20
115.357489
 30
0.0
 40
1.0
 50
90.0
 51
180.0
  0
ARC
  5
3E9
  8
0
  6
PHL_THICK
 62
     7
 10
181.03822199999999
 20
148.35748899999999
 30
0.0
 40
1.0
 50
180.0
 51
270.0
  0
ARC
  5
3EA
  8
0
  6
PHL_THICK
 62
     7
 10
181.53822199999999
 20
113.357489
 30
0.0
 40
1.5
 50
180.0
 51
270.0
  0
ARC
  5
3EB
  8
0
  6
PHL_THICK
 62
     7
 10
181.53822199999999
 20
150.35748899999999
 30
0.0
 40
1.5
 50
90.0
 51
180.0
  0
ARC
  5
3EC
  8
0
  6
PHL_THICK
 62
     7
 10
182.13646099999991
 20
128.85748899999999
 30
0.0
 40
0.4999994775677268
 50
7.4594544346684319
 51
90.0
  0
ARC
  5
3ED
  8
0
  6
PHL_THICK
 62
     7
 10
182.13646099999991
 20
134.85748899999999
 30
0.0
 40
0.5
 50
270.0
 51
352.54054556533163
  0
ARC
  5
3EE
  8
0
  6
PHL_THICK
 62
     7
 10
182.78822199999999
 20
116.107489
 30
0.0
 40
0.25
 50
0.0
 51
90.0
  0
ARC
  5
3EF
  8
0
  6
PHL_THICK
 62
     7
 10
182.78822199999999
 20
147.60748899999999
 30
0.0
 40
0.25
 50
270.0
 51
0.0
  0
ARC
  5
3F0
  8
0
  6
PHL_THICK
 62
     7
 10
183.28822199999999
 20
114.107489
 30
0.0
 40
0.25
 50
180.0
 51
270.0
  0
ARC
  5
3F1
  8
0
  6
PHL_THICK
 62
     7
 10
183.28822199999999
 20
149.60748899999999
 30
0.0
 40
0.25
 50
90.0
 51
180.0
  0
ARC
  5
3F2
  8
0
  6
PHL_THICK
 62
     7
 10
183.53822199999991
 20
116.357489
 30
0.0
 40
2.5
 50
270.0
 51
0.0
  0
ARC
  5
3F3
  8
0
  6
PHL_THICK
 62
     7
 10
183.53822199999991
 20
147.35748899999999
 30
0.0
 40
2.5
 50
0.0
 51
90.0
  0
ARC
  5
3F4
  8
0
  6
PHL_THICK
 62
     7
 10
184.03788900000001
 20
117.1871289999999
 30
0.0
 40
3.1999999999999988
 50
0.0
 51
37.118292709445612
  0
ARC
  5
3F5
  8
0
  6
PHL_THICK
 62
     7
 10
184.03822199999999
 20
117.1371289999999
 30
0.0
 40
2.0
 50
0.0
 51
37.118292644617469
  0
ARC
  5
3F6
  8
0
  6
PHL_THICK
 62
     7
 10
184.03822199999999
 20
146.52751599999991
 30
0.0
 40
3.1999996711724812
 50
322.8817072905544
 51
0.0
  0
ARC
  5
3F7
  8
0
  6
PHL_THICK
 62
     7
 10
184.03822199999999
 20
146.57784899999999
 30
0.0
 40
2.0000001931784901
 50
322.8817073553825
 51
0.0
  0
ARC
  5
3F8
  8
0
  6
PHL_THICK
 62
     7
 10
185.287879
 20
121.4495770000001
 30
0.0
 40
0.499999309529522
 50
222.8029402774801
 51
315.00000000000028
  0
ARC
  5
3F9
  8
0
  6
PHL_THICK
 62
     7
 10
185.287879
 20
142.26540099999991
 30
0.0
 40
0.4999994476176946
 50
45.000000000008917
 51
137.1970597225112
  0
ARC
  5
3FA
  8
0
  6
PHL_THICK
 62
     7
 10
186.37822199999991
 20
103.25748900000001
 30
0.0
 40
25.000000087992021
 50
126.6419281430526
 51
142.88170740774021
  0
ARC
  5
3FB
  8
0
  6
PHL_THICK
 62
     7
 10
186.37822199999991
 20
103.307489
 30
0.0
 40
26.199999999999999
 50
126.86989764584131
 51
137.197060108432
  0
ARC
  5
3FC
  8
0
  6
PHL_THICK
 62
     7
 10
186.37822199999991
 20
160.40748899999991
 30
0.0
 40
26.20000030092141
 50
222.802939891568
 51
233.13010235415871
  0
ARC
  5
3FD
  8
0
  6
PHL_THICK
 62
     7
 10
186.37822199999991
 20
160.4574889999999
 30
0.0
 40
25.000000335126281
 50
217.11829259225971
 51
233.35807185694739
  0
ARC
  5
3FE
  8
0
  6
PHL_THICK
 62
     7
 10
186.44613399999989
 20
122.6078319999999
 30
0.0
 40
0.4999994476176946
 50
315.00000000000949
 51
47.197059722511817
  0
ARC
  5
3FF
  8
0
  6
PHL_THICK
 62
     7
 10
186.44613399999989
 20
141.107146
 30
0.0
 40
0.4999993095295233
 50
312.80294027747948
 51
44.999999999999709
  0
ARC
  5
400
  8
0
  6
PHL_THICK
 62
     7
 10
186.71895299999991
 20
119.76971499999991
 30
0.0
 40
0.4999994476176954
 50
134.99999837943801
 51
218.065561249821
  0
ARC
  5
401
  8
0
  6
PHL_THICK
 62
     7
 10
186.7192860000001
 20
143.9449299999998
 30
0.0
 40
0.4999998593699772
 50
141.934438750179
 51
224.99999999999139
  0
ARC
  5
402
  8
0
  6
PHL_THICK
 62
     7
 10
187.73788900000011
 20
113.557489
 30
0.0
 40
0.5
 50
180.0
 51
270.0
  0
ARC
  5
403
  8
0
  6
PHL_THICK
 62
     7
 10
187.73822200000001
 20
150.15715599999999
 30
0.0
 40
0.5
 50
90.0
 51
180.0
  0
ARC
  5
404
  8
0
  6
PHL_THICK
 62
     7
 10
187.78822199999999
 20
129.597489
 30
0.0
 40
5.1999997415199921
 50
187.459454516352
 51
216.8698976458416
  0
ARC
  5
405
  8
0
  6
PHL_THICK
 62
     7
 10
187.78822199999999
 20
129.66443299999989
 30
0.0
 40
4.0
 50
180.0
 51
216.64192816721371
  0
ARC
  5
406
  8
0
  6
PHL_THICK
 62
     7
 10
187.78822199999999
 20
134.050545
 30
0.0
 40
4.0000002618221151
 50
143.35807183278621
 51
180.0
  0
ARC
  5
407
  8
0
  6
PHL_THICK
 62
     7
 10
187.78822199999999
 20
134.11748900000001
 30
0.0
 40
5.2000000000000002
 50
143.1301023541584
 51
172.540545483648
  0
ARC
  5
408
  8
0
  6
PHL_THICK
 62
     7
 10
188.12566299999989
 20
121.1764249999998
 30
0.0
 40
0.4999998593699786
 50
51.934438750180192
 51
134.99999999999019
  0
ARC
  5
409
  8
0
  6
PHL_THICK
 62
     7
 10
188.1259960000001
 20
142.53821999999991
 30
0.0
 40
0.4999994476176949
 50
224.99999837943921
 51
308.06556124981978
  0
ARC
  5
40A
  8
0
  6
PHL_THICK
 62
     7
 10
190.7082489999998
 20
123.857489
 30
0.0
 40
3.1999996711724812
 50
232.88170729055381
 51
270.0
  0
ARC
  5
40B
  8
0
  6
PHL_THICK
 62
     7
 10
190.70858200000001
 20
139.857156
 30
0.0
 40
3.1999999999999988
 50
90.0
 51
127.11829270944619
  0
ARC
  5
40C
  8
0
  6
PHL_THICK
 62
     7
 10
190.75858199999999
 20
123.857489
 30
0.0
 40
2.0000001931784901
 50
232.88170735538171
 51
270.0
  0
ARC
  5
40D
  8
0
  6
PHL_THICK
 62
     7
 10
190.75858199999999
 20
139.85748899999999
 30
0.0
 40
2.0
 50
90.0
 51
127.11829264461829
  0
ARC
  5
40E
  8
0
  6
PHL_THICK
 62
     7
 10
191.53822199999999
 20
124.357489
 30
0.0
 40
2.5
 50
270.0
 51
0.0
  0
ARC
  5
40F
  8
0
  6
PHL_THICK
 62
     7
 10
191.53822199999999
 20
139.35748899999999
 30
0.0
 40
2.5
 50
0.0
 51
90.0
  0
ARC
  5
410
  8
0
  6
PHL_THICK
 62
     7
 10
191.78822199999999
 20
125.107489
 30
0.0
 40
0.25
 50
180.0
 51
270.0
  0
ARC
  5
411
  8
0
  6
PHL_THICK
 62
     7
 10
191.78822199999999
 20
138.60748899999999
 30
0.0
 40
0.25
 50
90.0
 51
180.0
  0
ARC
  5
412
  8
0
  6
PHL_THICK
 62
     7
 10
192.03788900000001
 20
115.857489
 30
0.0
 40
2.7999999999999989
 50
270.0
 51
0.0
  0
ARC
  5
413
  8
0
  6
PHL_THICK
 62
     7
 10
192.03822199999999
 20
115.857489
 30
0.0
 40
4.0
 50
270.0
 51
0.0
  0
ARC
  5
414
  8
0
  6
PHL_THICK
 62
     7
 10
192.03822199999999
 20
147.857156
 30
0.0
 40
2.7999999999999972
 50
0.0
 51
90.0
  0
ARC
  5
415
  8
0
  6
PHL_THICK
 62
     7
 10
192.03822199999999
 20
147.85748899999999
 30
0.0
 40
4.0
 50
0.0
 51
90.0
  0
ARC
  5
416
  8
0
  6
PHL_THICK
 62
     7
 10
192.53822199999999
 20
126.857489
 30
0.0
 40
1.0
 50
90.0
 51
180.0
  0
ARC
  5
417
  8
0
  6
PHL_THICK
 62
     7
 10
192.53822199999999
 20
136.85748899999999
 30
0.0
 40
1.0
 50
180.0
 51
270.0
  0
ARC
  5
418
  8
0
  6
PHL_THICK
 62
     7
 10
193.78822199999999
 20
124.607489
 30
0.0
 40
0.25
 50
0.0
 51
90.0
  0
ARC
  5
419
  8
0
  6
PHL_THICK
 62
     7
 10
193.78822199999999
 20
139.10748899999999
 30
0.0
 40
0.25
 50
270.0
 51
0.0
  0
ARC
  5
41A
  8
0
  6
PHL_THICK
 62
     7
 10
194.33788899999999
 20
120.1574889999999
 30
0.0
 40
0.5
 50
0.0
 51
90.0
  0
ARC
  5
41B
  8
0
  6
PHL_THICK
 62
     7
 10
194.33822199999989
 20
143.55715599999999
 30
0.0
 40
0.5
 50
270.0
 51
0.0
  0
ARC
  5
41C
  8
0
  6
PHL_THICK
 62
     7
 10
194.53822199999999
 20
126.357489
 30
0.0
 40
1.5
 50
0.0
 51
90.0
  0
ARC
  5
41D
  8
0
  6
PHL_THICK
 62
     7
 10
194.53822199999999
 20
137.35748899999999
 30
0.0
 40
1.5
 50
270.0
 51
0.0
  0
ARC
  5
41E
  8
0
  6
PHL_THICK
 62
     7
 10
204.58822199999989
 20
121.5174890000001
 30
0.0
 40
26.20000030092141
 50
132.8029398915688
 51
143.1301023541584
  0
ARC
  5
41F
  8
0
  6
PHL_THICK
 62
     7
 10
204.58822199999989
 20
142.1974889999999
 30
0.0
 40
26.199999999999999
 50
216.8698976458416
 51
227.1970601084312
  0
ARC
  5
420
  8
0
  6
PHL_THICK
 62
     7
 10
204.6382219999999
 20
121.5174890000001
 30
0.0
 40
25.000000335126281
 50
127.11829259226
 51
143.3580718569473
  0
ARC
  5
421
  8
0
  6
PHL_THICK
 62
     7
 10
204.6382219999999
 20
142.1974889999999
 30
0.0
 40
25.000000087992021
 50
216.6419281430527
 51
232.88170740774001
  0
TEXT
  5
4D8
  8
0
 62
     3
 10
0.0
 20
0.0
 30
0.0
 40
10.0
  1
SPE4040N-3M
  7
STANDARD1
  0
ENDSEC
  0
EOF
