  0
SECTION
  2
HEADER
  9
$ACADVER
  1
AC1009
  9
$INSBASE
 10
0.0
 20
0.0
 30
0.0
  9
$EXTMIN
 10
0.0
 20
-2.960436562073669
 30
0.0
  9
$EXTMAX
 10
250.0
 20
225.0
 30
0.0
  9
$LIMMIN
 10
0.0
 20
0.0
  9
$LIMMAX
 10
187.5
 20
135.0
  9
$ORTHOMODE
 70
     1
  9
$REGENMODE
 70
     1
  9
$FILLMODE
 70
     1
  9
$QTEXTMODE
 70
     0
  9
$MIRRTEXT
 70
     0
  9
$DRAGMODE
 70
     2
  9
$LTSCALE
 40
5.0
  9
$OSMODE
 70
    37
  9
$ATTMODE
 70
     1
  9
$TEXTSIZE
 40
2.0000000000000502
  9
$TRACEWID
 40
0.05
  9
$TEXTSTYLE
  7
STANDARD
  9
$CLAYER
  8
0
  9
$CELTYPE
  6
BYLAYER
  9
$CECOLOR
 62
   256
  9
$DIMSCALE
 40
0.5
  9
$DIMASZ
 40
3.0
  9
$DIMEXO
 40
2.0
  9
$DIMDLI
 40
0.38
  9
$DIMRND
 40
0.0
  9
$DIMDLE
 40
0.0
  9
$DIMEXE
 40
2.0
  9
$DIMTP
 40
0.0
  9
$DIMTM
 40
0.0
  9
$DIMTXT
 40
3.2000000000000002
  9
$DIMCEN
 40
0.0
  9
$DIMTSZ
 40
0.0
  9
$DIMTOL
 70
     0
  9
$DIMLIM
 70
     0
  9
$DIMTIH
 70
     0
  9
$DIMTOH
 70
     0
  9
$DIMSE1
 70
     0
  9
$DIMSE2
 70
     0
  9
$DIMTAD
 70
     1
  9
$DIMZIN
 70
     0
  9
$DIMBLK
  1

  9
$DIMASO
 70
     1
  9
$DIMSHO
 70
     0
  9
$DIMPOST
  1

  9
$DIMAPOST
  1

  9
$DIMALT
 70
     0
  9
$DIMALTD
 70
     2
  9
$DIMALTF
 40
25.399999999999999
  9
$DIMLFAC
 40
1.0
  9
$DIMTOFL
 70
     1
  9
$DIMTVP
 40
1.6000000000000001
  9
$DIMTIX
 70
     1
  9
$DIMSOXD
 70
     0
  9
$DIMSAH
 70
     0
  9
$DIMBLK1
  1

  9
$DIMBLK2
  1

  9
$DIMSTYLE
  2
STANDARD
  9
$DIMCLRD
 70
     0
  9
$DIMCLRE
 70
     0
  9
$DIMCLRT
 70
     0
  9
$DIMTFAC
 40
1.0
  9
$DIMGAP
 40
0.09
  9
$LUNITS
 70
     2
  9
$LUPREC
 70
     4
  9
$SKETCHINC
 40
0.1
  9
$FILLETRAD
 40
0.0
  9
$AUNITS
 70
     0
  9
$AUPREC
 70
     4
  9
$MENU
  1
E:\r13\win\SUPPORT\ACAD
  9
$ELEVATION
 40
0.0
  9
$PELEVATION
 40
0.0
  9
$THICKNESS
 40
0.0
  9
$LIMCHECK
 70
     0
  9
$BLIPMODE
 70
     0
  9
$CHAMFERA
 40
0.0
  9
$CHAMFERB
 40
0.0
  9
$SKPOLY
 70
     0
  9
$TDCREATE
 40
2449839.7947800928
  9
$TDUPDATE
 40
2458249.5925689698
  9
$TDINDWG
 40
0.0305094329
  9
$TDUSRTIMER
 40
0.0305094329
  9
$USRTIMER
 70
     1
  9
$ANGBASE
 50
0.0
  9
$ANGDIR
 70
     0
  9
$PDMODE
 70
     0
  9
$PDSIZE
 40
0.0
  9
$PLINEWID
 40
0.0
  9
$COORDS
 70
     1
  9
$SPLFRAME
 70
     0
  9
$SPLINETYPE
 70
     6
  9
$SPLINESEGS
 70
     8
  9
$ATTDIA
 70
     0
  9
$ATTREQ
 70
     1
  9
$HANDLING
 70
     1
  9
$HANDSEED
  5
6A0
  9
$SURFTAB1
 70
     6
  9
$SURFTAB2
 70
     6
  9
$SURFTYPE
 70
     6
  9
$SURFU
 70
     6
  9
$SURFV
 70
     6
  9
$UCSNAME
  2

  9
$UCSORG
 10
0.0
 20
0.0
 30
0.0
  9
$UCSXDIR
 10
1.0
 20
0.0
 30
0.0
  9
$UCSYDIR
 10
0.0
 20
1.0
 30
0.0
  9
$PUCSNAME
  2

  9
$PUCSORG
 10
0.0
 20
0.0
 30
0.0
  9
$PUCSXDIR
 10
1.0
 20
0.0
 30
0.0
  9
$PUCSYDIR
 10
0.0
 20
1.0
 30
0.0
  9
$USERI1
 70
     0
  9
$USERI2
 70
     1
  9
$USERI3
 70
     1
  9
$USERI4
 70
     0
  9
$USERI5
 70
     0
  9
$USERR1
 40
0.0
  9
$USERR2
 40
0.0
  9
$USERR3
 40
0.0
  9
$USERR4
 40
0.0
  9
$USERR5
 40
0.0
  9
$WORLDVIEW
 70
     1
  9
$SHADEDGE
 70
     3
  9
$SHADEDIF
 70
    70
  9
$TILEMODE
 70
     1
  9
$MAXACTVP
 70
    16
  9
$PLIMCHECK
 70
     0
  9
$PEXTMIN
 10
1.0000000000000000E+020
 20
1.0000000000000000E+020
 30
1.0000000000000000E+020
  9
$PEXTMAX
 10
-1.0000000000000000E+020
 20
-1.0000000000000000E+020
 30
-1.0000000000000000E+020
  9
$PLIMMIN
 10
0.0
 20
0.0
  9
$PLIMMAX
 10
12.0
 20
9.0
  9
$UNITMODE
 70
     0
  9
$VISRETAIN
 70
     0
  9
$PLINEGEN
 70
     0
  9
$PSLTSCALE
 70
     0
  0
ENDSEC
  0
SECTION
  2
TABLES
  0
TABLE
  2
VPORT
 70
     1
  0
VPORT
  2
*ACTIVE
 70
     0
 10
0.0
 20
0.0
 11
1.0
 21
1.0
 12
124.9971970036223
 22
115.44370927855771
 13
0.0
 23
0.0
 14
5.0
 24
5.0
 15
5.0
 25
5.0
 16
0.0
 26
0.0
 36
1.0
 17
0.0
 27
0.0
 37
0.0
 40
240.47483107806829
 41
2.0984455958549222
 42
50.0
 43
0.0
 44
0.0
 50
0.0
 51
0.0
 71
     0
 72
   500
 73
     1
 74
     0
 75
     0
 76
     0
 77
     0
 78
     2
  0
ENDTAB
  0
TABLE
  2
LTYPE
 70
     4
  0
LTYPE
  2
CONTINUOUS
 70
     0
  3
Solid Line
 72
    65
 73
     0
 40
0.0
  0
LTYPE
  2
CENTER
 70
     0
  3
____ _ ____ _ ____ _ ____ _ ____ _ ____ _ ____
 72
    65
 73
     4
 40
2.0
 49
1.25
 49
-0.25
 49
0.25
 49
-0.25
  0
LTYPE
  2
PHANTOM2
 70
     0
  3
___ _ _ ___ _ _ ___ _ _ ___ _ _
 72
    65
 73
     6
 40
1.25
 49
0.625
 49
-0.125
 49
0.125
 49
-0.125
 49
0.125
 49
-0.125
  0
LTYPE
  2
HIDDEN
 70
     0
  3
Hidden __ __ __ __ __ __ __ __ __ __ __ __ __ __
 72
    65
 73
     2
 40
1.905
 49
1.27
 49
-0.635
  0
ENDTAB
  0
TABLE
  2
LAYER
 70
     4
  0
LAYER
  2
0
 70
     0
 62
     7
  6
CONTINUOUS
  0
LAYER
  2
1
 70
     0
 62
     1
  6
CENTER
  0
LAYER
  2
3
 70
     0
 62
     3
  6
CONTINUOUS
  0
LAYER
  2
2
 70
     0
 62
     2
  6
HIDDEN
  0
ENDTAB
  0
TABLE
  2
STYLE
 70
     3
  0
STYLE
  2
STANDARD
 70
     0
 40
0.0
 41
1.0
 50
0.0
 71
     0
 42
2.0000000000000502
  3
TXT
  4
BIGFONT
  0
STYLE
  2
SIM180
 70
     0
 40
0.0
 41
1.8
 50
0.0
 71
     0
 42
0.8
  3
SIMPLEX
  4

  0
STYLE
  2
STANDARD1
 70
     0
 40
0.0
 41
1.0
 50
0.0
 71
     0
 42
3.0
  3
txt
  4

  0
ENDTAB
  0
TABLE
  2
VIEW
 70
     1
  0
VIEW
  2
ALL
 70
     0
 40
175.0
 10
143.23529411764699
 20
87.5
 41
0.0
 11
0.0
 21
0.0
 31
1.0
 12
0.0
 22
0.0
 32
0.0
 42
0.0
 43
0.0
 44
0.0
 50
0.0
 71
     0
  0
ENDTAB
  0
TABLE
  2
UCS
 70
     0
  0
ENDTAB
  0
TABLE
  2
APPID
 70
     4
  0
APPID
  2
ACAD
 70
     0
  0
APPID
  2
ACAD_MLEADERVER
 70
     0
  0
APPID
  2
ACAD_EXEMPT_FROM_CAD_STANDARDS
 70
     0
  0
APPID
  2
ACAD_NAV_VCDISPLAY
 70
     0
  0
ENDTAB
  0
TABLE
  2
DIMSTYLE
 70
     2
  0
DIMSTYLE
  2
STANDARD
 70
     0
  3

  4

  5

  6

  7

 40
1.0
 41
0.18
 42
0.0625
 43
0.38
 44
0.18
 45
0.0
 46
0.0
 47
0.0
 48
0.0
140
0.18
141
0.09
142
0.0
143
25.399999999999999
144
1.0
145
0.0
146
1.0
147
0.09
 71
     0
 72
     0
 73
     1
 74
     1
 75
     0
 76
     0
 77
     0
 78
     0
170
     0
171
     2
172
     0
173
     0
174
     0
175
     0
176
     0
177
     0
178
     0
  0
DIMSTYLE
  2
ISO-25
 70
     0
  3

  4

  5

  6

  7

 40
1.0
 41
2.5
 42
0.625
 43
3.75
 44
1.25
 45
0.0
 46
0.0
 47
0.0
 48
0.0
140
2.5
141
2.5
142
0.0
143
0.0393700787
144
1.0
145
0.0
146
1.0
147
0.625
 71
     0
 72
     0
 73
     0
 74
     0
 75
     0
 76
     0
 77
     1
 78
     8
170
     0
171
     3
172
     1
173
     0
174
     0
175
     0
176
     0
177
     0
178
     0
  0
ENDTAB
  0
ENDSEC
  0
SECTION
  2
BLOCKS
  0
BLOCK
  8
0
  2
$MODEL_SPACE
 70
     0
 10
0.0
 20
0.0
 30
0.0
  3
$MODEL_SPACE
  1

  0
ENDBLK
  5
120
  8
0
  0
BLOCK
 67
     1
  8
0
  2
$PAPER_SPACE
 70
     0
 10
0.0
 20
0.0
 30
0.0
  3
$PAPER_SPACE
  1

  0
ENDBLK
  5
11E
 67
     1
  8
0
  0
ENDSEC
  0
SECTION
  2
ENTITIES
  0
TEXT
  5
20C
  8
0
 62
     3
 10
0.0
 20
0.0
 30
0.0
 40
10.0
  1
SPA-3/4
  7
STANDARD1
  0
LINE
  5
38D
  8
0
 10
139.0
 20
10.0
 30
0.0
 11
140.5
 21
10.0
 31
0.0
  0
LINE
  5
38E
  8
0
 10
140.5
 20
45.0
 30
0.0
 11
139.0
 21
45.0
 31
0.0
  0
LINE
  5
391
  8
0
 10
142.6708810127999
 20
14.279500000000001
 30
0.0
 11
147.83799999999991
 21
14.279500000000001
 31
0.0
  0
LINE
  5
392
  8
0
 10
147.83799999999991
 20
40.720499999999987
 30
0.0
 11
142.67088101280001
 21
40.720499999999987
 31
0.0
  0
LINE
  5
393
  8
0
 10
147.83799999999991
 20
14.279500000000001
 30
0.0
 11
149.0
 21
15.4415
 31
0.0
  0
LINE
  5
394
  8
0
 10
149.0
 20
39.558500000000009
 30
0.0
 11
147.83799999999991
 21
40.720499999999987
 31
0.0
  0
LINE
  5
395
  8
0
 10
142.67088101280001
 20
40.720499999999987
 30
0.0
 11
142.0
 21
39.558500000000009
 31
0.0
  0
LINE
  5
396
  8
0
 10
142.0
 20
15.4415
 30
0.0
 11
142.6708810127999
 21
14.279500000000001
 31
0.0
  0
LINE
  5
397
  8
0
 10
140.5
 20
15.625
 30
0.0
 11
142.0
 21
16.25
 31
0.0
  0
LINE
  5
398
  8
0
 10
142.0
 20
38.75
 30
0.0
 11
140.5
 21
39.375
 31
0.0
  0
LINE
  5
399
  8
0
 10
131.3349364906
 20
24.748641143800018
 30
0.0
 11
138.25
 21
24.748641143800018
 31
0.0
  0
LINE
  5
39A
  8
0
 10
131.3349364906
 20
30.251358856300019
 30
0.0
 11
131.3349364906
 21
24.748641143800018
 31
0.0
  0
LINE
  5
39B
  8
0
 10
131.3349364906
 20
30.251358856300019
 30
0.0
 11
138.25
 21
30.251358856300019
 31
0.0
  0
POLYLINE
  5
39C
  8
0
 66
     1
 10
0.0
 20
0.0
 30
0.0
 70
   128
  0
VERTEX
  5
668
  8
0
 10
131.0
 20
36.0
 30
0.0
  0
VERTEX
  5
669
  8
0
 10
131.08600073829999
 20
33.125679428199987
 30
0.0
  0
VERTEX
  5
66A
  8
0
 10
131.3349364906
 20
30.251358856300019
 30
0.0
  0
SEQEND
  5
66B
  8
0
  0
POLYLINE
  5
39D
  8
0
 66
     1
 10
0.0
 20
0.0
 30
0.0
 70
   128
  0
VERTEX
  5
66C
  8
0
 10
131.3349364906
 20
24.748641143800018
 30
0.0
  0
VERTEX
  5
66D
  8
0
 10
131.08640682710001
 20
21.88116235
 30
0.0
  0
VERTEX
  5
66E
  8
0
 10
131.0
 20
19.0
 30
0.0
  0
SEQEND
  5
66F
  8
0
  0
LINE
  5
39E
  8
0
 10
131.33493649059989
 20
13.25135885630001
 30
0.0
 11
138.25
 21
13.25135885630001
 31
0.0
  0
POLYLINE
  5
39F
  8
0
 66
     1
 10
0.0
 20
0.0
 30
0.0
 70
   128
  0
VERTEX
  5
670
  8
0
 10
131.0
 20
19.0
 30
0.0
  0
VERTEX
  5
671
  8
0
 10
131.0860007382999
 20
16.125679428200002
 30
0.0
  0
VERTEX
  5
672
  8
0
 10
131.33493649059989
 20
13.25135885630001
 30
0.0
  0
SEQEND
  5
673
  8
0
  0
POLYLINE
  5
3A0
  8
0
 66
     1
 10
0.0
 20
0.0
 30
0.0
 70
   128
  0
VERTEX
  5
674
  8
0
 10
131.3349364906
 20
41.7486411438
 30
0.0
  0
VERTEX
  5
675
  8
0
 10
131.08640682710001
 20
38.881162350000011
 30
0.0
  0
VERTEX
  5
676
  8
0
 10
131.0
 20
36.0
 30
0.0
  0
SEQEND
  5
677
  8
0
  0
LINE
  5
3A1
  8
0
 10
131.3349364906
 20
41.7486411438
 30
0.0
 11
138.25
 21
41.7486411438
 31
0.0
  0
LINE
  5
3A2
  8
0
 10
140.5
 20
10.0
 30
0.0
 11
140.5
 21
45.0
 31
0.0
  0
LINE
  5
3A3
  8
0
 10
139.0
 20
10.0
 30
0.0
 11
139.0
 21
45.0
 31
0.0
  0
LINE
  5
3A4
  8
0
 10
131.3349364906
 20
44.5
 30
0.0
 11
131.3349364906
 21
41.7486411438
 31
0.0
  0
LINE
  5
3A5
  8
0
 10
131.0
 20
10.5
 30
0.0
 11
131.0
 21
44.5
 31
0.0
  0
LINE
  5
3A6
  8
0
 10
131.33493649059989
 20
13.25135885630001
 30
0.0
 11
131.33493649059989
 21
10.5
 31
0.0
  0
LINE
  5
3A7
  8
0
 10
147.83799999999991
 20
14.279500000000001
 30
0.0
 11
147.83799999999991
 21
40.720499999999987
 31
0.0
  0
LINE
  5
3A8
  8
0
 10
142.67088101280001
 20
40.720500000000037
 30
0.0
 11
142.6708810127999
 21
14.279500000000001
 31
0.0
  0
LINE
  5
3A9
  8
0
 10
149.0
 20
39.558500000000009
 30
0.0
 11
149.0
 21
15.4415
 31
0.0
  0
LINE
  5
3AA
  8
0
 10
142.0
 20
15.4415
 30
0.0
 11
142.0
 21
39.558500000000009
 31
0.0
  0
LINE
  5
3AB
  8
0
 10
131.0
 20
44.499999999999972
 30
0.0
 11
139.0
 21
44.499999999999993
 31
0.0
  0
LINE
  5
3AC
  8
0
 10
138.25
 20
10.5
 30
0.0
 11
138.25
 21
44.5
 31
0.0
  0
LINE
  5
3AD
  8
0
 10
131.0
 20
10.5
 30
0.0
 11
139.0
 21
10.5
 31
0.0
  0
LINE
  5
3AE
  8
2
 10
149.0
 20
34.0
 30
0.0
 11
142.0
 21
34.0
 31
0.0
  0
LINE
  5
3AF
  8
2
 10
142.0
 20
21.0
 30
0.0
 11
149.0
 21
21.0
 31
0.0
  0
LINE
  5
3B0
  8
2
 10
142.0
 20
34.0
 30
0.0
 11
138.09440597630001
 21
27.5
 31
0.0
  0
LINE
  5
3B1
  8
2
 10
138.09440597630001
 20
27.5
 30
0.0
 11
142.0
 21
21.0
 31
0.0
  0
ARC
  5
3B2
  8
0
 10
50.0
 20
117.5
 30
0.0
 40
18.25
 50
261.32906316260028
 51
278.67093683739972
  0
ARC
  5
3B3
  8
0
 10
50.0
 20
117.5
 30
0.0
 40
18.249999999999989
 50
201.32906316259891
 51
218.67093683740069
  0
LINE
  5
3B4
  8
0
 10
33.0
 20
110.86204097629999
 30
0.0
 11
32.999999999997669
 21
124.13795902366979
 31
0.0
  0
LINE
  5
3B5
  8
0
 10
47.248641143777057
 20
99.458588623827595
 30
0.0
 11
35.7513588562
 21
106.0965476475
 31
0.0
  0
ARC
  5
3B6
  8
0
 10
50.0
 20
117.5
 30
0.0
 40
18.25
 50
321.32906316259931
 51
338.67093683740109
  0
LINE
  5
3B7
  8
0
 10
64.248641143699984
 20
106.0965476475
 30
0.0
 11
52.751358856222943
 21
99.458588623827595
 31
0.0
  0
LINE
  5
3B8
  8
0
 10
52.751358856222957
 20
135.5414113761725
 30
0.0
 11
64.248641143699984
 21
128.90345235250001
 31
0.0
  0
ARC
  5
3B9
  8
0
 10
50.0
 20
117.5
 30
0.0
 40
18.250000000000021
 50
21.32906316259891
 51
38.670936837400681
  0
LINE
  5
3BA
  8
0
 10
67.0
 20
124.13795902370001
 30
0.0
 11
67.000000000002359
 21
110.86204097633011
 31
0.0
  0
ARC
  5
3BB
  8
0
 10
50.0
 20
117.5
 30
0.0
 40
18.25
 50
141.32906316259931
 51
158.6709368373989
  0
ARC
  5
3BC
  8
0
 10
50.0
 20
117.5
 30
0.0
 40
18.25
 50
81.329063162600306
 51
98.670936837399694
  0
LINE
  5
3BD
  8
0
 10
35.751358856220641
 20
128.9034523525026
 30
0.0
 11
47.248641143699977
 21
135.54141137619999
 31
0.0
  0
ARC
  5
3BE
  8
0
 10
50.0
 20
117.5
 30
0.0
 40
17.499999999999989
 50
106.61462812590101
 51
133.5559720983012
  0
ARC
  5
3BF
  8
0
 10
50.0
 20
117.5
 30
0.0
 40
17.500000000000011
 50
166.30089464559941
 51
193.4274776897995
  0
ARC
  5
3C0
  8
0
 10
50.0
 20
117.5
 30
0.0
 40
17.500000000000011
 50
226.63462078489829
 51
253.45709479990001
  0
ARC
  5
3C1
  8
0
 10
50.0
 20
117.5
 30
0.0
 40
17.500000000000011
 50
286.35684097710009
 51
313.48904862190091
  0
ARC
  5
3C2
  8
0
 10
50.0
 20
117.5
 30
0.0
 40
17.500000000000011
 50
346.62936636330039
 51
13.39604294219961
  0
ARC
  5
3C3
  8
0
 10
50.0
 20
117.5
 30
0.0
 40
17.5
 50
46.44817191719919
 51
73.567831353199423
  0
ARC
  5
3C4
  8
2
 10
50.000000000000028
 20
117.5
 30
0.0
 40
17.5
 50
73.567831353199423
 51
106.61462812590101
  0
ARC
  5
3C5
  8
2
 10
50.0
 20
117.5
 30
0.0
 40
17.500000000000011
 50
133.5559720983012
 51
166.30089464559941
  0
ARC
  5
3C6
  8
2
 10
50.0
 20
117.5
 30
0.0
 40
17.500000000000011
 50
193.4274776897995
 51
226.63462078489829
  0
ARC
  5
3C7
  8
2
 10
50.0
 20
117.5
 30
0.0
 40
17.500000000000011
 50
253.45709479990001
 51
286.35684097710009
  0
ARC
  5
3C8
  8
2
 10
50.0
 20
117.5
 30
0.0
 40
17.500000000000011
 50
313.48904862190091
 51
346.62936636330039
  0
ARC
  5
3C9
  8
2
 10
50.0
 20
117.5
 30
0.0
 40
17.5
 50
13.39604294219961
 51
46.44817191719919
  0
CIRCLE
  5
3CB
  8
0
 10
230.0
 20
117.5
 30
0.0
 40
13.220499999999991
  0
CIRCLE
  5
3CC
  8
3
 10
230.0
 20
117.5
 30
0.0
 40
12.058499999999979
  0
CIRCLE
  5
3CD
  8
0
 10
230.0
 20
117.5
 30
0.0
 40
6.4999999999999858
  0
CIRCLE
  5
3CE
  8
0
 10
230.0
 20
117.5
 30
0.0
 40
17.500000000000011
  0
LINE
  5
3CF
  8
0
 10
232.7513588562
 20
135.54141137619999
 30
0.0
 11
234.90312635750001
 21
134.29908782999999
 31
0.0
  0
LINE
  5
3D0
  8
0
 10
225.0968736424
 20
134.29908782999999
 30
0.0
 11
227.24864114370001
 21
135.54141137619999
 31
0.0
  0
ARC
  5
3D1
  8
0
 10
230.0
 20
117.5
 30
0.0
 40
18.249999999999989
 50
81.329063162600306
 51
98.670936837399694
  0
ARC
  5
3D2
  8
0
 10
230.0
 20
117.5
 30
0.0
 40
18.25
 50
21.32906316259891
 51
38.670936837398813
  0
LINE
  5
3D3
  8
0
 10
247.0
 20
124.13795902370001
 30
0.0
 11
247.0
 21
121.6533119314
 31
0.0
  0
LINE
  5
3D4
  8
0
 10
242.0968736424
 20
130.14577589859999
 30
0.0
 11
244.24864114370001
 21
128.90345235250001
 31
0.0
  0
ARC
  5
3D5
  8
0
 10
230.0
 20
117.5
 30
0.0
 40
18.25
 50
141.32906316260119
 51
158.6709368373993
  0
LINE
  5
3D6
  8
0
 10
213.0
 20
121.6533119314
 30
0.0
 11
213.0
 21
124.13795902370001
 31
0.0
  0
LINE
  5
3D7
  8
0
 10
215.7513588562
 20
128.90345235250001
 30
0.0
 11
217.90312635750001
 21
130.14577589859999
 31
0.0
  0
ARC
  5
3D8
  8
0
 10
230.0
 20
117.5
 30
0.0
 40
18.249999999999989
 50
201.32906316259891
 51
218.67093683739881
  0
LINE
  5
3D9
  8
0
 10
217.90312635750001
 20
104.85422410140001
 30
0.0
 11
215.7513588562
 21
106.0965476475
 31
0.0
  0
LINE
  5
3DA
  8
0
 10
213.0
 20
110.86204097629999
 30
0.0
 11
213.0
 21
113.3466880685
 31
0.0
  0
ARC
  5
3DB
  8
0
 10
230.0
 20
117.5
 30
0.0
 40
18.250000000000021
 50
321.32906316260119
 51
338.67093683740109
  0
LINE
  5
3DC
  8
0
 10
244.24864114370001
 20
106.0965476475
 30
0.0
 11
242.0968736424
 21
104.85422410140001
 31
0.0
  0
LINE
  5
3DD
  8
0
 10
247.0
 20
113.3466880685
 30
0.0
 11
247.0
 21
110.86204097629999
 31
0.0
  0
ARC
  5
3DE
  8
0
 10
230.0
 20
117.5
 30
0.0
 40
18.25
 50
261.32906316260028
 51
278.67093683739972
  0
LINE
  5
3DF
  8
0
 10
227.24864114370001
 20
99.458588623800054
 30
0.0
 11
225.0968736424
 21
100.70091216989999
 31
0.0
  0
LINE
  5
3E0
  8
0
 10
234.90312635750001
 20
100.70091216989999
 30
0.0
 11
232.7513588562
 21
99.458588623800054
 31
0.0
  0
LINE
  5
3E1
  8
2
 10
234.90312635750001
 20
134.29908782999999
 30
0.0
 11
242.0968736424
 21
130.14577589859999
 31
0.0
  0
LINE
  5
3E2
  8
2
 10
247.0
 20
121.6533119314
 30
0.0
 11
247.0
 21
113.3466880685
 31
0.0
  0
LINE
  5
3E3
  8
2
 10
217.90312635750001
 20
130.14577589859999
 30
0.0
 11
225.0968736424
 21
134.29908782999999
 31
0.0
  0
LINE
  5
3E4
  8
2
 10
213.0
 20
113.3466880685
 30
0.0
 11
213.0
 21
121.6533119314
 31
0.0
  0
LINE
  5
3E5
  8
2
 10
242.0968736424
 20
104.85422410140001
 30
0.0
 11
234.90312635750001
 21
100.70091216989999
 31
0.0
  0
LINE
  5
3E6
  8
2
 10
225.0968736424
 20
100.70091216989999
 30
0.0
 11
217.90312635750001
 21
104.85422410140001
 31
0.0
  0
LINE
  5
3E7
  8
0
 10
139.0
 20
99.999999999999986
 30
0.0
 11
140.5
 21
99.999999999999986
 31
0.0
  0
LINE
  5
3E8
  8
0
 10
140.5
 20
135.0
 30
0.0
 11
139.0
 21
135.0
 31
0.0
  0
LINE
  5
3E9
  8
0
 10
139.0
 20
134.5
 30
0.0
 11
138.25
 21
134.5
 31
0.0
  0
LINE
  5
3EA
  8
0
 10
138.25
 20
100.4999999999999
 30
0.0
 11
139.0
 21
100.4999999999999
 31
0.0
  0
LINE
  5
3EB
  8
0
 10
142.67088101280001
 20
130.72049999999999
 30
0.0
 11
142.0
 21
129.55850000000001
 31
0.0
  0
LINE
  5
3EC
  8
0
 10
142.0
 20
105.4415
 30
0.0
 11
142.67088101280001
 21
104.2795
 31
0.0
  0
LINE
  5
3ED
  8
0
 10
142.67088101280001
 20
104.2795
 30
0.0
 11
147.83799999999999
 21
104.2795
 31
0.0
  0
LINE
  5
3EE
  8
0
 10
147.83799999999999
 20
130.72049999999999
 30
0.0
 11
142.67088101280001
 21
130.72049999999999
 31
0.0
  0
LINE
  5
3EF
  8
0
 10
147.83799999999999
 20
104.2795
 30
0.0
 11
149.0
 21
105.4415
 31
0.0
  0
LINE
  5
3F0
  8
0
 10
149.0
 20
129.55850000000001
 30
0.0
 11
147.83799999999999
 21
130.72049999999999
 31
0.0
  0
LINE
  5
3F1
  8
0
 10
140.5
 20
105.6249999999999
 30
0.0
 11
142.0
 21
106.25
 31
0.0
  0
LINE
  5
3F2
  8
0
 10
142.0
 20
128.75
 30
0.0
 11
140.5
 21
129.375
 31
0.0
  0
LINE
  5
3F3
  8
0
 10
131.3349364906
 20
135.75
 30
0.0
 11
131.0
 21
134.5
 31
0.0
  0
LINE
  5
3F4
  8
0
 10
131.0
 20
100.4999999999999
 30
0.0
 11
131.3349364906
 21
99.249999999999972
 31
0.0
  0
LINE
  5
3F5
  8
0
 10
138.25
 20
135.75
 30
0.0
 11
131.3349364906
 21
135.75
 31
0.0
  0
LINE
  5
3F6
  8
0
 10
131.3349364906
 20
99.249999999999972
 30
0.0
 11
138.25
 21
99.249999999999972
 31
0.0
  0
LINE
  5
3F7
  8
0
 10
139.0
 20
99.999999999999986
 30
0.0
 11
139.0
 21
135.0
 31
0.0
  0
LINE
  5
3F8
  8
0
 10
140.5
 20
99.999999999999986
 30
0.0
 11
140.5
 21
135.0
 31
0.0
  0
POLYLINE
  5
3F9
  8
0
 66
     1
 10
0.0
 20
0.0
 30
0.0
 70
   128
  0
VERTEX
  5
678
  8
0
 10
131.0
 20
132.22243186430001
 30
0.0
  0
VERTEX
  5
679
  8
0
 10
131.08600073829999
 20
130.56294210839991
 30
0.0
  0
VERTEX
  5
67A
  8
0
 10
131.3349364906
 20
128.90345235250001
 30
0.0
  0
SEQEND
  5
67B
  8
0
  0
LINE
  5
3FA
  8
0
 10
131.3349364906
 20
128.90345235250001
 30
0.0
 11
131.3349364906
 21
124.13795902369991
 31
0.0
  0
POLYLINE
  5
3FB
  8
0
 66
     1
 10
0.0
 20
0.0
 30
0.0
 70
   128
  0
VERTEX
  5
67C
  8
0
 10
131.3349364906
 20
124.13795902369991
 30
0.0
  0
VERTEX
  5
67D
  8
0
 10
131.08640682710001
 20
120.8268797166
 30
0.0
  0
VERTEX
  5
67E
  8
0
 10
131.0
 20
117.5
 30
0.0
  0
SEQEND
  5
67F
  8
0
  0
LINE
  5
3FC
  8
0
 10
131.3349364906
 20
124.13795902369991
 30
0.0
 11
138.25
 21
124.13795902369991
 31
0.0
  0
LINE
  5
3FD
  8
0
 10
131.3349364906
 20
128.90345235250001
 30
0.0
 11
138.25
 21
128.90345235250001
 31
0.0
  0
LINE
  5
3FE
  8
0
 10
131.3349364906
 20
110.86204097629989
 30
0.0
 11
138.25
 21
110.86204097629989
 31
0.0
  0
POLYLINE
  5
3FF
  8
0
 66
     1
 10
0.0
 20
0.0
 30
0.0
 70
   128
  0
VERTEX
  5
680
  8
0
 10
131.0
 20
117.5
 30
0.0
  0
VERTEX
  5
681
  8
0
 10
131.08600073829999
 20
114.18102048820001
 30
0.0
  0
VERTEX
  5
682
  8
0
 10
131.3349364906
 20
110.86204097629989
 30
0.0
  0
SEQEND
  5
683
  8
0
  0
LINE
  5
400
  8
0
 10
131.3349364906
 20
110.86204097629989
 30
0.0
 11
131.3349364906
 21
106.0965476475
 31
0.0
  0
POLYLINE
  5
401
  8
0
 66
     1
 10
0.0
 20
0.0
 30
0.0
 70
   128
  0
VERTEX
  5
684
  8
0
 10
131.3349364906
 20
106.0965476475
 30
0.0
  0
VERTEX
  5
685
  8
0
 10
131.08640682710001
 20
104.441007994
 30
0.0
  0
VERTEX
  5
686
  8
0
 10
131.0
 20
102.77756813569989
 30
0.0
  0
SEQEND
  5
687
  8
0
  0
LINE
  5
402
  8
0
 10
131.3349364906
 20
106.0965476475
 30
0.0
 11
138.25
 21
106.0965476475
 31
0.0
  0
POLYLINE
  5
403
  8
0
 66
     1
 10
0.0
 20
0.0
 30
0.0
 70
   128
  0
VERTEX
  5
688
  8
0
 10
131.3349364906
 20
135.54141137619999
 30
0.0
  0
VERTEX
  5
689
  8
0
 10
131.08640682710001
 20
133.8858717226999
 30
0.0
  0
VERTEX
  5
68A
  8
0
 10
131.0
 20
132.22243186430001
 30
0.0
  0
SEQEND
  5
68B
  8
0
  0
LINE
  5
404
  8
0
 10
131.3349364906
 20
135.54141137619999
 30
0.0
 11
138.25
 21
135.54141137619999
 31
0.0
  0
LINE
  5
405
  8
0
 10
131.3349364906
 20
99.458588623799983
 30
0.0
 11
138.25
 21
99.458588623799983
 31
0.0
  0
POLYLINE
  5
406
  8
0
 66
     1
 10
0.0
 20
0.0
 30
0.0
 70
   128
  0
VERTEX
  5
68C
  8
0
 10
131.0
 20
102.77756813569989
 30
0.0
  0
VERTEX
  5
68D
  8
0
 10
131.08600073829999
 20
101.1180783798
 30
0.0
  0
VERTEX
  5
68E
  8
0
 10
131.3349364906
 20
99.458588623799983
 30
0.0
  0
SEQEND
  5
68F
  8
0
  0
LINE
  5
407
  8
0
 10
142.0
 20
105.4415
 30
0.0
 11
142.0
 21
129.55850000000001
 31
0.0
  0
LINE
  5
408
  8
0
 10
142.67088101280001
 20
130.72049999999999
 30
0.0
 11
142.67088101280001
 21
104.2795
 31
0.0
  0
LINE
  5
409
  8
0
 10
147.83799999999999
 20
104.2795
 30
0.0
 11
147.83799999999999
 21
130.72049999999999
 31
0.0
  0
LINE
  5
40A
  8
0
 10
149.0
 20
129.55850000000001
 30
0.0
 11
149.0
 21
105.4415
 31
0.0
  0
LINE
  5
40B
  8
0
 10
131.3349364906
 20
135.75
 30
0.0
 11
131.3349364906
 21
135.54141137619999
 31
0.0
  0
LINE
  5
40C
  8
0
 10
131.3349364906
 20
99.458588623799983
 30
0.0
 11
131.3349364906
 21
99.249999999999972
 31
0.0
  0
LINE
  5
40D
  8
0
 10
131.0
 20
100.4999999999999
 30
0.0
 11
131.0
 21
134.5
 31
0.0
  0
LINE
  5
40E
  8
0
 10
138.25
 20
99.249999999999972
 30
0.0
 11
138.25
 21
135.75
 31
0.0
  0
LINE
  5
40F
  8
2
 10
149.0
 20
124.0
 30
0.0
 11
142.0
 21
124.0
 31
0.0
  0
LINE
  5
410
  8
2
 10
142.0
 20
110.9999999999999
 30
0.0
 11
149.0
 21
110.9999999999999
 31
0.0
  0
LINE
  5
411
  8
2
 10
142.0
 20
124.0
 30
0.0
 11
138.09440597630001
 21
117.5
 31
0.0
  0
LINE
  5
412
  8
2
 10
138.09440597630001
 20
117.5
 30
0.0
 11
142.0
 21
110.9999999999999
 31
0.0
  0
CIRCLE
  5
413
  8
0
 10
50.0
 20
117.5
 30
0.0
 40
17.000000000000028
  0
LINE
  5
41E
  8
3
 10
142.0
 20
39.558500000000038
 30
0.0
 11
149.0
 21
39.558500000000038
 31
0.0
  0
LINE
  5
41F
  8
3
 10
141.99999999999989
 20
15.44149999999995
 30
0.0
 11
149.0
 21
15.44149999999996
 31
0.0
  0
LINE
  5
426
  8
1
 10
128.5
 20
27.5
 30
0.0
 11
151.5
 21
27.5
 31
0.0
  0
LINE
  5
427
  8
1
 10
230.0
 20
96.75
 30
0.0
 11
230.0
 21
138.25
 31
0.0
  0
LINE
  5
428
  8
1
 10
210.0
 20
117.5
 30
0.0
 11
250.0
 21
117.5
 31
0.0
  0
LINE
  5
429
  8
1
 10
50.0
 20
96.750000000000014
 30
0.0
 11
50.0
 21
138.25
 31
0.0
  0
LINE
  5
42A
  8
1
 10
30.0
 20
117.5
 30
0.0
 11
70.0
 21
117.5
 31
0.0
  0
LINE
  5
42B
  8
3
 10
142.0
 20
129.55850000000001
 30
0.0
 11
149.0
 21
129.55850000000001
 31
0.0
  0
LINE
  5
42C
  8
3
 10
141.99999999999989
 20
105.44149999999991
 30
0.0
 11
149.0
 21
105.44149999999991
 31
0.0
  0
LINE
  5
42D
  8
1
 10
128.5
 20
117.5
 30
0.0
 11
151.5
 21
117.5
 31
0.0
  0
LINE
  5
42E
  8
0
 10
139.0
 20
225.0
 30
0.0
 11
140.5
 21
225.0
 31
0.0
  0
LINE
  5
42F
  8
0
 10
140.5
 20
190.0
 30
0.0
 11
139.0
 21
190.0
 31
0.0
  0
LINE
  5
432
  8
0
 10
142.67088101280001
 20
220.72049999999999
 30
0.0
 11
147.83799999999991
 21
220.72049999999999
 31
0.0
  0
LINE
  5
433
  8
0
 10
147.83799999999999
 20
194.27950000000001
 30
0.0
 11
142.67088101280001
 21
194.27950000000001
 31
0.0
  0
LINE
  5
434
  8
0
 10
147.83799999999991
 20
220.72049999999999
 30
0.0
 11
149.0
 21
219.55850000000001
 31
0.0
  0
LINE
  5
435
  8
0
 10
149.0
 20
195.44149999999999
 30
0.0
 11
147.83799999999999
 21
194.27950000000001
 31
0.0
  0
LINE
  5
436
  8
0
 10
142.67088101280001
 20
194.27950000000001
 30
0.0
 11
142.0
 21
195.44149999999999
 31
0.0
  0
LINE
  5
437
  8
0
 10
142.0
 20
219.55850000000001
 30
0.0
 11
142.67088101280001
 21
220.72049999999999
 31
0.0
  0
LINE
  5
438
  8
0
 10
140.5
 20
219.375
 30
0.0
 11
142.0
 21
218.75
 31
0.0
  0
LINE
  5
439
  8
0
 10
142.0
 20
196.25
 30
0.0
 11
140.5
 21
195.625
 31
0.0
  0
LINE
  5
43A
  8
0
 10
131.3349364906
 20
210.2513588562
 30
0.0
 11
138.25
 21
210.2513588562
 31
0.0
  0
LINE
  5
43B
  8
0
 10
131.3349364906
 20
204.74864114370001
 30
0.0
 11
131.3349364906
 21
210.2513588562
 31
0.0
  0
LINE
  5
43C
  8
0
 10
131.3349364906
 20
204.74864114370001
 30
0.0
 11
138.25
 21
204.74864114370001
 31
0.0
  0
POLYLINE
  5
43D
  8
0
 66
     1
 10
0.0
 20
0.0
 30
0.0
 70
   128
  0
VERTEX
  5
690
  8
0
 10
131.0
 20
199.0
 30
0.0
  0
VERTEX
  5
691
  8
0
 10
131.08600073829999
 20
201.87432057180001
 30
0.0
  0
VERTEX
  5
692
  8
0
 10
131.3349364906
 20
204.74864114370001
 30
0.0
  0
SEQEND
  5
693
  8
0
  0
POLYLINE
  5
43E
  8
0
 66
     1
 10
0.0
 20
0.0
 30
0.0
 70
   128
  0
VERTEX
  5
694
  8
0
 10
131.3349364906
 20
210.2513588562
 30
0.0
  0
VERTEX
  5
695
  8
0
 10
131.08640682710001
 20
213.11883764999999
 30
0.0
  0
VERTEX
  5
696
  8
0
 10
131.0
 20
216.0
 30
0.0
  0
SEQEND
  5
697
  8
0
  0
LINE
  5
43F
  8
0
 10
131.33493649059989
 20
221.74864114370001
 30
0.0
 11
138.25
 21
221.74864114370001
 31
0.0
  0
POLYLINE
  5
440
  8
0
 66
     1
 10
0.0
 20
0.0
 30
0.0
 70
   128
  0
VERTEX
  5
698
  8
0
 10
131.0
 20
216.0
 30
0.0
  0
VERTEX
  5
699
  8
0
 10
131.08600073829999
 20
218.87432057180001
 30
0.0
  0
VERTEX
  5
69A
  8
0
 10
131.33493649059989
 20
221.74864114370001
 30
0.0
  0
SEQEND
  5
69B
  8
0
  0
POLYLINE
  5
441
  8
0
 66
     1
 10
0.0
 20
0.0
 30
0.0
 70
   128
  0
VERTEX
  5
69C
  8
0
 10
131.3349364906
 20
193.2513588562
 30
0.0
  0
VERTEX
  5
69D
  8
0
 10
131.08640682710001
 20
196.11883764999999
 30
0.0
  0
VERTEX
  5
69E
  8
0
 10
131.0
 20
199.0
 30
0.0
  0
SEQEND
  5
69F
  8
0
  0
LINE
  5
442
  8
0
 10
131.3349364906
 20
193.2513588562
 30
0.0
 11
138.25
 21
193.2513588562
 31
0.0
  0
LINE
  5
443
  8
0
 10
140.5
 20
225.0
 30
0.0
 11
140.5
 21
190.0
 31
0.0
  0
LINE
  5
444
  8
0
 10
139.0
 20
225.0
 30
0.0
 11
139.0
 21
190.0
 31
0.0
  0
LINE
  5
445
  8
0
 10
131.3349364906
 20
190.5
 30
0.0
 11
131.3349364906
 21
193.2513588562
 31
0.0
  0
LINE
  5
446
  8
0
 10
131.0
 20
224.5
 30
0.0
 11
131.0
 21
190.5
 31
0.0
  0
LINE
  5
447
  8
0
 10
131.33493649059989
 20
221.74864114370001
 30
0.0
 11
131.33493649059989
 21
224.5
 31
0.0
  0
LINE
  5
448
  8
0
 10
147.83799999999991
 20
220.72049999999999
 30
0.0
 11
147.83799999999999
 21
194.27950000000001
 31
0.0
  0
LINE
  5
449
  8
0
 10
142.67088101280001
 20
194.2794999999999
 30
0.0
 11
142.67088101280001
 21
220.72049999999999
 31
0.0
  0
LINE
  5
44A
  8
0
 10
149.0
 20
195.44149999999999
 30
0.0
 11
149.0
 21
219.55850000000001
 31
0.0
  0
LINE
  5
44B
  8
0
 10
142.0
 20
219.55850000000001
 30
0.0
 11
142.0
 21
195.44149999999999
 31
0.0
  0
LINE
  5
44C
  8
0
 10
131.0
 20
190.5
 30
0.0
 11
139.0
 21
190.5
 31
0.0
  0
LINE
  5
44D
  8
0
 10
138.25
 20
224.5
 30
0.0
 11
138.25
 21
190.5
 31
0.0
  0
LINE
  5
44E
  8
0
 10
131.0
 20
224.5
 30
0.0
 11
139.0
 21
224.5
 31
0.0
  0
LINE
  5
44F
  8
2
 10
149.0
 20
201.0
 30
0.0
 11
142.0
 21
201.0
 31
0.0
  0
LINE
  5
450
  8
2
 10
142.0
 20
214.0
 30
0.0
 11
149.0
 21
214.0
 31
0.0
  0
LINE
  5
451
  8
2
 10
142.0
 20
201.0
 30
0.0
 11
138.09440597630001
 21
207.5
 31
0.0
  0
LINE
  5
452
  8
2
 10
138.09440597630001
 20
207.5
 30
0.0
 11
142.0
 21
214.0
 31
0.0
  0
LINE
  5
453
  8
3
 10
142.0
 20
195.44149999999991
 30
0.0
 11
149.0
 21
195.44149999999991
 31
0.0
  0
LINE
  5
454
  8
3
 10
141.99999999999989
 20
219.55850000000001
 30
0.0
 11
149.0
 21
219.55850000000001
 31
0.0
  0
LINE
  5
455
  8
1
 10
128.5
 20
207.5
 30
0.0
 11
151.5
 21
207.5
 31
0.0
  0
ENDSEC
  0
EOF
