  0
SECTION
  2
HEADER
  9
$ACADVER
  1
AC1009
  9
$INSBASE
 10
0.0
 20
0.0
 30
0.0
  9
$EXTMIN
 10
0.0
 20
-2.960436562073669
 30
0.0
  9
$EXTMAX
 10
202.80000000000001
 20
177.80000000000001
 30
0.0
  9
$LIMMIN
 10
0.0
 20
0.0
  9
$LIMMAX
 10
187.5
 20
135.0
  9
$ORTHOMODE
 70
     1
  9
$REGENMODE
 70
     1
  9
$FILLMODE
 70
     1
  9
$QTEXTMODE
 70
     0
  9
$MIRRTEXT
 70
     0
  9
$DRAGMODE
 70
     2
  9
$LTSCALE
 40
5.0
  9
$OSMODE
 70
    37
  9
$ATTMODE
 70
     1
  9
$TEXTSIZE
 40
2.0000000000000502
  9
$TRACEWID
 40
0.05
  9
$TEXTSTYLE
  7
STANDARD
  9
$CLAYER
  8
0
  9
$CELTYPE
  6
BYLAYER
  9
$CECOLOR
 62
   256
  9
$DIMSCALE
 40
0.5
  9
$DIMASZ
 40
3.0
  9
$DIMEXO
 40
2.0
  9
$DIMDLI
 40
0.38
  9
$DIMRND
 40
0.0
  9
$DIMDLE
 40
0.0
  9
$DIMEXE
 40
2.0
  9
$DIMTP
 40
0.0
  9
$DIMTM
 40
0.0
  9
$DIMTXT
 40
3.2000000000000002
  9
$DIMCEN
 40
0.0
  9
$DIMTSZ
 40
0.0
  9
$DIMTOL
 70
     0
  9
$DIMLIM
 70
     0
  9
$DIMTIH
 70
     0
  9
$DIMTOH
 70
     0
  9
$DIMSE1
 70
     0
  9
$DIMSE2
 70
     0
  9
$DIMTAD
 70
     1
  9
$DIMZIN
 70
     0
  9
$DIMBLK
  1

  9
$DIMASO
 70
     1
  9
$DIMSHO
 70
     0
  9
$DIMPOST
  1

  9
$DIMAPOST
  1

  9
$DIMALT
 70
     0
  9
$DIMALTD
 70
     2
  9
$DIMALTF
 40
25.399999999999999
  9
$DIMLFAC
 40
1.0
  9
$DIMTOFL
 70
     1
  9
$DIMTVP
 40
1.6000000000000001
  9
$DIMTIX
 70
     1
  9
$DIMSOXD
 70
     0
  9
$DIMSAH
 70
     0
  9
$DIMBLK1
  1

  9
$DIMBLK2
  1

  9
$DIMSTYLE
  2
STANDARD
  9
$DIMCLRD
 70
     0
  9
$DIMCLRE
 70
     0
  9
$DIMCLRT
 70
     0
  9
$DIMTFAC
 40
1.0
  9
$DIMGAP
 40
0.09
  9
$LUNITS
 70
     2
  9
$LUPREC
 70
     4
  9
$SKETCHINC
 40
0.1
  9
$FILLETRAD
 40
0.0
  9
$AUNITS
 70
     0
  9
$AUPREC
 70
     4
  9
$MENU
  1
E:\r13\win\SUPPORT\ACAD
  9
$ELEVATION
 40
0.0
  9
$PELEVATION
 40
0.0
  9
$THICKNESS
 40
0.0
  9
$LIMCHECK
 70
     0
  9
$BLIPMODE
 70
     0
  9
$CHAMFERA
 40
0.0
  9
$CHAMFERB
 40
0.0
  9
$SKPOLY
 70
     0
  9
$TDCREATE
 40
2449839.7947569452
  9
$TDUPDATE
 40
2458249.592558322
  9
$TDINDWG
 40
0.0228670255
  9
$TDUSRTIMER
 40
0.0228670255
  9
$USRTIMER
 70
     1
  9
$ANGBASE
 50
0.0
  9
$ANGDIR
 70
     0
  9
$PDMODE
 70
     0
  9
$PDSIZE
 40
0.0
  9
$PLINEWID
 40
0.0
  9
$COORDS
 70
     1
  9
$SPLFRAME
 70
     0
  9
$SPLINETYPE
 70
     6
  9
$SPLINESEGS
 70
     8
  9
$ATTDIA
 70
     0
  9
$ATTREQ
 70
     1
  9
$HANDLING
 70
     1
  9
$HANDSEED
  5
667
  9
$SURFTAB1
 70
     6
  9
$SURFTAB2
 70
     6
  9
$SURFTYPE
 70
     6
  9
$SURFU
 70
     6
  9
$SURFV
 70
     6
  9
$UCSNAME
  2

  9
$UCSORG
 10
0.0
 20
0.0
 30
0.0
  9
$UCSXDIR
 10
1.0
 20
0.0
 30
0.0
  9
$UCSYDIR
 10
0.0
 20
1.0
 30
0.0
  9
$PUCSNAME
  2

  9
$PUCSORG
 10
0.0
 20
0.0
 30
0.0
  9
$PUCSXDIR
 10
1.0
 20
0.0
 30
0.0
  9
$PUCSYDIR
 10
0.0
 20
1.0
 30
0.0
  9
$USERI1
 70
     0
  9
$USERI2
 70
     1
  9
$USERI3
 70
     1
  9
$USERI4
 70
     0
  9
$USERI5
 70
     0
  9
$USERR1
 40
0.0
  9
$USERR2
 40
0.0
  9
$USERR3
 40
0.0
  9
$USERR4
 40
0.0
  9
$USERR5
 40
0.0
  9
$WORLDVIEW
 70
     1
  9
$SHADEDGE
 70
     3
  9
$SHADEDIF
 70
    70
  9
$TILEMODE
 70
     1
  9
$MAXACTVP
 70
    16
  9
$PLIMCHECK
 70
     0
  9
$PEXTMIN
 10
1.0000000000000000E+020
 20
1.0000000000000000E+020
 30
1.0000000000000000E+020
  9
$PEXTMAX
 10
-1.0000000000000000E+020
 20
-1.0000000000000000E+020
 30
-1.0000000000000000E+020
  9
$PLIMMIN
 10
0.0
 20
0.0
  9
$PLIMMAX
 10
12.0
 20
9.0
  9
$UNITMODE
 70
     0
  9
$VISRETAIN
 70
     0
  9
$PLINEGEN
 70
     0
  9
$PSLTSCALE
 70
     0
  0
ENDSEC
  0
SECTION
  2
TABLES
  0
TABLE
  2
VPORT
 70
     1
  0
VPORT
  2
*ACTIVE
 70
     0
 10
0.0
 20
0.0
 11
1.0
 21
1.0
 12
111.54665547489139
 22
87.41556855922228
 13
0.0
 23
0.0
 14
5.0
 24
5.0
 15
5.0
 25
5.0
 16
0.0
 26
0.0
 36
1.0
 17
0.0
 27
0.0
 37
0.0
 40
183.61321027197539
 41
2.0984455958549222
 42
50.0
 43
0.0
 44
0.0
 50
0.0
 51
0.0
 71
     0
 72
   500
 73
     1
 74
     0
 75
     0
 76
     0
 77
     0
 78
     2
  0
ENDTAB
  0
TABLE
  2
LTYPE
 70
     4
  0
LTYPE
  2
CONTINUOUS
 70
     0
  3
Solid Line
 72
    65
 73
     0
 40
0.0
  0
LTYPE
  2
CENTER
 70
     0
  3
____ _ ____ _ ____ _ ____ _ ____ _ ____ _ ____
 72
    65
 73
     4
 40
2.0
 49
1.25
 49
-0.25
 49
0.25
 49
-0.25
  0
LTYPE
  2
PHANTOM2
 70
     0
  3
___ _ _ ___ _ _ ___ _ _ ___ _ _
 72
    65
 73
     6
 40
1.25
 49
0.625
 49
-0.125
 49
0.125
 49
-0.125
 49
0.125
 49
-0.125
  0
LTYPE
  2
HIDDEN
 70
     0
  3
Hidden __ __ __ __ __ __ __ __ __ __ __ __ __ __
 72
    65
 73
     2
 40
1.905
 49
1.27
 49
-0.635
  0
ENDTAB
  0
TABLE
  2
LAYER
 70
     4
  0
LAYER
  2
0
 70
     0
 62
     7
  6
CONTINUOUS
  0
LAYER
  2
1
 70
     0
 62
     1
  6
CENTER
  0
LAYER
  2
3
 70
     0
 62
     3
  6
CONTINUOUS
  0
LAYER
  2
2
 70
     0
 62
     2
  6
HIDDEN
  0
ENDTAB
  0
TABLE
  2
STYLE
 70
     3
  0
STYLE
  2
STANDARD
 70
     0
 40
0.0
 41
1.0
 50
0.0
 71
     0
 42
2.0000000000000502
  3
TXT
  4
BIGFONT
  0
STYLE
  2
SIM180
 70
     0
 40
0.0
 41
1.8
 50
0.0
 71
     0
 42
0.8
  3
SIMPLEX
  4

  0
STYLE
  2
STANDARD1
 70
     0
 40
0.0
 41
1.0
 50
0.0
 71
     0
 42
3.0
  3
txt
  4

  0
ENDTAB
  0
TABLE
  2
VIEW
 70
     1
  0
VIEW
  2
ALL
 70
     0
 40
175.0
 10
143.23529411764699
 20
87.5
 41
0.0
 11
0.0
 21
0.0
 31
1.0
 12
0.0
 22
0.0
 32
0.0
 42
0.0
 43
0.0
 44
0.0
 50
0.0
 71
     0
  0
ENDTAB
  0
TABLE
  2
UCS
 70
     0
  0
ENDTAB
  0
TABLE
  2
APPID
 70
     4
  0
APPID
  2
ACAD
 70
     0
  0
APPID
  2
ACAD_MLEADERVER
 70
     0
  0
APPID
  2
ACAD_EXEMPT_FROM_CAD_STANDARDS
 70
     0
  0
APPID
  2
ACAD_NAV_VCDISPLAY
 70
     0
  0
ENDTAB
  0
TABLE
  2
DIMSTYLE
 70
     2
  0
DIMSTYLE
  2
STANDARD
 70
     0
  3

  4

  5

  6

  7

 40
1.0
 41
0.18
 42
0.0625
 43
0.38
 44
0.18
 45
0.0
 46
0.0
 47
0.0
 48
0.0
140
0.18
141
0.09
142
0.0
143
25.399999999999999
144
1.0
145
0.0
146
1.0
147
0.09
 71
     0
 72
     0
 73
     1
 74
     1
 75
     0
 76
     0
 77
     0
 78
     0
170
     0
171
     2
172
     0
173
     0
174
     0
175
     0
176
     0
177
     0
178
     0
  0
DIMSTYLE
  2
ISO-25
 70
     0
  3

  4

  5

  6

  7

 40
1.0
 41
2.5
 42
0.625
 43
3.75
 44
1.25
 45
0.0
 46
0.0
 47
0.0
 48
0.0
140
2.5
141
2.5
142
0.0
143
0.0393700787
144
1.0
145
0.0
146
1.0
147
0.625
 71
     0
 72
     0
 73
     0
 74
     0
 75
     0
 76
     0
 77
     1
 78
     8
170
     0
171
     3
172
     1
173
     0
174
     0
175
     0
176
     0
177
     0
178
     0
  0
ENDTAB
  0
ENDSEC
  0
SECTION
  2
BLOCKS
  0
BLOCK
  8
0
  2
$MODEL_SPACE
 70
     0
 10
0.0
 20
0.0
 30
0.0
  3
$MODEL_SPACE
  1

  0
ENDBLK
  5
114
  8
0
  0
BLOCK
 67
     1
  8
0
  2
$PAPER_SPACE
 70
     0
 10
0.0
 20
0.0
 30
0.0
  3
$PAPER_SPACE
  1

  0
ENDBLK
  5
112
 67
     1
  8
0
  0
ENDSEC
  0
SECTION
  2
ENTITIES
  0
TEXT
  5
200
  8
0
 62
     3
 10
0.0
 20
0.0
 30
0.0
 40
10.0
  1
SPA-1/2
  7
STANDARD1
  0
LINE
  5
37F
  8
0
 10
115.39999999999991
 20
150.0
 30
0.0
 11
116.90000000000001
 21
150.0
 31
0.0
  0
LINE
  5
380
  8
0
 10
116.90000000000001
 20
177.80000000000001
 30
0.0
 11
115.40000000000001
 21
177.80000000000001
 31
0.0
  0
LINE
  5
381
  8
0
 10
115.40000000000001
 20
177.40000000000001
 30
0.0
 11
107.40000000000001
 21
177.40000000000001
 31
0.0
  0
LINE
  5
382
  8
0
 10
107.40000000000001
 20
150.40000000000001
 30
0.0
 11
115.39999999999991
 21
150.40000000000001
 31
0.0
  0
LINE
  5
383
  8
0
 10
124.238
 20
153.42250000000001
 30
0.0
 11
125.40000000000001
 21
154.58449999999999
 31
0.0
  0
LINE
  5
384
  8
0
 10
125.40000000000001
 20
173.21549999999999
 30
0.0
 11
124.238
 21
174.3775
 31
0.0
  0
LINE
  5
385
  8
0
 10
118.5708810128
 20
153.42250000000001
 30
0.0
 11
124.238
 21
153.42250000000001
 31
0.0
  0
LINE
  5
386
  8
0
 10
124.238
 20
174.3775
 30
0.0
 11
118.5708810128
 21
174.3775
 31
0.0
  0
LINE
  5
387
  8
0
 10
118.5708810128
 20
174.3775
 30
0.0
 11
117.90000000000001
 21
173.21549999999999
 31
0.0
  0
LINE
  5
388
  8
0
 10
117.90000000000001
 20
154.58449999999999
 30
0.0
 11
118.5708810128
 21
153.42250000000001
 31
0.0
  0
LINE
  5
389
  8
0
 10
116.90000000000001
 20
153.90000000000001
 30
0.0
 11
117.90000000000001
 21
153.90000000000001
 31
0.0
  0
LINE
  5
38A
  8
0
 10
117.90000000000001
 20
173.90000000000001
 30
0.0
 11
116.90000000000001
 21
173.90000000000001
 31
0.0
  0
LINE
  5
38B
  8
0
 10
107.80192378860001
 20
162.81237582649999
 30
0.0
 11
114.65000000000001
 21
162.81237582649999
 31
0.0
  0
LINE
  5
38C
  8
0
 10
107.80192378860001
 20
164.9876241735
 30
0.0
 11
107.80192378860001
 21
162.81237582649999
 31
0.0
  0
LINE
  5
38D
  8
0
 10
107.80192378860001
 20
164.9876241735
 30
0.0
 11
114.65000000000001
 21
164.9876241735
 31
0.0
  0
ARC
  5
38E
  8
0
 10
149.45607512839999
 20
170.78974976399999
 30
0.0
 40
42.056307317749827
 50
180.1903896683001
 51
187.9298688767004
  0
ARC
  5
38F
  8
0
 10
149.46174968700001
 20
157.00984744749999
 30
0.0
 40
42.06198318517562
 50
172.0706541034001
 51
179.80908735159991
  0
LINE
  5
390
  8
0
 10
107.80192378860001
 20
176.31237582649999
 30
0.0
 11
114.65000000000001
 21
176.31237582649999
 31
0.0
  0
ARC
  5
391
  8
0
 10
149.46174968700001
 20
170.50984744749999
 30
0.0
 40
42.061983185177397
 50
172.0706541034001
 51
179.80908735159991
  0
LINE
  5
392
  8
0
 10
107.80192378860001
 20
151.4876241735
 30
0.0
 11
114.65000000000001
 21
151.4876241735
 31
0.0
  0
ARC
  5
393
  8
0
 10
149.45607512839999
 20
157.28974976399999
 30
0.0
 40
42.056307317750132
 50
180.1903896683001
 51
187.9298688767004
  0
LINE
  5
394
  8
0
 10
116.90000000000001
 20
150.0
 30
0.0
 11
116.90000000000001
 21
177.80000000000001
 31
0.0
  0
LINE
  5
395
  8
0
 10
115.39999999999991
 20
150.0
 30
0.0
 11
115.40000000000001
 21
177.80000000000001
 31
0.0
  0
LINE
  5
396
  8
0
 10
107.80192378860001
 20
177.40000000000001
 30
0.0
 11
107.80192378860001
 21
176.31237582649999
 31
0.0
  0
LINE
  5
397
  8
0
 10
107.80192378860001
 20
151.4876241735
 30
0.0
 11
107.80192378860001
 21
150.40000000000001
 31
0.0
  0
LINE
  5
398
  8
0
 10
107.40000000000001
 20
150.40000000000001
 30
0.0
 11
107.40000000000001
 21
177.40000000000001
 31
0.0
  0
LINE
  5
399
  8
0
 10
124.238
 20
153.42250000000001
 30
0.0
 11
124.238
 21
174.3775
 31
0.0
  0
LINE
  5
39A
  8
0
 10
125.40000000000001
 20
173.21549999999999
 30
0.0
 11
125.40000000000001
 21
154.58449999999999
 31
0.0
  0
LINE
  5
39B
  8
0
 10
118.5708810128
 20
153.42250000000001
 30
0.0
 11
118.5708810128
 21
174.3775
 31
0.0
  0
LINE
  5
39C
  8
0
 10
117.90000000000001
 20
153.90000000000001
 30
0.0
 11
117.90000000000001
 21
173.90000000000001
 31
0.0
  0
LINE
  5
39D
  8
0
 10
114.65000000000001
 20
150.40000000000001
 30
0.0
 11
114.65000000000001
 21
177.40000000000001
 31
0.0
  0
LINE
  5
39E
  8
2
 10
118.40000000000001
 20
168.90000000000001
 30
0.0
 11
118.40000000000001
 21
158.90000000000001
 31
0.0
  0
LINE
  5
39F
  8
2
 10
125.40000000000001
 20
168.90000000000001
 30
0.0
 11
118.40000000000001
 21
168.90000000000001
 31
0.0
  0
LINE
  5
3A0
  8
2
 10
118.40000000000001
 20
158.90000000000001
 30
0.0
 11
125.40000000000001
 21
158.90000000000001
 31
0.0
  0
LINE
  5
3A1
  8
2
 10
118.40000000000001
 20
168.90000000000001
 30
0.0
 11
115.3956969048
 21
163.90000000000001
 31
0.0
  0
LINE
  5
3A2
  8
2
 10
115.3956969048
 20
163.90000000000001
 30
0.0
 11
118.40000000000001
 21
158.90000000000001
 31
0.0
  0
LINE
  5
3A3
  8
0
 10
58.812375826457888
 20
85.477831256572699
 30
0.0
 11
47.487624173500002
 21
78.939482841300034
 31
0.0
  0
ARC
  5
3A4
  8
0
 10
46.399999999999999
 20
93.900000000000034
 30
0.0
 40
15.000000000000011
 50
265.84193276320019
 51
274.15806723679981
  0
LINE
  5
3A5
  8
0
 10
59.899999999996247
 20
100.4383484153188
 30
0.0
 11
59.900000000000013
 21
87.361651584700041
 31
0.0
  0
ARC
  5
3A6
  8
0
 10
46.399999999999999
 20
93.900000000000034
 30
0.0
 40
15.0
 50
325.84193276319769
 51
334.15806723679992
  0
LINE
  5
3A7
  8
0
 10
45.312375826461647
 20
78.939482841253948
 30
0.0
 11
33.987624173500031
 21
85.477831256600041
 31
0.0
  0
ARC
  5
3A8
  8
0
 10
46.399999999999999
 20
93.900000000000034
 30
0.0
 40
15.0
 50
205.8419327632007
 51
214.1580672368022
  0
LINE
  5
3A9
  8
0
 10
32.900000000000041
 20
87.361651584700041
 30
0.0
 11
32.900000000003793
 21
100.4383484153188
 31
0.0
  0
ARC
  5
3AA
  8
0
 10
46.399999999999999
 20
93.900000000000034
 30
0.0
 40
15.0
 50
25.841932763200049
 51
34.158067236802232
  0
ARC
  5
3AB
  8
0
 10
46.399999999999999
 20
93.900000000000034
 30
0.0
 40
15.0
 50
145.84193276319769
 51
154.1580672367993
  0
LINE
  5
3AC
  8
0
 10
33.987624173542123
 20
102.3221687434273
 30
0.0
 11
45.312375826500009
 21
108.86051715879999
 31
0.0
  0
ARC
  5
3AD
  8
0
 10
46.399999999999999
 20
93.900000000000034
 30
0.0
 40
14.999999999999989
 50
85.841932763200205
 51
94.158067236799781
  0
LINE
  5
3AE
  8
0
 10
47.487624173500002
 20
108.86051715879999
 30
0.0
 11
58.812375826457888
 21
102.3221687434273
 31
0.0
  0
ARC
  5
3AF
  8
0
 10
46.399999999999999
 20
93.900000000000034
 30
0.0
 40
13.900000000000009
 50
106.5977409395999
 51
133.4500270645996
  0
ARC
  5
3B0
  8
0
 10
46.399999999999999
 20
93.900000000000034
 30
0.0
 40
13.900000000000031
 50
166.48820987059929
 51
193.72315702950121
  0
ARC
  5
3B1
  8
0
 10
46.399999999999999
 20
93.900000000000034
 30
0.0
 40
13.900000000000031
 50
226.26494923029941
 51
253.56518408449961
  0
ARC
  5
3B2
  8
0
 10
46.399999999999999
 20
93.900000000000034
 30
0.0
 40
13.90000000000002
 50
286.49907011449972
 51
313.41964297549953
  0
ARC
  5
3B3
  8
0
 10
46.399999999999999
 20
93.900000000000034
 30
0.0
 40
13.900000000000009
 50
346.60255107970107
 51
13.41708560600088
  0
ARC
  5
3B4
  8
0
 10
46.399999999999999
 20
93.900000000000034
 30
0.0
 40
13.9
 50
46.532493754000683
 51
73.617146105000074
  0
ARC
  5
3B5
  8
2
 10
46.399999999999977
 20
93.899999999999949
 30
0.0
 40
13.90000000000007
 50
73.617146105000074
 51
106.5977409395997
  0
ARC
  5
3B6
  8
2
 10
46.399999999999999
 20
93.900000000000034
 30
0.0
 40
13.900000000000009
 50
133.4500270645996
 51
166.48820987059929
  0
ARC
  5
3B7
  8
2
 10
46.399999999999999
 20
93.900000000000034
 30
0.0
 40
13.900000000000031
 50
193.72315702950121
 51
226.26494923029941
  0
ARC
  5
3B8
  8
2
 10
46.399999999999999
 20
93.900000000000034
 30
0.0
 40
13.900000000000009
 50
253.56518408449961
 51
286.49907011449972
  0
ARC
  5
3B9
  8
2
 10
46.399999999999999
 20
93.900000000000034
 30
0.0
 40
13.90000000000002
 50
313.41964297549953
 51
346.60255107970107
  0
ARC
  5
3BA
  8
2
 10
46.399999999999999
 20
93.900000000000034
 30
0.0
 40
13.900000000000009
 50
13.41708560600088
 51
46.532493754000683
  0
CIRCLE
  5
3BC
  8
0
 10
186.40000000000001
 20
93.900000000000006
 30
0.0
 40
10.47749999999999
  0
CIRCLE
  5
3BD
  8
3
 10
186.40000000000001
 20
93.900000000000006
 30
0.0
 40
9.3154999999999877
  0
CIRCLE
  5
3BE
  8
0
 10
186.40000000000001
 20
93.900000000000006
 30
0.0
 40
4.9999999999999858
  0
CIRCLE
  5
3BF
  8
0
 10
186.40000000000001
 20
93.900000000000006
 30
0.0
 40
13.900000000000009
  0
ARC
  5
3C0
  8
0
 10
186.40000000000001
 20
93.900000000000006
 30
0.0
 40
14.999999999999989
 50
265.84193276320019
 51
274.15806723679981
  0
LINE
  5
3C1
  8
0
 10
185.31237582649999
 20
78.93948284130002
 30
0.0
 11
182.5170542374
 21
80.553362513200028
 31
0.0
  0
LINE
  5
3C2
  8
0
 10
190.28294576259989
 20
80.553362513200028
 30
0.0
 11
187.4876241735
 21
78.93948284130002
 31
0.0
  0
ARC
  5
3C3
  8
0
 10
186.40000000000001
 20
93.900000000000006
 30
0.0
 40
14.999999999999989
 50
205.84193276319999
 51
214.15806723679981
  0
LINE
  5
3C4
  8
0
 10
172.90000000000001
 20
87.361651584700013
 30
0.0
 11
172.90000000000001
 21
90.589410928600003
 31
0.0
  0
LINE
  5
3C5
  8
0
 10
176.78294576260001
 20
83.863951584700004
 30
0.0
 11
173.9876241735
 21
85.477831256600027
 31
0.0
  0
ARC
  5
3C6
  8
0
 10
186.40000000000001
 20
93.900000000000006
 30
0.0
 40
15.0
 50
325.84193276320019
 51
334.15806723679992
  0
LINE
  5
3C7
  8
0
 10
199.89999999999989
 20
90.589410928600003
 30
0.0
 11
199.89999999999989
 21
87.361651584700013
 31
0.0
  0
LINE
  5
3C8
  8
0
 10
198.8123758264999
 20
85.477831256600027
 30
0.0
 11
196.01705423739989
 21
83.863951584700004
 31
0.0
  0
ARC
  5
3C9
  8
0
 10
186.40000000000001
 20
93.900000000000006
 30
0.0
 40
15.0
 50
145.84193276320019
 51
154.15806723679989
  0
LINE
  5
3CA
  8
0
 10
173.9876241735
 20
102.3221687435
 30
0.0
 11
176.78294576260001
 21
103.93604841539999
 31
0.0
  0
LINE
  5
3CB
  8
0
 10
172.90000000000001
 20
97.210589071500038
 30
0.0
 11
172.90000000000001
 21
100.4383484154
 31
0.0
  0
ARC
  5
3CC
  8
0
 10
186.40000000000001
 20
93.900000000000006
 30
0.0
 40
15.000000000000011
 50
25.841932763200049
 51
34.158067236799738
  0
LINE
  5
3CD
  8
0
 10
196.0170542374
 20
103.93604841539999
 30
0.0
 11
198.81237582649999
 21
102.3221687435
 31
0.0
  0
LINE
  5
3CE
  8
0
 10
199.89999999999989
 20
100.4383484154
 30
0.0
 11
199.89999999999989
 21
97.210589071500038
 31
0.0
  0
ARC
  5
3CF
  8
0
 10
186.40000000000001
 20
93.900000000000006
 30
0.0
 40
15.000000000000011
 50
85.841932763200205
 51
94.158067236799781
  0
LINE
  5
3D0
  8
0
 10
187.4876241735
 20
108.86051715879999
 30
0.0
 11
190.28294576260001
 21
107.2466374869
 31
0.0
  0
LINE
  5
3D1
  8
0
 10
182.5170542374
 20
107.2466374869
 30
0.0
 11
185.31237582649999
 21
108.86051715879999
 31
0.0
  0
LINE
  5
3D4
  8
2
 10
172.90000000000001
 20
90.589410928600003
 30
0.0
 11
172.90000000000001
 21
97.210589071500038
 31
0.0
  0
LINE
  5
3D5
  8
2
 10
182.5170542374
 20
80.553362513200028
 30
0.0
 11
176.78294576260001
 21
83.863951584700004
 31
0.0
  0
LINE
  5
3D6
  8
2
 10
199.89999999999989
 20
97.210589071500038
 30
0.0
 11
199.89999999999989
 21
90.589410928600003
 31
0.0
  0
LINE
  5
3D7
  8
2
 10
196.01705423739989
 20
83.863951584700004
 30
0.0
 11
190.28294576259989
 21
80.553362513200028
 31
0.0
  0
LINE
  5
3D8
  8
2
 10
176.78294576260001
 20
103.93604841539999
 30
0.0
 11
182.5170542374
 21
107.2466374869
 31
0.0
  0
LINE
  5
3DA
  8
2
 10
190.28294576260001
 20
107.2466374869
 30
0.0
 11
196.0170542374
 21
103.93604841539999
 31
0.0
  0
LINE
  5
3DE
  8
0
 10
115.40000000000001
 20
80.0
 30
0.0
 11
116.90000000000001
 21
80.0
 31
0.0
  0
LINE
  5
3DF
  8
0
 10
116.90000000000001
 20
107.8
 30
0.0
 11
115.40000000000001
 21
107.8
 31
0.0
  0
LINE
  5
3E0
  8
0
 10
115.40000000000001
 20
107.40000000000001
 30
0.0
 11
114.65000000000001
 21
107.40000000000001
 31
0.0
  0
LINE
  5
3E1
  8
0
 10
114.65000000000001
 20
80.400000000000006
 30
0.0
 11
115.40000000000001
 21
80.400000000000006
 31
0.0
  0
LINE
  5
3E2
  8
0
 10
118.5708810128
 20
83.422500000000014
 30
0.0
 11
124.238
 21
83.422500000000014
 31
0.0
  0
LINE
  5
3E3
  8
0
 10
124.238
 20
104.3775
 30
0.0
 11
118.5708810128
 21
104.3775
 31
0.0
  0
LINE
  5
3E4
  8
0
 10
124.238
 20
83.422500000000014
 30
0.0
 11
125.40000000000001
 21
84.58450000000002
 31
0.0
  0
LINE
  5
3E5
  8
0
 10
125.40000000000001
 20
103.21550000000001
 30
0.0
 11
124.238
 21
104.3775
 31
0.0
  0
LINE
  5
3E6
  8
0
 10
118.5708810128
 20
104.3775
 30
0.0
 11
117.90000000000001
 21
103.21550000000001
 31
0.0
  0
LINE
  5
3E7
  8
0
 10
117.90000000000001
 20
84.58450000000002
 30
0.0
 11
118.5708810128
 21
83.422500000000014
 31
0.0
  0
LINE
  5
3E8
  8
0
 10
116.90000000000001
 20
83.900000000000006
 30
0.0
 11
117.90000000000001
 21
83.900000000000006
 31
0.0
  0
LINE
  5
3E9
  8
0
 10
117.90000000000001
 20
103.90000000000001
 30
0.0
 11
116.90000000000001
 21
103.90000000000001
 31
0.0
  0
LINE
  5
3EA
  8
0
 10
107.80192378860001
 20
108.90000000000001
 30
0.0
 11
107.40000000000001
 21
107.40000000000001
 31
0.0
  0
LINE
  5
3EB
  8
0
 10
107.40000000000001
 20
80.400000000000006
 30
0.0
 11
107.80192378860001
 21
78.900000000000006
 31
0.0
  0
LINE
  5
3EC
  8
0
 10
114.65000000000001
 20
108.90000000000001
 30
0.0
 11
107.80192378860001
 21
108.90000000000001
 31
0.0
  0
LINE
  5
3ED
  8
0
 10
107.80192378860001
 20
78.900000000000006
 30
0.0
 11
114.65000000000001
 21
78.900000000000006
 31
0.0
  0
LINE
  5
3EE
  8
0
 10
115.40000000000001
 20
80.0
 30
0.0
 11
115.40000000000001
 21
107.8
 31
0.0
  0
LINE
  5
3EF
  8
0
 10
116.90000000000001
 20
80.0
 30
0.0
 11
116.90000000000001
 21
107.8
 31
0.0
  0
ARC
  5
3F0
  8
0
 10
121.65755527109999
 20
105.68492293369999
 30
0.0
 40
14.25786237567671
 50
180.37605753270049
 51
193.64188709599949
  0
LINE
  5
3F1
  8
0
 10
107.80192378860001
 20
102.3221687434
 30
0.0
 11
107.80192378860001
 21
100.4383484153
 31
0.0
  0
ARC
  5
3F2
  8
0
 10
163.32600714610001
 20
93.743657565299998
 30
0.0
 40
55.926225675104561
 50
173.12487905069949
 51
179.83982875249981
  0
LINE
  5
3F3
  8
0
 10
107.80192378860001
 20
100.4383484153
 30
0.0
 11
114.65000000000001
 21
100.4383484153
 31
0.0
  0
LINE
  5
3F4
  8
0
 10
107.80192378860001
 20
102.3221687434
 30
0.0
 11
114.65000000000001
 21
102.3221687434
 31
0.0
  0
LINE
  5
3F5
  8
0
 10
107.80192378860001
 20
87.361651584700013
 30
0.0
 11
114.65000000000001
 21
87.361651584700013
 31
0.0
  0
ARC
  5
3F6
  8
0
 10
163.3178616758
 20
94.055841718300002
 30
0.0
 40
55.918078838932601
 50
180.15968152829959
 51
186.8756106684001
  0
LINE
  5
3F7
  8
0
 10
107.80192378860001
 20
87.361651584700013
 30
0.0
 11
107.80192378860001
 21
85.477831256499996
 31
0.0
  0
ARC
  5
3F8
  8
0
 10
121.66000087099999
 20
82.114776395599989
 30
0.0
 40
14.26030989911623
 50
166.35925643510029
 51
179.6227989360994
  0
LINE
  5
3F9
  8
0
 10
107.80192378860001
 20
85.477831256499996
 30
0.0
 11
114.65000000000001
 21
85.477831256499996
 31
0.0
  0
LINE
  5
3FA
  8
0
 10
114.65000000000001
 20
85.477831256499996
 30
0.0
 11
114.65000000000001
 21
87.361651584700013
 31
0.0
  0
LINE
  5
3FB
  8
0
 10
107.80192378860001
 20
108.86051715870001
 30
0.0
 11
114.65000000000001
 21
108.86051715870001
 31
0.0
  0
ARC
  5
3FC
  8
0
 10
121.66000087099999
 20
105.4974622978
 30
0.0
 40
14.26030989911645
 50
166.35925643510029
 51
179.6227989360994
  0
LINE
  5
3FD
  8
0
 10
114.65000000000001
 20
78.939482841200004
 30
0.0
 11
114.65000000000001
 21
82.208657048899994
 31
0.0
  0
LINE
  5
3FE
  8
0
 10
107.80192378860001
 20
78.939482841200004
 30
0.0
 11
114.65000000000001
 21
78.939482841200004
 31
0.0
  0
ARC
  5
3FF
  8
0
 10
121.65755527109999
 20
82.302237031499999
 30
0.0
 40
14.257862375676661
 50
180.37605753270049
 51
193.64188709599949
  0
LINE
  5
400
  8
0
 10
114.65000000000001
 20
82.208657048899994
 30
0.0
 11
114.65000000000001
 21
85.477831256499996
 31
0.0
  0
LINE
  5
401
  8
0
 10
118.5708810128
 20
83.422500000000014
 30
0.0
 11
118.5708810128
 21
104.3775
 31
0.0
  0
LINE
  5
402
  8
0
 10
124.238
 20
83.422500000000014
 30
0.0
 11
124.238
 21
104.3775
 31
0.0
  0
LINE
  5
403
  8
0
 10
125.40000000000001
 20
103.21550000000001
 30
0.0
 11
125.40000000000001
 21
84.58450000000002
 31
0.0
  0
LINE
  5
404
  8
0
 10
117.90000000000001
 20
83.900000000000006
 30
0.0
 11
117.90000000000001
 21
103.90000000000001
 31
0.0
  0
LINE
  5
405
  8
0
 10
107.80192378860001
 20
108.90000000000001
 30
0.0
 11
107.80192378860001
 21
108.86051715870001
 31
0.0
  0
LINE
  5
406
  8
0
 10
107.80192378860001
 20
78.939482841200004
 30
0.0
 11
107.80192378860001
 21
78.900000000000006
 31
0.0
  0
LINE
  5
407
  8
0
 10
107.40000000000001
 20
80.400000000000006
 30
0.0
 11
107.40000000000001
 21
107.40000000000001
 31
0.0
  0
LINE
  5
408
  8
0
 10
114.65000000000001
 20
78.900000000000006
 30
0.0
 11
114.65000000000001
 21
108.90000000000001
 31
0.0
  0
LINE
  5
409
  8
2
 10
118.40000000000001
 20
98.900000000000006
 30
0.0
 11
118.40000000000001
 21
88.900000000000006
 31
0.0
  0
LINE
  5
40A
  8
2
 10
125.40000000000001
 20
98.900000000000006
 30
0.0
 11
118.40000000000001
 21
98.900000000000006
 31
0.0
  0
LINE
  5
40B
  8
2
 10
118.40000000000001
 20
88.900000000000006
 30
0.0
 11
125.40000000000001
 21
88.900000000000006
 31
0.0
  0
LINE
  5
40C
  8
2
 10
118.40000000000001
 20
98.900000000000006
 30
0.0
 11
115.3956969048
 21
93.900000000000006
 31
0.0
  0
LINE
  5
40D
  8
2
 10
115.3956969048
 20
93.900000000000006
 30
0.0
 11
118.40000000000001
 21
88.900000000000006
 31
0.0
  0
CIRCLE
  5
40E
  8
0
 10
46.399999999999999
 20
93.900000000000034
 30
0.0
 40
13.500000000000011
  0
LINE
  5
418
  8
3
 10
117.90000000000001
 20
84.58450000000002
 30
0.0
 11
125.40000000000001
 21
84.584500000000077
 31
0.0
  0
LINE
  5
419
  8
3
 10
117.90000000000001
 20
103.21550000000001
 30
0.0
 11
125.40000000000001
 21
103.21550000000001
 31
0.0
  0
LINE
  5
426
  8
1
 10
186.40000000000001
 20
111.40000000000001
 30
0.0
 11
186.40000000000001
 21
76.400000000000006
 31
0.0
  0
LINE
  5
427
  8
1
 10
170.0
 20
93.900000000000006
 30
0.0
 11
202.80000000000001
 21
93.900000000000006
 31
0.0
  0
LINE
  5
428
  8
1
 10
104.90000000000001
 20
93.900000000000006
 30
0.0
 11
127.90000000000001
 21
93.900000000000006
 31
0.0
  0
LINE
  5
429
  8
1
 10
46.399999999999999
 20
111.40000000000001
 30
0.0
 11
46.399999999999999
 21
76.400000000000034
 31
0.0
  0
LINE
  5
42A
  8
1
 10
30.0
 20
93.900000000000034
 30
0.0
 11
62.80000000000004
 21
93.900000000000034
 31
0.0
  0
LINE
  5
42B
  8
3
 10
117.90000000000001
 20
154.58449999999999
 30
0.0
 11
125.40000000000001
 21
154.58449999999999
 31
0.0
  0
LINE
  5
42C
  8
3
 10
117.90000000000001
 20
173.21549999999999
 30
0.0
 11
125.40000000000001
 21
173.21549999999999
 31
0.0
  0
LINE
  5
42D
  8
1
 10
104.90000000000001
 20
163.90000000000001
 30
0.0
 11
127.90000000000001
 21
163.90000000000001
 31
0.0
  0
LINE
  5
42E
  8
0
 10
115.39999999999991
 20
37.799999999999983
 30
0.0
 11
116.89999999999991
 21
37.799999999999983
 31
0.0
  0
LINE
  5
42F
  8
0
 10
116.90000000000001
 20
10.0
 30
0.0
 11
115.40000000000001
 21
10.0
 31
0.0
  0
LINE
  5
430
  8
0
 10
115.40000000000001
 20
10.4
 30
0.0
 11
107.40000000000001
 21
10.4
 31
0.0
  0
LINE
  5
431
  8
0
 10
107.39999999999991
 20
37.400000000000013
 30
0.0
 11
115.39999999999991
 21
37.400000000000013
 31
0.0
  0
LINE
  5
432
  8
0
 10
124.238
 20
34.377500000000012
 30
0.0
 11
125.40000000000001
 21
33.215500000000013
 31
0.0
  0
LINE
  5
433
  8
0
 10
125.40000000000001
 20
14.5845
 30
0.0
 11
124.238
 21
13.422499999999999
 31
0.0
  0
LINE
  5
434
  8
0
 10
118.5708810128
 20
34.377500000000012
 30
0.0
 11
124.238
 21
34.377500000000012
 31
0.0
  0
LINE
  5
435
  8
0
 10
124.238
 20
13.422499999999999
 30
0.0
 11
118.5708810128
 21
13.422499999999999
 31
0.0
  0
LINE
  5
436
  8
0
 10
118.5708810128
 20
13.422499999999999
 30
0.0
 11
117.90000000000001
 21
14.58449999999999
 31
0.0
  0
LINE
  5
437
  8
0
 10
117.90000000000001
 20
33.215499999999992
 30
0.0
 11
118.5708810128
 21
34.377500000000012
 31
0.0
  0
LINE
  5
438
  8
0
 10
116.90000000000001
 20
33.900000000000013
 30
0.0
 11
117.90000000000001
 21
33.900000000000013
 31
0.0
  0
LINE
  5
439
  8
0
 10
117.90000000000001
 20
13.9
 30
0.0
 11
116.90000000000001
 21
13.9
 31
0.0
  0
LINE
  5
43A
  8
0
 10
107.80192378860001
 20
24.987624173499999
 30
0.0
 11
114.65000000000001
 21
24.987624173499999
 31
0.0
  0
LINE
  5
43B
  8
0
 10
107.80192378860001
 20
22.812375826499991
 30
0.0
 11
107.80192378860001
 21
24.987624173499999
 31
0.0
  0
LINE
  5
43C
  8
0
 10
107.80192378860001
 20
22.812375826499991
 30
0.0
 11
114.65000000000001
 21
22.812375826499991
 31
0.0
  0
ARC
  5
43D
  8
0
 10
149.45607512839999
 20
17.010250236000029
 30
0.0
 40
42.056307317749827
 50
172.0701311233004
 51
179.80961033170061
  0
ARC
  5
43E
  8
0
 10
149.46174968700001
 20
30.790152552500029
 30
0.0
 40
42.06198318517562
 50
180.1909126484008
 51
187.92934589659981
  0
LINE
  5
43F
  8
0
 10
107.80192378860001
 20
11.48762417349999
 30
0.0
 11
114.65000000000001
 21
11.48762417349999
 31
0.0
  0
ARC
  5
440
  8
0
 10
149.46174968700001
 20
17.290152552500029
 30
0.0
 40
42.061983185177397
 50
180.1909126484008
 51
187.92934589659981
  0
LINE
  5
441
  8
0
 10
107.80192378859989
 20
36.312375826499988
 30
0.0
 11
114.64999999999991
 21
36.312375826499988
 31
0.0
  0
ARC
  5
442
  8
0
 10
149.45607512839999
 20
30.510250236000012
 30
0.0
 40
42.056307317750132
 50
172.0701311233004
 51
179.80961033170061
  0
LINE
  5
443
  8
0
 10
116.89999999999991
 20
37.799999999999983
 30
0.0
 11
116.90000000000001
 21
10.0
 31
0.0
  0
LINE
  5
444
  8
0
 10
115.39999999999991
 20
37.799999999999983
 30
0.0
 11
115.40000000000001
 21
10.0
 31
0.0
  0
LINE
  5
445
  8
0
 10
107.80192378860001
 20
10.4
 30
0.0
 11
107.80192378860001
 21
11.48762417349999
 31
0.0
  0
LINE
  5
446
  8
0
 10
107.80192378859989
 20
36.312375826499988
 30
0.0
 11
107.80192378859989
 21
37.400000000000013
 31
0.0
  0
LINE
  5
447
  8
0
 10
107.39999999999991
 20
37.400000000000013
 30
0.0
 11
107.40000000000001
 21
10.4
 31
0.0
  0
LINE
  5
448
  8
0
 10
124.238
 20
34.377500000000012
 30
0.0
 11
124.238
 21
13.422499999999999
 31
0.0
  0
LINE
  5
449
  8
0
 10
125.40000000000001
 20
14.5845
 30
0.0
 11
125.40000000000001
 21
33.215500000000013
 31
0.0
  0
LINE
  5
44A
  8
0
 10
118.5708810128
 20
34.377500000000012
 30
0.0
 11
118.5708810128
 21
13.422499999999999
 31
0.0
  0
LINE
  5
44B
  8
0
 10
117.90000000000001
 20
33.900000000000013
 30
0.0
 11
117.90000000000001
 21
13.9
 31
0.0
  0
LINE
  5
44C
  8
0
 10
114.64999999999991
 20
37.400000000000013
 30
0.0
 11
114.65000000000001
 21
10.4
 31
0.0
  0
LINE
  5
44D
  8
2
 10
118.40000000000001
 20
18.899999999999999
 30
0.0
 11
118.39999999999991
 21
28.899999999999999
 31
0.0
  0
LINE
  5
44E
  8
2
 10
125.40000000000001
 20
18.90000000000002
 30
0.0
 11
118.40000000000001
 21
18.899999999999999
 31
0.0
  0
LINE
  5
44F
  8
2
 10
118.39999999999991
 20
28.899999999999999
 30
0.0
 11
125.40000000000001
 21
28.90000000000002
 31
0.0
  0
LINE
  5
450
  8
2
 10
118.40000000000001
 20
18.899999999999999
 30
0.0
 11
115.3956969048
 21
23.900000000000009
 31
0.0
  0
LINE
  5
451
  8
2
 10
115.3956969048
 20
23.900000000000009
 30
0.0
 11
118.39999999999991
 21
28.899999999999999
 31
0.0
  0
LINE
  5
452
  8
3
 10
117.90000000000001
 20
33.215499999999992
 30
0.0
 11
125.39999999999991
 21
33.215499999999949
 31
0.0
  0
LINE
  5
453
  8
3
 10
117.90000000000001
 20
14.584499999999981
 30
0.0
 11
125.40000000000001
 21
14.58450000000003
 31
0.0
  0
LINE
  5
454
  8
1
 10
104.90000000000001
 20
23.899999999999991
 30
0.0
 11
127.90000000000001
 21
23.900000000000009
 31
0.0
  0
ENDSEC
  0
EOF
