  0
SECTION
  2
HEADER
  9
$ACADVER
  1
AC1009
  9
$INSBASE
 10
0.0
 20
0.0
 30
0.0
  9
$EXTMIN
 10
0.0
 20
-2.960436562073669
 30
0.0
  9
$EXTMAX
 10
347.59999968114329
 20
349.77530426275001
 30
0.0
  9
$LIMMIN
 10
0.0
 20
0.0
  9
$LIMMAX
 10
420.0
 20
297.0
  9
$ORTHOMODE
 70
     1
  9
$REGENMODE
 70
     1
  9
$FILLMODE
 70
     1
  9
$QTEXTMODE
 70
     0
  9
$MIRRTEXT
 70
     0
  9
$DRAGMODE
 70
     2
  9
$LTSCALE
 40
1.0
  9
$OSMODE
 70
    37
  9
$ATTMODE
 70
     1
  9
$TEXTSIZE
 40
2.5
  9
$TRACEWID
 40
1.0
  9
$TEXTSTYLE
  7
STANDARD
  9
$CLAYER
  8
0
  9
$CELTYPE
  6
BYLAYER
  9
$CECOLOR
 62
   256
  9
$DIMSCALE
 40
1.0
  9
$DIMASZ
 40
2.5
  9
$DIMEXO
 40
0.625
  9
$DIMDLI
 40
3.75
  9
$DIMRND
 40
0.0
  9
$DIMDLE
 40
0.0
  9
$DIMEXE
 40
1.25
  9
$DIMTP
 40
0.0
  9
$DIMTM
 40
0.0
  9
$DIMTXT
 40
2.5
  9
$DIMCEN
 40
2.5
  9
$DIMTSZ
 40
0.0
  9
$DIMTOL
 70
     0
  9
$DIMLIM
 70
     0
  9
$DIMTIH
 70
     0
  9
$DIMTOH
 70
     0
  9
$DIMSE1
 70
     0
  9
$DIMSE2
 70
     0
  9
$DIMTAD
 70
     1
  9
$DIMZIN
 70
     8
  9
$DIMBLK
  1

  9
$DIMASO
 70
     1
  9
$DIMSHO
 70
     1
  9
$DIMPOST
  1

  9
$DIMAPOST
  1

  9
$DIMALT
 70
     0
  9
$DIMALTD
 70
     3
  9
$DIMALTF
 40
0.03937007874016
  9
$DIMLFAC
 40
1.0
  9
$DIMTOFL
 70
     1
  9
$DIMTVP
 40
0.0
  9
$DIMTIX
 70
     0
  9
$DIMSOXD
 70
     0
  9
$DIMSAH
 70
     0
  9
$DIMBLK1
  1

  9
$DIMBLK2
  1

  9
$DIMSTYLE
  2
ISO-25
  9
$DIMCLRD
 70
     0
  9
$DIMCLRE
 70
     0
  9
$DIMCLRT
 70
     0
  9
$DIMTFAC
 40
1.0
  9
$DIMGAP
 40
0.625
  9
$LUNITS
 70
     2
  9
$LUPREC
 70
     4
  9
$SKETCHINC
 40
1.0
  9
$FILLETRAD
 40
0.5
  9
$AUNITS
 70
     0
  9
$AUPREC
 70
     0
  9
$MENU
  1
.
  9
$ELEVATION
 40
0.0
  9
$PELEVATION
 40
0.0
  9
$THICKNESS
 40
0.0
  9
$LIMCHECK
 70
     0
  9
$BLIPMODE
 70
     0
  9
$CHAMFERA
 40
0.0
  9
$CHAMFERB
 40
0.0
  9
$SKPOLY
 70
     0
  9
$TDCREATE
 40
2454946.599777373
  9
$TDUPDATE
 40
2457297.4801373729
  9
$TDINDWG
 40
0.7541566319
  9
$TDUSRTIMER
 40
0.7541564583
  9
$USRTIMER
 70
     1
  9
$ANGBASE
 50
0.0
  9
$ANGDIR
 70
     0
  9
$PDMODE
 70
     0
  9
$PDSIZE
 40
0.0
  9
$PLINEWID
 40
0.0
  9
$COORDS
 70
     1
  9
$SPLFRAME
 70
     0
  9
$SPLINETYPE
 70
     6
  9
$SPLINESEGS
 70
     8
  9
$ATTDIA
 70
     0
  9
$ATTREQ
 70
     1
  9
$HANDLING
 70
     1
  9
$HANDSEED
  5
B1A5
  9
$SURFTAB1
 70
     6
  9
$SURFTAB2
 70
     6
  9
$SURFTYPE
 70
     6
  9
$SURFU
 70
     6
  9
$SURFV
 70
     6
  9
$UCSNAME
  2

  9
$UCSORG
 10
0.0
 20
0.0
 30
0.0
  9
$UCSXDIR
 10
1.0
 20
0.0
 30
0.0
  9
$UCSYDIR
 10
0.0
 20
1.0
 30
0.0
  9
$PUCSNAME
  2

  9
$PUCSORG
 10
0.0
 20
0.0
 30
0.0
  9
$PUCSXDIR
 10
1.0
 20
0.0
 30
0.0
  9
$PUCSYDIR
 10
0.0
 20
1.0
 30
0.0
  9
$USERI1
 70
     0
  9
$USERI2
 70
     0
  9
$USERI3
 70
     0
  9
$USERI4
 70
     0
  9
$USERI5
 70
     0
  9
$USERR1
 40
0.0
  9
$USERR2
 40
0.0
  9
$USERR3
 40
0.0
  9
$USERR4
 40
0.0
  9
$USERR5
 40
0.0
  9
$WORLDVIEW
 70
     1
  9
$SHADEDGE
 70
     3
  9
$SHADEDIF
 70
    70
  9
$TILEMODE
 70
     1
  9
$MAXACTVP
 70
    64
  9
$PLIMCHECK
 70
     0
  9
$PEXTMIN
 10
0.0
 20
0.0
 30
0.0
  9
$PEXTMAX
 10
0.0
 20
0.0
 30
0.0
  9
$PLIMMIN
 10
0.0
 20
0.0
  9
$PLIMMAX
 10
12.0
 20
9.0
  9
$UNITMODE
 70
     0
  9
$VISRETAIN
 70
     1
  9
$PLINEGEN
 70
     0
  9
$PSLTSCALE
 70
     1
  0
ENDSEC
  0
SECTION
  2
TABLES
  0
TABLE
  2
VPORT
 70
     1
  0
VPORT
  2
*ACTIVE
 70
     0
 10
0.0
 20
0.0
 11
1.0
 21
1.0
 12
285.09316770186342
 22
208.29255925972879
 13
0.0
 23
0.0
 14
10.0
 24
10.0
 15
10.0
 25
10.0
 16
0.0
 26
0.0
 36
1.0
 17
0.0
 27
0.0
 37
0.0
 40
416.58511851945758
 41
1.368715083798882
 42
50.0
 43
0.0
 44
0.0
 50
0.0
 51
0.0
 71
     0
 72
  1000
 73
     1
 74
     3
 75
     0
 76
     0
 77
     0
 78
     0
  0
ENDTAB
  0
TABLE
  2
LTYPE
 70
     2
  0
LTYPE
  2
CONTINUOUS
 70
     0
  3
Solid line
 72
    65
 73
     0
 40
0.0
  0
LTYPE
  2
CENTER
 70
     0
  3
Center ____ _ ____ _ ____ _ ____ _ ____ _ ____
 72
    65
 73
     4
 40
10.16
 49
6.3499999999999988
 49
-1.27
 49
1.27
 49
-1.27
  0
ENDTAB
  0
TABLE
  2
LAYER
 70
     4
  0
LAYER
  2
0
 70
     0
 62
     7
  6
CONTINUOUS
  0
LAYER
  2
DEFPOINTS
 70
     0
 62
     7
  6
CONTINUOUS
  0
LAYER
  2
1
 70
     0
 62
     1
  6
CENTER
  0
LAYER
  2
3
 70
     0
 62
     3
  6
CONTINUOUS
  0
ENDTAB
  0
TABLE
  2
STYLE
 70
     3
  0
STYLE
  2
STANDARD
 70
     0
 40
0.0
 41
1.0
 50
0.0
 71
     0
 42
2.5
  3
txt
  4

  0
STYLE
  2
STANDARD1
 70
     0
 40
0.0
 41
1.0
 50
0.0
 71
     0
 42
3.0
  3
txt
  4

  0
STYLE
  2
SIM065
 70
     0
 40
0.0
 41
0.65
 50
0.0
 71
     0
 42
3.2000000000000002
  3
SIMPLEX
  4

  0
ENDTAB
  0
TABLE
  2
VIEW
 70
     0
  0
ENDTAB
  0
TABLE
  2
UCS
 70
     0
  0
ENDTAB
  0
TABLE
  2
APPID
 70
   128
  0
APPID
  2
ACAD
 70
     0
  0
APPID
  2
_FTCNV
 70
     0
  0
APPID
  2
GENIUS_GENODEF_13
 70
     0
  0
APPID
  2
GENIUS_GENOENT_13
 70
     0
  0
APPID
  2
GENIUS_GENOBJ-N-CEN_13
 70
     0
  0
APPID
  2
GENIUS_GENOLIS_13
 70
     0
  0
APPID
  2
GENIUS_GENOREF_13
 70
     0
  0
APPID
  2
GENIUS_GENOBJ-N-CRS_13
 70
     0
  0
APPID
  2
GENIUS_GENOBJ-N-FIL_13
 70
     0
  0
APPID
  2
GENIUS_GENOBJ-N-REC_13
 70
     0
  0
APPID
  2
GENIUS_GENFIL_13
 70
     0
  0
APPID
  2
GENIUS_GENOBJ-N-CHA_13
 70
     0
  0
APPID
  2
ASM_BASE
 70
     0
  0
APPID
  2
_PHO
 70
     0
  0
APPID
  2
_CLP
 70
     0
  0
APPID
  2
MOJIGUMI_PARTS
 70
     0
  0
APPID
  2
_DBL
 70
     0
  0
APPID
  2
_PWH
 70
     0
  0
APPID
  2
_G9P
 70
     0
  0
APPID
  2
AME_SOL
 70
     0
  0
APPID
  2
HAKO_DEF
 70
     0
  0
APPID
  2
HAKO_TXT
 70
     0
  0
APPID
  2
HAKO_OVR
 70
     0
  0
APPID
  2
ASM_EXPLO_VER_2_00
 70
     0
  0
APPID
  2
ASM_CADM_VER_12_00
 70
     0
  0
APPID
  2
ASM_BASEFORO
 70
     0
  0
APPID
  2
ASM_BASETRAVI
 70
     0
  0
APPID
  2
ASM_BASETRAVI1
 70
     0
  0
APPID
  2
ASM_GRUPPI
 70
     0
  0
APPID
  2
ASM_CADM_ALBERO
 70
     0
  0
APPID
  2
ASM_GOLE
 70
     0
  0
APPID
  2
GENIUS_GENCFG_13
 70
     0
  0
APPID
  2
GENIUS_GENCFG0_13
 70
     0
  0
APPID
  2
GENIUS_GENCFG1_13
 70
     0
  0
APPID
  2
GENIUS_GENCFG2_13
 70
     0
  0
APPID
  2
GENIUS_GENCFG3_13
 70
     0
  0
APPID
  2
GENIUS_GENCFG4_13
 70
     0
  0
APPID
  2
GENIUS_GEVCFG0_13
 70
     0
  0
APPID
  2
GENIUS_GENHATCH_13
 70
     0
  0
APPID
  2
GENIUS_GEFCFG0_13
 70
     0
  0
APPID
  2
GENIUS_GENOBJ-N-HTC_13
 70
     0
  0
APPID
  2
DCO15
 70
     0
  0
APPID
  2
AVE_RENDER
 70
     0
  0
APPID
  2
AVE_ENTITY_MATERIAL
 70
     0
  0
APPID
  2
AVE_FINISH
 70
     0
  0
APPID
  2
AVE_MATERIAL
 70
     0
  0
APPID
  2
AVE_GLOBAL
 70
     0
  0
APPID
  2
_NUM
 70
     0
  0
APPID
  2
HAKO_FNM
 70
     0
  0
APPID
  2
_CALL_MAC$
 70
     0
  0
APPID
  2
ACA_CADIMENU
 70
     0
  0
APPID
  2
AUTOCAD_POSTSCRIPT_FIGURE
 70
     0
  0
APPID
  2
GEV_VCCNULL_SWITCH_OFF
 70
     0
  0
APPID
  2
GENIUS_GENDTOL_13
 70
     0
  0
APPID
  2
GENIUS_GEFWELD_13
 70
     0
  0
APPID
  2
GENIUS_GENOBJ-F-WELS_13
 70
     0
  0
APPID
  2
GEVID961514679
 70
     0
  0
APPID
  2
GEVDC
 70
     0
  0
APPID
  2
GEVPT
 70
     0
  0
APPID
  2
GEVIT
 70
     0
  0
APPID
  2
VCC
 70
     0
  0
APPID
  2
GENBH
 70
     0
  0
APPID
  2
GEVMK
 70
     0
  0
APPID
  2
GENIUS_GENBH_13
 70
     0
  0
APPID
  2
GENIUS_GENOBJ-NBEHI-BHF_13
 70
     0
  0
APPID
  2
GENIUS_GENOBJ-NBEHI-BHB_13
 70
     0
  0
APPID
  2
GENIUS_GENOBJ-F-DESC_13
 70
     0
  0
APPID
  2
GENIUS_GEFDESC_14
 70
     0
  0
APPID
  2
GENIUS_GENOBJ-F-PART_13
 70
     0
  0
APPID
  2
GENIUS_GEFSTDP_13
 70
     0
  0
APPID
  2
GENIUS_GEFPARTINS_13
 70
     0
  0
APPID
  2
GEVID961514680
 70
     0
  0
APPID
  2
GENIUS_GENTRA_14
 70
     0
  0
APPID
  2
GENIUS_GENINF13_13
 70
     0
  0
APPID
  2
GENIUS_GENOBJ-N-INFOPT_13
 70
     0
  0
APPID
  2
GENIUS_GENOBJ-N-RSSYM_13
 70
     0
  0
APPID
  2
GENIUS_GENSYMENT_13
 70
     0
  0
APPID
  2
GENIUS_GENSCSYM_13
 70
     0
  0
APPID
  2
GENIUS_GEFINFNAM_13
 70
     0
  0
APPID
  2
GENIUS_GENREC_14
 70
     0
  0
APPID
  2
GEVID962097543
 70
     0
  0
APPID
  2
GEVID962097544
 70
     0
  0
APPID
  2
GEVID962097545
 70
     0
  0
APPID
  2
GENIUS_DUMCFG0_13
 70
     0
  0
APPID
  2
GEVID962352965
 70
     0
  0
APPID
  2
GEVID962352966
 70
     0
  0
APPID
  2
GEVID962352968
 70
     0
  0
APPID
  2
GEVRADREF
 70
     0
  0
APPID
  2
GEVID963230099
 70
     0
  0
APPID
  2
GENIUS_GENOBJ-F-FEAT_13
 70
     0
  0
APPID
  2
GENIUS_GEFFEAT_14
 70
     0
  0
APPID
  2
GEVID963230100
 70
     0
  0
APPID
  2
GEVID963230101
 70
     0
  0
APPID
  2
GENIUS_GENHINW_13
 70
     0
  0
APPID
  2
GENIUS_FIRSTVISTXT_14
 70
     0
  0
APPID
  2
GENIUS_GENOBJ-N-LEADER_13
 70
     0
  0
APPID
  2
GEVID971698136
 70
     0
  0
APPID
  2
GEVID972029070
 70
     0
  0
APPID
  2
MCAD_NO_VIS
 70
     0
  0
APPID
  2
ACAD_TEMP_GRAPHIC
 70
     0
  0
APPID
  2
ACATTRIBSERVICES
 70
     0
  0
APPID
  2
GENIUS_GENDIMSH_14
 70
     0
  0
APPID
  2
CONTENTTABDATA
 70
     0
  0
APPID
  2
CONTENTCURRENTTAB
 70
     0
  0
APPID
  2
GENIUS_GENBLKED_14
 70
     0
  0
APPID
  2
GENIUS_GENOBJ_13
 70
     0
  0
APPID
  2
GENIUS_GENOBJ-N-TIT_13
 70
     0
  0
APPID
  2
GENIUS_GENTITLE_13
 70
     0
  0
APPID
  2
GENIUS_GENZVEED_13
 70
     0
  0
APPID
  2
GENIUS_GEFINERT_13
 70
     0
  0
APPID
  2
GENIUS_GENOBJ-F-INER_13
 70
     0
  0
APPID
  2
GENIUS_GENOBJ-N-ZOO_13
 70
     0
  0
APPID
  2
GENIUS_GENZOO_13
 70
     0
  0
APPID
  2
GENIUS_GENOBJ-F-TOL_13
 70
     0
  0
APPID
  2
GENIUS_GENOBJ-N-REV_13
 70
     0
  0
APPID
  2
GENIUS_GENREC_13
 70
     0
  0
APPID
  2
_KTH
 70
     0
  0
APPID
  2
GENIUS_GENOBJ-N-SEC_13
 70
     0
  0
APPID
  2
ACAD_EXEMPT_FROM_CAD_STANDARDS
 70
     0
  0
APPID
  2
ACAD_MLEADERVER
 70
     0
  0
APPID
  2
ACAD_NAV_VCDISPLAY
 70
     0
  0
APPID
  2
ACAD_PSEXT
 70
     0
  0
APPID
  2
ACAD_DSTYLE_DIMJAG
 70
     0
  0
APPID
  2
ACAD_DSTYLE_DIMTALN
 70
     0
  0
APPID
  2
ACAD_DSTYLE_DIMBREAK
 70
     0
  0
APPID
  2
ACAECLAYERSTANDARD
 70
     0
  0
APPID
  2
ACCMTRANSPARENCY
 70
     0
  0
APPID
  2
ACAD_DSTYLE_DIM_LINETYPE
 70
     0
  0
ENDTAB
  0
TABLE
  2
DIMSTYLE
 70
     2
  0
DIMSTYLE
  2
ISO-25
 70
     0
  3

  4

  5

  6

  7

 40
1.0
 41
2.5
 42
0.625
 43
3.75
 44
1.25
 45
0.0
 46
0.0
 47
0.0
 48
0.0
140
2.5
141
2.5
142
0.0
143
0.03937007874016
144
1.0
145
0.0
146
1.0
147
0.625
 71
     0
 72
     0
 73
     0
 74
     0
 75
     0
 76
     0
 77
     1
 78
     8
170
     0
171
     3
172
     1
173
     0
174
     0
175
     0
176
     0
177
     0
178
     0
  0
DIMSTYLE
  2
STANDARD
 70
     0
  3

  4

  5

  6

  7

 40
1.0
 41
0.18
 42
0.0625
 43
0.38
 44
0.18
 45
0.0
 46
0.0
 47
0.0
 48
0.0
140
0.18
141
0.09
142
0.0
143
25.399999999999999
144
1.0
145
0.0
146
1.0
147
0.09
 71
     0
 72
     0
 73
     1
 74
     1
 75
     0
 76
     0
 77
     0
 78
     0
170
     0
171
     2
172
     0
173
     0
174
     0
175
     0
176
     0
177
     0
178
     0
  0
ENDTAB
  0
ENDSEC
  0
SECTION
  2
BLOCKS
  0
BLOCK
  8
0
  2
$MODEL_SPACE
 70
     0
 10
0.0
 20
0.0
 30
0.0
  3
$MODEL_SPACE
  1

  0
ENDBLK
  5
21
  8
0
  0
BLOCK
 67
     1
  8
0
  2
$PAPER_SPACE
 70
     0
 10
0.0
 20
0.0
 30
0.0
  3
$PAPER_SPACE
  1

  0
ENDBLK
  5
53
 67
     1
  8
0
  0
ENDSEC
  0
SECTION
  2
ENTITIES
  0
TEXT
  5
80B7
  8
0
 62
     3
 10
0.0
 20
0.0
 30
0.0
 40
10.0
  1
SNDEP10-MS
  7
STANDARD1
  0
LINE
  5
88C5
  8
1
 10
200.00000000000011
 20
152.82469585535
 30
0.0
 11
199.99999999999989
 21
247.17530414465
 31
0.0
  0
LINE
  5
88C9
  8
1
 10
200.00000000004351
 20
349.77530426275001
 30
0.0
 11
200.0000000000432
 21
289.47530609615001
 31
0.0
  0
LINE
  5
88D5
  8
1
 10
200.00000000004351
 20
110.8753034286499
 30
0.0
 11
200.0000000000432
 21
50.575305055849917
 31
0.0
  0
LINE
  5
88D8
  8
1
 10
185.00000000009319
 20
83.725305055849944
 30
0.0
 11
185.00000000009319
 21
64.12530505584995
 31
0.0
  0
LINE
  5
88D9
  8
1
 10
215.00000000009319
 20
83.725305055849944
 30
0.0
 11
215.00000000009319
 21
64.12530505584995
 31
0.0
  0
LINE
  5
88DA
  8
1
 10
175.20000000009321
 20
73.925305055849947
 30
0.0
 11
224.80000000009309
 21
73.925305055849947
 31
0.0
  0
ARC
  5
8FE3
  8
0
 10
217.2000000000433
 20
171.1753047108499
 30
0.0
 40
0.3000000000000114
 50
270.0
 51
0.0
  0
ARC
  5
8FE4
  8
0
 10
212.8000000000433
 20
171.1753047108499
 30
0.0
 40
0.3000000000000114
 50
180.0
 51
270.0
  0
ARC
  5
8FE5
  8
0
 10
187.2000000000433
 20
171.1753047108499
 30
0.0
 40
0.3000000000000114
 50
270.0
 51
0.0
  0
ARC
  5
8FE6
  8
0
 10
182.8000000000433
 20
171.1753047108499
 30
0.0
 40
0.3000000000000114
 50
180.0
 51
270.0
  0
LINE
  5
8FE7
  8
0
 10
212.50000018624331
 20
172.97530435025001
 30
0.0
 11
212.50000018624331
 21
171.17530554535
 31
0.0
  0
LINE
  5
8FE8
  8
0
 10
217.50000007454329
 20
171.17530554535
 30
0.0
 11
217.50000007454329
 21
172.97530435025001
 31
0.0
  0
LINE
  5
8FE9
  8
0
 10
182.49999992544329
 20
172.97530435025001
 30
0.0
 11
182.49999992544329
 21
171.17530554535
 31
0.0
  0
LINE
  5
8FEA
  8
0
 10
187.4999998137433
 20
171.17530554535
 30
0.0
 11
187.4999998137433
 21
172.97530435025001
 31
0.0
  0
LINE
  5
8FEB
  8
0
 10
174.85000081364331
 20
211.67530473324999
 30
0.0
 11
175.9999997913433
 21
211.67530473324999
 31
0.0
  0
LINE
  5
8FEC
  8
0
 10
180.20000010724331
 20
171.97530418635
 30
0.0
 11
180.44778779144329
 21
168.43176335095001
 31
0.0
  0
LINE
  5
8FED
  8
0
 10
189.55221101644329
 20
168.43176335095001
 30
0.0
 11
189.79999963194331
 21
171.97530418635
 31
0.0
  0
LINE
  5
8FEE
  8
0
 10
189.79999963194331
 20
171.97530418635
 30
0.0
 11
189.79999963194331
 21
172.97530435025001
 31
0.0
  0
LINE
  5
8FEF
  8
0
 10
180.20000010724331
 20
172.97530435025001
 30
0.0
 11
180.20000010724331
 21
171.97530418635
 31
0.0
  0
LINE
  5
8FF0
  8
0
 10
210.20000036804331
 20
171.97530418635
 30
0.0
 11
210.4000000283433
 21
169.11517158154999
 31
0.0
  0
LINE
  5
8FF1
  8
0
 10
219.60000023244331
 20
169.11517158154999
 30
0.0
 11
219.7999998927433
 21
171.97530418635
 31
0.0
  0
LINE
  5
8FF2
  8
0
 10
219.7999998927433
 20
171.97530418635
 30
0.0
 11
219.7999998927433
 21
172.97530435025001
 31
0.0
  0
LINE
  5
8FF3
  8
0
 10
210.20000036804331
 20
172.97530435025001
 30
0.0
 11
210.20000036804331
 21
171.97530418635
 31
0.0
  0
LINE
  5
8FF4
  8
0
 10
219.60000023244331
 20
165.47530591485
 30
0.0
 11
219.60000023244331
 21
169.11517158154999
 31
0.0
  0
LINE
  5
8FF5
  8
0
 10
210.4000000283433
 20
169.11517158154999
 30
0.0
 11
210.4000000283433
 21
165.47530591485
 31
0.0
  0
LINE
  5
8FF6
  8
0
 10
180.44778779144329
 20
168.43176335095001
 30
0.0
 11
181.00000061094329
 21
167.47530624275001
 31
0.0
  0
LINE
  5
8FF7
  8
0
 10
189.0000000596433
 20
167.47530624275001
 30
0.0
 11
189.55221101644329
 21
168.43176335095001
 31
0.0
  0
LINE
  5
8FF8
  8
0
 10
189.0000000596433
 20
163.07530626655
 30
0.0
 11
189.0000000596433
 21
167.47530624275001
 31
0.0
  0
LINE
  5
8FF9
  8
0
 10
181.00000061094329
 20
167.47530624275001
 30
0.0
 11
181.00000061094329
 21
163.07530626655
 31
0.0
  0
LINE
  5
8FFA
  8
0
 10
181.00000061094329
 20
163.07530626655
 30
0.0
 11
181.59999959174331
 21
162.47530356055
 31
0.0
  0
LINE
  5
8FFB
  8
0
 10
188.4000001475433
 20
162.47530356055
 30
0.0
 11
189.0000000596433
 21
163.07530626655
 31
0.0
  0
LINE
  5
8FFC
  8
0
 10
188.4000001475433
 20
160.47530323264999
 30
0.0
 11
188.4000001475433
 21
162.47530356055
 31
0.0
  0
LINE
  5
8FFD
  8
0
 10
181.59999959174331
 20
162.47530356055
 30
0.0
 11
181.59999959174331
 21
160.47530323264999
 31
0.0
  0
LINE
  5
9002
  8
0
 10
175.9999997913433
 20
234.95965898035001
 30
0.0
 11
174.85000081364331
 21
234.95965898035001
 31
0.0
  0
LINE
  5
900D
  8
0
 10
223.89214560384329
 20
179.59708794955
 30
0.0
 11
176.1078543961433
 21
179.59708794955
 31
0.0
  0
ARC
  5
900E
  8
0
 10
179.00000000004329
 20
180.39426800104991
 30
0.0
 40
3.0
 50
180.0
 51
195.4101231158013
  0
LINE
  5
900F
  8
0
 10
175.9999997913433
 20
180.39426840844999
 30
0.0
 11
176.00000000004329
 21
240.17530471085001
 31
0.0
  0
LINE
  5
9010
  8
0
 10
175.9999997913433
 20
200.17530471085001
 30
0.0
 11
184.30000059304331
 21
200.17530471085001
 31
0.0
  0
LINE
  5
9012
  8
0
 10
215.69999940694331
 20
200.17530471085001
 30
0.0
 11
224.00000020864331
 21
200.17530471085001
 31
0.0
  0
LINE
  5
9013
  8
0
 10
224.00000020864331
 20
180.39426840844999
 30
0.0
 11
224.00000000004329
 21
240.17530471085001
 31
0.0
  0
ARC
  5
9014
  8
0
 10
221.00000000004329
 20
180.39426800104991
 30
0.0
 40
3.0
 50
344.5898768841987
 51
0.0
  0
ARC
  5
9016
  8
0
 10
200.00000000004329
 20
200.17530471085001
 30
0.0
 40
15.700000000000021
 50
180.0
 51
0.0
  0
LINE
  5
9018
  8
0
 10
224.00000020864331
 20
215.04730433225001
 30
0.0
 11
175.9999997913433
 21
215.04730433225001
 31
0.0
  0
ARC
  5
9024
  8
0
 10
221.0446494470433
 20
216.69588173195001
 30
0.0
 40
0.9566200472803762
 50
267.3247781392003
 51
357.04775969929949
  0
LINE
  5
902B
  8
0
 10
221.9999998807433
 20
228.42861413955001
 30
0.0
 11
221.9999998807433
 21
216.64661243555
 31
0.0
  0
LINE
  5
902C
  8
0
 10
179.00000028314329
 20
215.74030425404999
 30
0.0
 11
220.99999971684329
 21
215.74030425404999
 31
0.0
  0
ARC
  5
902D
  8
0
 10
178.95535055294329
 20
216.69588173195001
 30
0.0
 40
0.9566200472803751
 50
182.9522403007004
 51
272.6752218607997
  0
LINE
  5
902E
  8
0
 10
178.00000011924331
 20
228.42861413955001
 30
0.0
 11
178.00000011924331
 21
216.64661243555
 31
0.0
  0
ARC
  5
902F
  8
0
 10
178.9553487676433
 20
228.37934583115
 30
0.0
 40
0.9566182134275238
 50
87.3246659590001
 51
177.0478132859989
  0
LINE
  5
9030
  8
0
 10
220.99999971684329
 20
229.33492138985
 30
0.0
 11
179.00000028314329
 21
229.33492138985
 31
0.0
  0
ARC
  5
9031
  8
0
 10
221.04465123234331
 20
228.37934583115
 30
0.0
 40
0.9566182134275018
 50
2.9521867140010909
 51
92.675334040999914
  0
LINE
  5
903E
  8
0
 10
183.34999941284329
 20
219.95392702525001
 30
0.0
 11
187.3500000685433
 21
219.95392702525001
 31
0.0
  0
ARC
  5
9041
  8
0
 10
187.3946512788433
 20
220.90950281945001
 30
0.0
 40
0.9566184344019447
 50
267.32468487600022
 51
357.04791155589908
  0
ARC
  5
9043
  8
0
 10
183.30534856934329
 20
220.90950322405001
 30
0.0
 40
0.9566188215374311
 50
182.95211151949869
 51
272.6752920486004
  0
LINE
  5
9044
  8
0
 10
182.34999924894331
 20
224.48546700185011
 30
0.0
 11
182.34999924894331
 21
220.86023613814999
 31
0.0
  0
ARC
  5
9045
  8
0
 10
183.30534863094331
 20
224.43619788395
 30
0.0
 40
0.9566189876991565
 50
87.324712109699746
 51
177.04776713529969
  0
LINE
  5
9046
  8
0
 10
187.3500000685433
 20
225.39177425205
 30
0.0
 11
183.34999941284329
 21
225.39177425205
 31
0.0
  0
ARC
  5
9047
  8
0
 10
187.39465121724319
 20
224.43619828864999
 30
0.0
 40
0.9566186005625583
 50
2.952209789299892
 51
92.675310965599948
  0
LINE
  5
9048
  8
0
 10
188.35000023244331
 20
220.86023613814999
 30
0.0
 11
188.35000023244331
 21
224.48546700185011
 31
0.0
  0
ARC
  5
904B
  8
0
 10
212.60534872114329
 20
220.90950281945001
 30
0.0
 40
0.9566184344019777
 50
182.95208844419869
 51
272.67531512399978
  0
LINE
  5
904C
  8
0
 10
203.0000000260433
 20
220.86023613814999
 30
0.0
 11
203.0000000260433
 21
224.48546700185011
 31
0.0
  0
ARC
  5
904D
  8
0
 10
202.04465152214331
 20
220.90950233474999
 30
0.0
 40
0.9566179603766573
 50
267.32467054829999
 51
357.04793915940002
  0
LINE
  5
904E
  8
0
 10
197.9999999050433
 20
219.95392702525001
 30
0.0
 11
202.00000009494329
 21
219.95392702525001
 31
0.0
  0
ARC
  5
904F
  8
0
 10
197.9553484778433
 20
220.90950233474999
 30
0.0
 40
0.9566179603766573
 50
182.95206084060001
 51
272.67532945170001
  0
LINE
  5
9050
  8
0
 10
196.99999997394329
 20
224.48546700185011
 30
0.0
 11
196.99999997394329
 21
220.86023613814999
 31
0.0
  0
ARC
  5
9051
  8
0
 10
197.95534853944329
 20
224.43619877334999
 30
0.0
 40
0.9566181265350092
 50
87.324674706600419
 51
177.0478178142985
  0
LINE
  5
9052
  8
0
 10
202.00000009494329
 20
225.39177425205
 30
0.0
 11
197.9999999050433
 21
225.39177425205
 31
0.0
  0
ARC
  5
9053
  8
0
 10
202.04465146054329
 20
224.43619877334999
 30
0.0
 40
0.9566181265350092
 50
2.9521821857014721
 51
92.675325293399567
  0
LINE
  5
9054
  8
0
 10
217.65000075104331
 20
220.86023613814999
 30
0.0
 11
217.65000075104331
 21
224.48546700185011
 31
0.0
  0
ARC
  5
9055
  8
0
 10
216.69465143064329
 20
220.90950322405001
 30
0.0
 40
0.9566188215374311
 50
267.32470795139938
 51
357.04788848050117
  0
LINE
  5
9056
  8
0
 10
212.64999993144329
 20
219.95392702525001
 30
0.0
 11
216.6500005871433
 21
219.95392702525001
 31
0.0
  0
LINE
  5
9057
  8
0
 10
211.64999976754331
 20
224.48546700185011
 30
0.0
 11
211.64999976754331
 21
220.86023613814999
 31
0.0
  0
ARC
  5
9058
  8
0
 10
212.60534878274331
 20
224.43619828864999
 30
0.0
 40
0.9566186005625583
 50
87.324689034400066
 51
177.0477902107001
  0
LINE
  5
9059
  8
0
 10
216.6500005871433
 20
225.39177425205
 30
0.0
 11
212.64999993144329
 21
225.39177425205
 31
0.0
  0
ARC
  5
905A
  8
0
 10
216.6946513690433
 20
224.43619788395
 30
0.0
 40
0.9566189876991272
 50
2.9522328647002771
 51
92.675287890300254
  0
POLYLINE
  5
9061
  8
0
 66
     1
 10
0.0
 20
0.0
 30
0.0
 70
   128
  0
VERTEX
  5
ABF0
  8
0
 10
192.6749998703433
 20
223.91820587215011
 30
0.0
  0
VERTEX
  5
ABF1
  8
0
 10
193.0975986644433
 20
223.86313863095
 30
0.0
  0
VERTEX
  5
ABF2
  8
0
 10
193.48596110944331
 20
223.70239607995001
 30
0.0
  0
VERTEX
  5
ABF3
  8
0
 10
193.8086243346433
 20
223.44900183384999
 30
0.0
  0
VERTEX
  5
ABF4
  8
0
 10
194.0394479781433
 20
223.12348410485001
 30
0.0
  0
VERTEX
  5
ABF5
  8
0
 10
194.15973201394331
 20
222.75221608575001
 30
0.0
  0
VERTEX
  5
ABF6
  8
0
 10
194.15973201394331
 20
222.36527204514999
 30
0.0
  0
VERTEX
  5
ABF7
  8
0
 10
194.0394479781433
 20
221.99400402604999
 30
0.0
  0
VERTEX
  5
ABF8
  8
0
 10
193.8086243346433
 20
221.66848629715011
 30
0.0
  0
VERTEX
  5
ABF9
  8
0
 10
193.48596110944331
 20
221.4150920510501
 30
0.0
  0
VERTEX
  5
ABFA
  8
0
 10
193.0975986644433
 20
221.25434949995
 30
0.0
  0
VERTEX
  5
ABFB
  8
0
 10
192.6749998703433
 20
221.19928225875009
 30
0.0
  0
VERTEX
  5
ABFC
  8
0
 10
192.2524010762433
 20
221.25434949995
 30
0.0
  0
VERTEX
  5
ABFD
  8
0
 10
191.86403863134319
 20
221.4150920510501
 30
0.0
  0
VERTEX
  5
ABFE
  8
0
 10
191.5413754060433
 20
221.66848629715011
 30
0.0
  0
VERTEX
  5
ABFF
  8
0
 10
191.3105517625433
 20
221.99400402604999
 30
0.0
  0
VERTEX
  5
AC00
  8
0
 10
191.1902677267432
 20
222.36527204514999
 30
0.0
  0
VERTEX
  5
AC01
  8
0
 10
191.1902677267432
 20
222.75221608575001
 30
0.0
  0
VERTEX
  5
AC02
  8
0
 10
191.3105517625433
 20
223.12348410485001
 30
0.0
  0
VERTEX
  5
AC03
  8
0
 10
191.5413754060433
 20
223.44900183384999
 30
0.0
  0
VERTEX
  5
AC04
  8
0
 10
191.86403863134319
 20
223.70239607995001
 30
0.0
  0
VERTEX
  5
AC05
  8
0
 10
192.2524010762433
 20
223.86313863095
 30
0.0
  0
VERTEX
  5
AC06
  8
0
 10
192.6749998703433
 20
223.91820587215011
 30
0.0
  0
SEQEND
  5
AC07
  8
0
  0
POLYLINE
  5
9062
  8
0
 66
     1
 10
0.0
 20
0.0
 30
0.0
 70
   128
  0
VERTEX
  5
AC08
  8
0
 10
207.32500012964331
 20
223.91820587215011
 30
0.0
  0
VERTEX
  5
AC09
  8
0
 10
207.74759892374331
 20
223.86313863095
 30
0.0
  0
VERTEX
  5
AC0A
  8
0
 10
208.13596136864331
 20
223.70239607995001
 30
0.0
  0
VERTEX
  5
AC0B
  8
0
 10
208.45862459394331
 20
223.44900183384999
 30
0.0
  0
VERTEX
  5
AC0C
  8
0
 10
208.68944823744329
 20
223.12348410485001
 30
0.0
  0
VERTEX
  5
AC0D
  8
0
 10
208.8097322732433
 20
222.75221608575001
 30
0.0
  0
VERTEX
  5
AC0E
  8
0
 10
208.8097322732433
 20
222.36527204514999
 30
0.0
  0
VERTEX
  5
AC0F
  8
0
 10
208.68944823744329
 20
221.99400402604999
 30
0.0
  0
VERTEX
  5
AC10
  8
0
 10
208.45862459394331
 20
221.66848629715011
 30
0.0
  0
VERTEX
  5
AC11
  8
0
 10
208.13596136864331
 20
221.4150920510501
 30
0.0
  0
VERTEX
  5
AC12
  8
0
 10
207.74759892374331
 20
221.25434949995
 30
0.0
  0
VERTEX
  5
AC13
  8
0
 10
207.32500012964331
 20
221.19928225875009
 30
0.0
  0
VERTEX
  5
AC14
  8
0
 10
206.90240133554329
 20
221.25434949995
 30
0.0
  0
VERTEX
  5
AC15
  8
0
 10
206.51403889064329
 20
221.4150920510501
 30
0.0
  0
VERTEX
  5
AC16
  8
0
 10
206.19137566534329
 20
221.66848629715011
 30
0.0
  0
VERTEX
  5
AC17
  8
0
 10
205.96055202184331
 20
221.99400402604999
 30
0.0
  0
VERTEX
  5
AC18
  8
0
 10
205.8402679860433
 20
222.36527204514999
 30
0.0
  0
VERTEX
  5
AC19
  8
0
 10
205.8402679860433
 20
222.75221608575001
 30
0.0
  0
VERTEX
  5
AC1A
  8
0
 10
205.96055202184331
 20
223.12348410485001
 30
0.0
  0
VERTEX
  5
AC1B
  8
0
 10
206.19137566534329
 20
223.44900183384999
 30
0.0
  0
VERTEX
  5
AC1C
  8
0
 10
206.51403889064329
 20
223.70239607995001
 30
0.0
  0
VERTEX
  5
AC1D
  8
0
 10
206.90240133554329
 20
223.86313863095
 30
0.0
  0
VERTEX
  5
AC1E
  8
0
 10
207.32500012964331
 20
223.91820587215011
 30
0.0
  0
SEQEND
  5
AC1F
  8
0
  0
ARC
  5
9063
  8
0
 10
200.00000000004329
 20
254.47530471085
 30
0.0
 40
80.0
 50
254.17337986809949
 51
285.82662013190048
  0
ARC
  5
9064
  8
0
 10
221.00000000004329
 20
180.39426800104991
 30
0.0
 40
2.9999999999999978
 50
285.82662013190048
 51
344.5898768841987
  0
ARC
  5
9065
  8
0
 10
179.00000000004329
 20
180.39426800104991
 30
0.0
 40
2.9999999999999978
 50
195.4101231158013
 51
254.17337986809949
  0
LINE
  5
906E
  8
0
 10
178.00000011924331
 20
242.17530414464991
 30
0.0
 11
221.9999998807433
 21
242.17530414464991
 31
0.0
  0
ARC
  5
906F
  8
0
 10
222.00000000004329
 20
240.17530471085001
 30
0.0
 40
2.0
 50
0.0
 51
90.0
  0
ARC
  5
9070
  8
0
 10
178.00000000004329
 20
240.17530471085001
 30
0.0
 40
2.0
 50
90.0
 51
180.0
  0
LINE
  5
9073
  8
0
 10
178.8000006228433
 20
230.30484542254999
 30
0.0
 11
221.19999937714331
 21
230.30484542254999
 31
0.0
  0
POLYLINE
  5
9074
  8
0
 66
     1
 10
0.0
 20
0.0
 30
0.0
 70
   128
  0
VERTEX
  5
AC20
  8
0
 10
222.1999995410433
 20
230.61386197805001
 30
0.0
  0
VERTEX
  5
AC21
  8
0
 10
222.1807844936433
 20
230.55357560515
 30
0.0
  0
VERTEX
  5
AC22
  8
0
 10
222.12387882174329
 20
230.49560636285
 30
0.0
  0
VERTEX
  5
AC23
  8
0
 10
222.03146927054331
 20
230.44218197465
 30
0.0
  0
VERTEX
  5
AC24
  8
0
 10
221.90710604194331
 20
230.39535321295011
 30
0.0
  0
VERTEX
  5
AC25
  8
0
 10
221.7555705457433
 20
230.35692311824999
 30
0.0
  0
VERTEX
  5
AC26
  8
0
 10
221.58268354834331
 20
230.32836690545011
 30
0.0
  0
VERTEX
  5
AC27
  8
0
 10
221.39509096744331
 20
230.31078167264999
 30
0.0
  0
VERTEX
  5
AC28
  8
0
 10
221.19999937714331
 20
230.30484542254999
 30
0.0
  0
SEQEND
  5
AC29
  8
0
  0
LINE
  5
9076
  8
0
 10
182.69999958574331
 20
232.03533962365
 30
0.0
 11
217.3000004142433
 21
232.03533962365
 31
0.0
  0
POLYLINE
  5
9077
  8
0
 66
     1
 10
0.0
 20
0.0
 30
0.0
 70
   128
  0
VERTEX
  5
AC2A
  8
0
 10
217.3000004142433
 20
232.03533962365
 30
0.0
  0
VERTEX
  5
AC2B
  8
0
 10
217.39754527804331
 20
232.03830868004999
 30
0.0
  0
VERTEX
  5
AC2C
  8
0
 10
217.49134249984331
 20
232.04710036514999
 30
0.0
  0
VERTEX
  5
AC2D
  8
0
 10
217.57778599854331
 20
232.06137940285001
 30
0.0
  0
VERTEX
  5
AC2E
  8
0
 10
217.65355281534329
 20
232.08059445025
 30
0.0
  0
VERTEX
  5
AC2F
  8
0
 10
217.71573536094331
 20
232.10400789975
 30
0.0
  0
VERTEX
  5
AC30
  8
0
 10
217.7619401365433
 20
232.13072195645
 30
0.0
  0
VERTEX
  5
AC31
  8
0
 10
217.79039204124331
 20
232.15970471505
 30
0.0
  0
VERTEX
  5
AC32
  8
0
 10
217.79999956484329
 20
232.18984976415001
 30
0.0
  0
SEQEND
  5
AC33
  8
0
  0
LINE
  5
9078
  8
0
 10
217.79999956484329
 20
232.18984976415001
 30
0.0
 11
217.79999956484329
 21
238.43199089174999
 31
0.0
  0
POLYLINE
  5
9079
  8
0
 66
     1
 10
0.0
 20
0.0
 30
0.0
 70
   128
  0
VERTEX
  5
AC34
  8
0
 10
217.79999956484329
 20
238.43199089174999
 30
0.0
  0
VERTEX
  5
AC35
  8
0
 10
217.79039204124331
 20
238.46213594074999
 30
0.0
  0
VERTEX
  5
AC36
  8
0
 10
217.7619401365433
 20
238.49111869935001
 30
0.0
  0
VERTEX
  5
AC37
  8
0
 10
217.71573536094331
 20
238.5178327560499
 30
0.0
  0
VERTEX
  5
AC38
  8
0
 10
217.65355281534329
 20
238.5412462055501
 30
0.0
  0
VERTEX
  5
AC39
  8
0
 10
217.57778599854331
 20
238.56046125295001
 30
0.0
  0
VERTEX
  5
AC3A
  8
0
 10
217.49134249984331
 20
238.57474029065
 30
0.0
  0
VERTEX
  5
AC3B
  8
0
 10
217.39754527804331
 20
238.58353197574999
 30
0.0
  0
VERTEX
  5
AC3C
  8
0
 10
217.3000004142433
 20
238.58650103215001
 30
0.0
  0
SEQEND
  5
AC3D
  8
0
  0
LINE
  5
907A
  8
0
 10
217.3000004142433
 20
238.58650103215001
 30
0.0
 11
182.69999958574331
 21
238.58650103215001
 31
0.0
  0
POLYLINE
  5
907B
  8
0
 66
     1
 10
0.0
 20
0.0
 30
0.0
 70
   128
  0
VERTEX
  5
AC3E
  8
0
 10
182.69999958574331
 20
238.58650103215001
 30
0.0
  0
VERTEX
  5
AC3F
  8
0
 10
182.6024547219433
 20
238.58353197574999
 30
0.0
  0
VERTEX
  5
AC40
  8
0
 10
182.5086575001433
 20
238.57474029065
 30
0.0
  0
VERTEX
  5
AC41
  8
0
 10
182.42221400144331
 20
238.56046125295001
 30
0.0
  0
VERTEX
  5
AC42
  8
0
 10
182.3464471846433
 20
238.5412462055501
 30
0.0
  0
VERTEX
  5
AC43
  8
0
 10
182.2842646390433
 20
238.5178327560499
 30
0.0
  0
VERTEX
  5
AC44
  8
0
 10
182.23805986344331
 20
238.49111869935001
 30
0.0
  0
VERTEX
  5
AC45
  8
0
 10
182.20960795874331
 20
238.46213594074999
 30
0.0
  0
VERTEX
  5
AC46
  8
0
 10
182.20000043514329
 20
238.43199089174999
 30
0.0
  0
SEQEND
  5
AC47
  8
0
  0
LINE
  5
907C
  8
0
 10
182.20000043514329
 20
238.43199089174999
 30
0.0
 11
182.20000043514329
 21
232.18984976415001
 31
0.0
  0
POLYLINE
  5
907D
  8
0
 66
     1
 10
0.0
 20
0.0
 30
0.0
 70
   128
  0
VERTEX
  5
AC48
  8
0
 10
182.20000043514329
 20
232.18984976415001
 30
0.0
  0
VERTEX
  5
AC49
  8
0
 10
182.20960795874331
 20
232.15970471505
 30
0.0
  0
VERTEX
  5
AC4A
  8
0
 10
182.23805986344331
 20
232.13072195645
 30
0.0
  0
VERTEX
  5
AC4B
  8
0
 10
182.2842646390433
 20
232.10400789975
 30
0.0
  0
VERTEX
  5
AC4C
  8
0
 10
182.3464471846433
 20
232.08059445025
 30
0.0
  0
VERTEX
  5
AC4D
  8
0
 10
182.42221400144331
 20
232.06137940285001
 30
0.0
  0
VERTEX
  5
AC4E
  8
0
 10
182.5086575001433
 20
232.04710036514999
 30
0.0
  0
VERTEX
  5
AC4F
  8
0
 10
182.6024547219433
 20
232.03830868004999
 30
0.0
  0
VERTEX
  5
AC50
  8
0
 10
182.69999958574331
 20
232.03533962365
 30
0.0
  0
SEQEND
  5
AC51
  8
0
  0
LINE
  5
907E
  8
0
 10
177.80000045894329
 20
241.3058511912499
 30
0.0
 11
177.80000045894329
 21
230.61386197805001
 31
0.0
  0
POLYLINE
  5
907F
  8
0
 66
     1
 10
0.0
 20
0.0
 30
0.0
 70
   128
  0
VERTEX
  5
AC52
  8
0
 10
177.80000045894329
 20
241.3058511912499
 30
0.0
  0
VERTEX
  5
AC53
  8
0
 10
177.81921550634331
 20
241.36613756414991
 30
0.0
  0
VERTEX
  5
AC54
  8
0
 10
177.8761211782433
 20
241.42410680654999
 30
0.0
  0
VERTEX
  5
AC55
  8
0
 10
177.9685307294433
 20
241.47753119465
 30
0.0
  0
VERTEX
  5
AC56
  8
0
 10
178.09289395804331
 20
241.52435809375001
 30
0.0
  0
VERTEX
  5
AC57
  8
0
 10
178.24442945424329
 20
241.56278818845001
 30
0.0
  0
VERTEX
  5
AC58
  8
0
 10
178.4173164516433
 20
241.59134253865
 30
0.0
  0
VERTEX
  5
AC59
  8
0
 10
178.6049090325433
 20
241.60892963415
 30
0.0
  0
VERTEX
  5
AC5A
  8
0
 10
178.8000006228433
 20
241.61486774685011
 30
0.0
  0
SEQEND
  5
AC5B
  8
0
  0
LINE
  5
9080
  8
0
 10
221.19999937714331
 20
241.61486774685011
 30
0.0
 11
178.8000006228433
 21
241.61486774685011
 31
0.0
  0
POLYLINE
  5
9081
  8
0
 66
     1
 10
0.0
 20
0.0
 30
0.0
 70
   128
  0
VERTEX
  5
AC5C
  8
0
 10
221.19999937714331
 20
241.61486774685011
 30
0.0
  0
VERTEX
  5
AC5D
  8
0
 10
221.39509096744331
 20
241.60892963415
 30
0.0
  0
VERTEX
  5
AC5E
  8
0
 10
221.58268354834331
 20
241.59134253865
 30
0.0
  0
VERTEX
  5
AC5F
  8
0
 10
221.7555705457433
 20
241.56278818845001
 30
0.0
  0
VERTEX
  5
AC60
  8
0
 10
221.90710604194331
 20
241.52435809375001
 30
0.0
  0
VERTEX
  5
AC61
  8
0
 10
222.03146927054331
 20
241.47753119465
 30
0.0
  0
VERTEX
  5
AC62
  8
0
 10
222.12387882174329
 20
241.42410680654999
 30
0.0
  0
VERTEX
  5
AC63
  8
0
 10
222.1807844936433
 20
241.36613756414991
 30
0.0
  0
VERTEX
  5
AC64
  8
0
 10
222.1999995410433
 20
241.3058511912499
 30
0.0
  0
SEQEND
  5
AC65
  8
0
  0
LINE
  5
9082
  8
0
 10
222.1999995410433
 20
241.3058511912499
 30
0.0
 11
222.1999995410433
 21
230.61386197805001
 31
0.0
  0
POLYLINE
  5
9083
  8
0
 66
     1
 10
0.0
 20
0.0
 30
0.0
 70
   128
  0
VERTEX
  5
AC66
  8
0
 10
178.8000006228433
 20
230.30484542254999
 30
0.0
  0
VERTEX
  5
AC67
  8
0
 10
178.6049090325433
 20
230.31078167264999
 30
0.0
  0
VERTEX
  5
AC68
  8
0
 10
178.4173164516433
 20
230.32836690545011
 30
0.0
  0
VERTEX
  5
AC69
  8
0
 10
178.24442945424329
 20
230.35692311824999
 30
0.0
  0
VERTEX
  5
AC6A
  8
0
 10
178.09289395804331
 20
230.39535321295011
 30
0.0
  0
VERTEX
  5
AC6B
  8
0
 10
177.9685307294433
 20
230.44218197465
 30
0.0
  0
VERTEX
  5
AC6C
  8
0
 10
177.8761211782433
 20
230.49560636285
 30
0.0
  0
VERTEX
  5
AC6D
  8
0
 10
177.81921550634331
 20
230.55357560515
 30
0.0
  0
VERTEX
  5
AC6E
  8
0
 10
177.80000045894329
 20
230.61386197805001
 30
0.0
  0
SEQEND
  5
AC6F
  8
0
  0
LINE
  5
9088
  8
0
 10
177.43500024084329
 20
177.83482074734991
 30
0.0
 11
177.43500024084329
 21
173.77530485394999
 31
0.0
  0
LINE
  5
908C
  8
0
 10
222.56499975924331
 20
177.83482074734991
 30
0.0
 11
222.56499975924331
 21
173.77530485394999
 31
0.0
  0
LINE
  5
908D
  8
0
 10
177.43500024084321
 20
173.77530485394999
 30
0.0
 11
222.56499975924331
 21
173.77530485394999
 31
0.0
  0
LINE
  5
9091
  8
0
 10
222.39999920134329
 20
172.97530435025001
 30
0.0
 11
222.39999920134329
 21
173.77530485394999
 31
0.0
  0
LINE
  5
9092
  8
0
 10
177.60000079874331
 20
172.97530435025001
 30
0.0
 11
222.39999920134329
 21
172.97530435025001
 31
0.0
  0
LINE
  5
9093
  8
0
 10
177.60000079874331
 20
173.77530485394999
 30
0.0
 11
177.60000079874331
 21
172.97530435025001
 31
0.0
  0
LINE
  5
9096
  8
0
 10
212.7999996766433
 20
170.87530419235
 30
0.0
 11
217.2000000000433
 21
170.87530471084989
 31
0.0
  0
LINE
  5
9098
  8
0
 10
182.7999994158433
 20
170.87530419235
 30
0.0
 11
187.2000000000433
 21
170.87530471084989
 31
0.0
  0
LINE
  5
90A7
  8
0
 10
174.85000081364331
 20
234.95965898035001
 30
0.0
 11
174.85000081364331
 21
211.67530473324999
 31
0.0
  0
LINE
  5
90A9
  8
0
 10
180.44778779144329
 20
168.43176335095001
 30
0.0
 11
189.55221101644329
 21
168.43176335095001
 31
0.0
  0
LINE
  5
90AA
  8
0
 10
180.20000010724331
 20
171.97530418635
 30
0.0
 11
182.49999992544329
 21
171.97530418635
 31
0.0
  0
LINE
  5
90AB
  8
0
 10
187.4999998137433
 20
171.97530418635
 30
0.0
 11
189.79999963194331
 21
171.97530418635
 31
0.0
  0
LINE
  5
90AC
  8
0
 10
210.20000036804331
 20
171.97530418635
 30
0.0
 11
212.50000018624331
 21
171.97530418635
 31
0.0
  0
LINE
  5
90AD
  8
0
 10
217.50000007454329
 20
171.97530418635
 30
0.0
 11
219.7999998927433
 21
171.97530418635
 31
0.0
  0
LINE
  5
90AF
  8
0
 10
210.4000000283433
 20
169.11517158154999
 30
0.0
 11
219.60000023244331
 21
169.11517158154999
 31
0.0
  0
LINE
  5
90B0
  8
0
 10
210.4000000283433
 20
165.47530591485
 30
0.0
 11
219.60000023244331
 21
165.47530591485
 31
0.0
  0
LINE
  5
90B2
  8
0
 10
181.00000061094329
 20
167.47530624275001
 30
0.0
 11
189.0000000596433
 21
167.47530624275001
 31
0.0
  0
LINE
  5
90B3
  8
0
 10
181.00000061094329
 20
163.07530626655
 30
0.0
 11
189.0000000596433
 21
163.07530626655
 31
0.0
  0
LINE
  5
90B5
  8
0
 10
181.59999959174331
 20
162.47530356055
 30
0.0
 11
188.4000001475433
 21
162.47530356055
 31
0.0
  0
LINE
  5
90B6
  8
0
 10
181.59999959174331
 20
160.47530323264999
 30
0.0
 11
188.4000001475433
 21
160.47530323264999
 31
0.0
  0
CIRCLE
  5
90BC
  8
0
 10
199.99686565584329
 20
162.34519364455011
 30
0.0
 40
0.8959494022140626
  0
LINE
  5
90BD
  8
0
 10
196.89999991094331
 20
165.17530456185
 30
0.0
 11
196.89999991094331
 21
158.80950242284999
 31
0.0
  0
LINE
  5
90BF
  8
0
 10
189.60243444894331
 20
169.14998628194999
 30
0.0
 11
195.3835800642596
 21
169.14998628194999
 31
0.0
  0
LINE
  5
90C0
  8
0
 10
204.6164199358403
 20
169.14998628194999
 30
0.0
 11
210.39756555114329
 21
169.14998628194999
 31
0.0
  0
LINE
  5
90C2
  8
0
 10
203.10000008904331
 20
158.80950242284999
 30
0.0
 11
203.10000008904331
 21
165.17530456185
 31
0.0
  0
ARC
  5
90C3
  8
0
 10
202.10753752404329
 20
158.81715933375
 30
0.0
 40
0.9924921013621524
 50
269.5648562291999
 51
359.55796823819918
  0
LINE
  5
90C4
  8
0
 10
197.90000007484329
 20
157.82469585535
 30
0.0
 11
202.09999992514329
 21
157.82469585535
 31
0.0
  0
ARC
  5
90C5
  8
0
 10
197.89246247594329
 20
158.81715933375
 30
0.0
 40
0.9924921013621519
 50
180.44203176180071
 51
270.4351437708001
  0
LINE
  5
90E2
  8
0
 10
336.24999940394332
 20
175.27530416844999
 30
0.0
 11
347.59999968114329
 21
175.27530416844999
 31
0.0
  0
LINE
  5
90E3
  8
0
 10
301.29999823874329
 20
174.47530552744999
 30
0.0
 11
306.1000012606433
 21
174.47530552744999
 31
0.0
  0
LINE
  5
90E4
  8
0
 10
324.44999895994329
 20
171.97530418635
 30
0.0
 11
324.65000048284332
 21
169.11517158154999
 31
0.0
  0
LINE
  5
90E5
  8
0
 10
333.8499997556433
 20
169.11517158154999
 30
0.0
 11
334.04999941594332
 21
171.97530418635
 31
0.0
  0
LINE
  5
90E6
  8
0
 10
334.04999941594332
 20
171.97530418635
 30
0.0
 11
334.04999941594332
 21
172.97530435025001
 31
0.0
  0
LINE
  5
90E7
  8
0
 10
324.44999895994329
 20
172.97530435025001
 30
0.0
 11
324.44999895994329
 21
171.97530418635
 31
0.0
  0
LINE
  5
90E8
  8
0
 10
333.8499997556433
 20
165.47530591485
 30
0.0
 11
333.8499997556433
 21
169.11517158154999
 31
0.0
  0
LINE
  5
90E9
  8
0
 10
324.65000048284332
 20
169.11517158154999
 30
0.0
 11
324.65000048284332
 21
165.47530591485
 31
0.0
  0
ARC
  5
90EA
  8
0
 10
312.04999968114328
 20
171.17530471085001
 30
0.0
 40
0.3000000000000114
 50
270.0
 51
0.0
  0
ARC
  5
90EB
  8
0
 10
307.6499996811433
 20
171.17530471085001
 30
0.0
 40
0.3000000000000114
 50
180.0
 51
270.0
  0
LINE
  5
90EC
  8
0
 10
307.3500000685433
 20
172.97530435025001
 30
0.0
 11
307.3500000685433
 21
171.17530554535
 31
0.0
  0
LINE
  5
90ED
  8
0
 10
312.3499990255433
 20
171.17530554535
 30
0.0
 11
312.3499990255433
 21
172.97530435025001
 31
0.0
  0
LINE
  5
90EE
  8
0
 10
297.30000130834333
 20
184.47530530395011
 30
0.0
 11
300.35695590084327
 21
184.44862663744999
 31
0.0
  0
LINE
  5
90EF
  8
0
 10
333.24999984354332
 20
163.07530626655009
 30
0.0
 11
333.24999984354332
 21
165.47530591485
 31
0.0
  0
LINE
  5
90F0
  8
0
 10
325.2499994635433
 20
165.47530591485
 30
0.0
 11
325.2499994635433
 21
163.07530626655009
 31
0.0
  0
LINE
  5
90F1
  8
0
 10
325.2499994635433
 20
163.07530626655009
 30
0.0
 11
325.85000030704327
 21
162.47530356055
 31
0.0
  0
LINE
  5
90F2
  8
0
 10
332.64999993144329
 20
162.47530356055
 30
0.0
 11
333.24999984354332
 21
163.07530626655009
 31
0.0
  0
LINE
  5
90F3
  8
0
 10
332.64999993144329
 20
160.47530323264999
 30
0.0
 11
332.64999993144329
 21
162.47530356055
 31
0.0
  0
LINE
  5
90F4
  8
0
 10
325.85000030704327
 20
162.47530356055
 30
0.0
 11
325.85000030704327
 21
160.47530323264999
 31
0.0
  0
LINE
  5
90FE
  8
0
 10
347.59999968114329
 20
198.47530468835001
 30
0.0
 11
310.66779576244329
 21
186.4753047004501
 31
0.0
  0
LINE
  5
90FF
  8
0
 10
310.66779576244329
 20
186.4753047004501
 30
0.0
 11
307.84122429794331
 21
180.3942684084501
 31
0.0
  0
LINE
  5
9100
  8
0
 10
307.84122429794331
 20
180.3942684084501
 30
0.0
 11
301.14504478874341
 21
180.3942684084501
 31
0.0
  0
LINE
  5
9101
  8
0
 10
301.14504478874341
 20
180.3942684084501
 30
0.0
 11
297.30000130834333
 21
200.17530471085001
 31
0.0
  0
LINE
  5
9102
  8
0
 10
297.30000130834333
 20
184.47530530395011
 30
0.0
 11
297.30000130834333
 21
215.04730433225001
 31
0.0
  0
LINE
  5
9103
  8
0
 10
297.30000130834333
 20
215.04730433225001
 30
0.0
 11
304.23072882004328
 21
229.9103055149501
 31
0.0
  0
LINE
  5
9104
  8
0
 10
304.23072882004328
 20
229.9103055149501
 30
0.0
 11
335.82315191634331
 21
240.17530381685
 31
0.0
  0
LINE
  5
9106
  8
0
 10
347.59999968114329
 20
242.17530414465
 30
0.0
 11
341.9785189256433
 21
242.17530414465
 31
0.0
  0
POLYLINE
  5
9107
  8
0
 66
     1
 10
0.0
 20
0.0
 30
0.0
 70
   128
  0
VERTEX
  5
AC70
  8
0
 10
341.9785189256433
 20
242.17530414465
 30
0.0
  0
VERTEX
  5
AC71
  8
0
 10
341.91586606204328
 20
242.15494915845011
 30
0.0
  0
VERTEX
  5
AC72
  8
0
 10
341.7291833833433
 20
242.09429025655001
 30
0.0
  0
VERTEX
  5
AC73
  8
0
 10
341.42227068544332
 20
241.99456796055
 30
0.0
  0
VERTEX
  5
AC74
  8
0
 10
341.00137621164328
 20
241.85781255365009
 30
0.0
  0
VERTEX
  5
AC75
  8
0
 10
340.47506812964332
 20
241.68680310245011
 30
0.0
  0
VERTEX
  5
AC76
  8
0
 10
339.85405990854332
 20
241.48502647875009
 30
0.0
  0
VERTEX
  5
AC77
  8
0
 10
339.15099471814329
 20
241.25658795235
 30
0.0
  0
VERTEX
  5
AC78
  8
0
 10
338.38018372654329
 20
241.00613296034999
 30
0.0
  0
VERTEX
  5
AC79
  8
0
 10
337.5573192537434
 20
240.73876887565001
 30
0.0
  0
VERTEX
  5
AC7A
  8
0
 10
336.69915206734328
 20
240.45993462205001
 30
0.0
  0
VERTEX
  5
AC7B
  8
0
 10
335.82315191634331
 20
240.17530381685
 30
0.0
  0
SEQEND
  5
AC7C
  8
0
  0
LINE
  5
9109
  8
0
 10
307.60000057524331
 20
177.83482074734999
 30
0.0
 11
307.60000057524331
 21
179.87530380485001
 31
0.0
  0
ARC
  5
910A
  8
0
 10
307.66710090314331
 20
174.83074962825
 30
0.0
 40
3.0048204177599289
 50
91.279572372900105
 51
117.0029670170007
  0
LINE
  5
910C
  8
0
 10
301.29999823874329
 20
179.59708794955
 30
0.0
 11
301.29999823874329
 21
174.47530552744999
 31
0.0
  0
POLYLINE
  5
910D
  8
0
 66
     1
 10
0.0
 20
0.0
 30
0.0
 70
   128
  0
VERTEX
  5
AC7D
  8
0
 10
307.60000057524331
 20
179.87530380485001
 30
0.0
  0
VERTEX
  5
AC7E
  8
0
 10
307.6799564809433
 20
180.04732094705
 30
0.0
  0
VERTEX
  5
AC7F
  8
0
 10
307.76045255364329
 20
180.22050224245001
 30
0.0
  0
VERTEX
  5
AC80
  8
0
 10
307.84122429794331
 20
180.3942684084501
 30
0.0
  0
SEQEND
  5
AC81
  8
0
  0
POLYLINE
  5
910E
  8
0
 66
     1
 10
0.0
 20
0.0
 30
0.0
 70
   128
  0
VERTEX
  5
AC82
  8
0
 10
301.14504478874341
 20
180.3942684084501
 30
0.0
  0
VERTEX
  5
AC83
  8
0
 10
301.19725473224332
 20
180.12567125264999
 30
0.0
  0
VERTEX
  5
AC84
  8
0
 10
301.24904371804331
 20
179.8592310398501
 30
0.0
  0
VERTEX
  5
AC85
  8
0
 10
301.29999823874329
 20
179.59708794955
 30
0.0
  0
SEQEND
  5
AC86
  8
0
  0
LINE
  5
910F
  8
0
 10
329.25000011924328
 20
178.55784371495
 30
0.0
 11
347.59999968114329
 21
178.55784371495
 31
0.0
  0
POLYLINE
  5
9114
  8
0
 66
     1
 10
0.0
 20
0.0
 30
0.0
 70
   128
  0
VERTEX
  5
AC87
  8
0
 10
329.25000011924328
 20
178.55784371495
 30
0.0
  0
VERTEX
  5
AC88
  8
0
 10
330.3919934481433
 20
178.52976061404999
 30
0.0
  0
VERTEX
  5
AC89
  8
0
 10
331.50127872824328
 20
178.44829596574999
 30
0.0
  0
VERTEX
  5
AC8A
  8
0
 10
332.54488714044328
 20
178.31757739184999
 30
0.0
  0
VERTEX
  5
AC8B
  8
0
 10
333.4978294372433
 20
178.14566828315
 30
0.0
  0
VERTEX
  5
AC8C
  8
0
 10
334.35135677464331
 20
177.93638519945009
 30
0.0
  0
VERTEX
  5
AC8D
  8
0
 10
335.06548561154329
 20
177.70354524255001
 30
0.0
  0
VERTEX
  5
AC8E
  8
0
 10
335.63865877694332
 20
177.44825668634999
 30
0.0
  0
VERTEX
  5
AC8F
  8
0
 10
336.02979004384332
 20
177.18941420314999
 30
0.0
  0
VERTEX
  5
AC90
  8
0
 10
336.24999940394332
 20
176.81984305385001
 30
0.0
  0
SEQEND
  5
AC91
  8
0
  0
LINE
  5
9115
  8
0
 10
347.59999968114329
 20
175.27530416844999
 30
0.0
 11
347.59999968114329
 21
242.17530414465
 31
0.0
  0
LINE
  5
9116
  8
0
 10
336.24999940394332
 20
173.77530485394999
 30
0.0
 11
336.24999940394332
 21
176.81984305385001
 31
0.0
  0
LINE
  5
9118
  8
0
 10
306.1000012606433
 20
177.29845717545001
 30
0.0
 11
306.1000012606433
 21
173.77530485394999
 31
0.0
  0
POLYLINE
  5
9119
  8
0
 66
     1
 10
0.0
 20
0.0
 30
0.0
 70
   128
  0
VERTEX
  5
AC92
  8
0
 10
306.30280233924333
 20
177.50799357894999
 30
0.0
  0
VERTEX
  5
AC93
  8
0
 10
306.12353764474329
 20
177.37119346854999
 30
0.0
  0
VERTEX
  5
AC94
  8
0
 10
306.1000012606433
 20
177.29845717545001
 30
0.0
  0
SEQEND
  5
AC95
  8
0
  0
LINE
  5
9120
  8
0
 10
306.25000007454332
 20
173.77530485394999
 30
0.0
 11
306.25000007454332
 21
172.97530435025001
 31
0.0
  0
LINE
  5
9123
  8
0
 10
324.44999895994329
 20
171.97530418635
 30
0.0
 11
334.04999941594332
 21
171.97530418635
 31
0.0
  0
LINE
  5
9124
  8
0
 10
324.65000048284332
 20
169.11517158154999
 30
0.0
 11
333.8499997556433
 21
169.11517158154999
 31
0.0
  0
LINE
  5
9128
  8
0
 10
324.65000048284332
 20
165.47530591485
 30
0.0
 11
333.8499997556433
 21
165.47530591485
 31
0.0
  0
ARC
  5
9129
  8
0
 10
337.04999968114328
 20
171.97530471085
 30
0.0
 40
1.799999999999996
 50
10.000000000001821
 51
90.0
  0
ARC
  5
912B
  8
0
 10
337.04999968114328
 20
171.97530471085
 30
0.0
 40
1.0
 50
10.000000000001821
 51
90.0
  0
LINE
  5
912C
  8
0
 10
338.38995795704329
 20
170.13479284945001
 30
0.0
 11
338.03480740644329
 21
172.14895300564999
 31
0.0
  0
LINE
  5
912D
  8
0
 10
338.82265321914332
 20
172.28787094354999
 30
0.0
 11
339.17780470104333
 21
170.27371264995
 31
0.0
  0
LINE
  5
912E
  8
0
 10
306.1000012606433
 20
173.77530485394999
 30
0.0
 11
337.04999990764333
 21
173.77530485394999
 31
0.0
  0
LINE
  5
912F
  8
0
 10
337.04999990764333
 20
172.97530435025001
 30
0.0
 11
306.25000007454332
 21
172.97530435025001
 31
0.0
  0
POLYLINE
  5
9131
  8
0
 66
     1
 10
0.0
 20
0.0
 30
0.0
 70
   128
  0
VERTEX
  5
AC96
  8
0
 10
338.38995795704329
 20
170.13479284945001
 30
0.0
  0
VERTEX
  5
AC97
  8
0
 10
338.42383481564332
 20
169.94266659025001
 30
0.0
  0
VERTEX
  5
AC98
  8
0
 10
338.45641061664332
 20
169.75792385635
 30
0.0
  0
VERTEX
  5
AC99
  8
0
 10
338.48643179984327
 20
169.58766318855001
 30
0.0
  0
VERTEX
  5
AC9A
  8
0
 10
338.51274631924332
 20
169.43842992185009
 30
0.0
  0
VERTEX
  5
AC9B
  8
0
 10
338.5343408957433
 20
169.31595541535009
 30
0.0
  0
VERTEX
  5
AC9C
  8
0
 10
338.55038851504332
 20
169.2249502986501
 30
0.0
  0
VERTEX
  5
AC9D
  8
0
 10
338.56026984754328
 20
169.16890889404999
 30
0.0
  0
VERTEX
  5
AC9E
  8
0
 10
338.56360584504341
 20
169.14998628194999
 30
0.0
  0
SEQEND
  5
AC9F
  8
0
  0
POLYLINE
  5
9132
  8
0
 66
     1
 10
0.0
 20
0.0
 30
0.0
 70
   128
  0
VERTEX
  5
ACA0
  8
0
 10
339.17780470104333
 20
170.27371264995
 30
0.0
  0
VERTEX
  5
ACA1
  8
0
 10
339.21168155974328
 20
170.08158452805
 30
0.0
  0
VERTEX
  5
ACA2
  8
0
 10
339.24425642944328
 20
169.89684179425009
 30
0.0
  0
VERTEX
  5
ACA3
  8
0
 10
339.27427761264329
 20
169.72658112644999
 30
0.0
  0
VERTEX
  5
ACA4
  8
0
 10
339.30059213194329
 20
169.57734785975001
 30
0.0
  0
VERTEX
  5
ACA5
  8
0
 10
339.32218763984332
 20
169.45487335325001
 30
0.0
  0
VERTEX
  5
ACA6
  8
0
 10
339.33823432774329
 20
169.36386823654999
 30
0.0
  0
VERTEX
  5
ACA7
  8
0
 10
339.34811566024331
 20
169.30782683195
 30
0.0
  0
VERTEX
  5
ACA8
  8
0
 10
339.35145258904339
 20
169.28890421985
 30
0.0
  0
SEQEND
  5
ACA9
  8
0
  0
LINE
  5
9133
  8
0
 10
302.0606429130433
 20
225.25653690105011
 30
0.0
 11
301.77062533794327
 21
225.39177425205
 31
0.0
  0
LINE
  5
9138
  8
0
 10
299.23491336404328
 20
219.95392702525001
 30
0.0
 11
299.52493466444332
 21
219.81868967414999
 31
0.0
  0
LINE
  5
913A
  8
0
 10
307.65000142164331
 20
170.87530419235
 30
0.0
 11
312.0500013977433
 21
170.87530419235
 31
0.0
  0
POLYLINE
  5
913D
  8
0
 66
     1
 10
0.0
 20
0.0
 30
0.0
 70
   128
  0
VERTEX
  5
ACAA
  8
0
 10
338.73725466434331
 20
168.16517785195001
 30
0.0
  0
VERTEX
  5
ACAB
  8
0
 10
338.7033778056433
 20
168.35730597374999
 30
0.0
  0
VERTEX
  5
ACAC
  8
0
 10
338.67080200464329
 20
168.54204684494999
 30
0.0
  0
VERTEX
  5
ACAD
  8
0
 10
338.64078082144329
 20
168.71230751274999
 30
0.0
  0
VERTEX
  5
ACAE
  8
0
 10
338.6144663021434
 20
168.86154264215
 30
0.0
  0
VERTEX
  5
ACAF
  8
0
 10
338.59287172564331
 20
168.98401528594999
 30
0.0
  0
VERTEX
  5
ACB0
  8
0
 10
338.57682410634328
 20
169.07502226534999
 30
0.0
  0
VERTEX
  5
ACB1
  8
0
 10
338.56694277384332
 20
169.13106366995001
 30
0.0
  0
VERTEX
  5
ACB2
  8
0
 10
338.56360584504341
 20
169.14998628194999
 30
0.0
  0
SEQEND
  5
ACB3
  8
0
  0
POLYLINE
  5
913E
  8
0
 66
     1
 10
0.0
 20
0.0
 30
0.0
 70
   128
  0
VERTEX
  5
ACB4
  8
0
 10
339.35145258904339
 20
169.28890421985
 30
0.0
  0
VERTEX
  5
ACB5
  8
0
 10
339.3547895178433
 20
169.26998160785001
 30
0.0
  0
VERTEX
  5
ACB6
  8
0
 10
339.36467085034332
 20
169.21394020315
 30
0.0
  0
VERTEX
  5
ACB7
  8
0
 10
339.38071753834328
 20
169.12293322385
 30
0.0
  0
VERTEX
  5
ACB8
  8
0
 10
339.40231304614332
 20
169.00046057994999
 30
0.0
  0
VERTEX
  5
ACB9
  8
0
 10
339.4286266342433
 20
168.85122731325001
 30
0.0
  0
VERTEX
  5
ACBA
  8
0
 10
339.45864874874331
 20
168.68096664545001
 30
0.0
  0
VERTEX
  5
ACBB
  8
0
 10
339.49122361844331
 20
168.49622204905
 30
0.0
  0
VERTEX
  5
ACBC
  8
0
 10
339.52510047704328
 20
168.30409765245
 30
0.0
  0
SEQEND
  5
ACBD
  8
0
  0
LINE
  5
9140
  8
0
 10
340.38691192864331
 20
158.80950242284999
 30
0.0
 11
338.73725466434331
 21
168.16517785195001
 31
0.0
  0
LINE
  5
9141
  8
0
 10
339.52510047704328
 20
168.30409765245
 30
0.0
 11
341.17475820704328
 21
158.94842222334989
 31
0.0
  0
LINE
  5
9142
  8
0
 10
340.56056028234332
 20
157.82469585535009
 30
0.0
 11
341.3484065607434
 21
157.96361565595009
 31
0.0
  0
POLYLINE
  5
9143
  8
0
 66
     1
 10
0.0
 20
0.0
 30
0.0
 70
   128
  0
VERTEX
  5
ACBE
  8
0
 10
340.38691192864331
 20
158.80950242284999
 30
0.0
  0
VERTEX
  5
ACBF
  8
0
 10
340.42078925304332
 20
158.61737802625001
 30
0.0
  0
VERTEX
  5
ACC0
  8
0
 10
340.45336458834328
 20
158.4326334297499
 30
0.0
  0
VERTEX
  5
ACC1
  8
0
 10
340.48338577154328
 20
158.26237276194999
 30
0.0
  0
VERTEX
  5
ACC2
  8
0
 10
340.50969982524327
 20
158.11314135795001
 30
0.0
  0
VERTEX
  5
ACC3
  8
0
 10
340.53129533304332
 20
157.99066498875001
 30
0.0
  0
VERTEX
  5
ACC4
  8
0
 10
340.54734202104328
 20
157.89965987204999
 30
0.0
  0
VERTEX
  5
ACC5
  8
0
 10
340.55722381924329
 20
157.84362033015
 30
0.0
  0
VERTEX
  5
ACC6
  8
0
 10
340.56056028234332
 20
157.82469585535009
 30
0.0
  0
SEQEND
  5
ACC7
  8
0
  0
POLYLINE
  5
9144
  8
0
 66
     1
 10
0.0
 20
0.0
 30
0.0
 70
   128
  0
VERTEX
  5
ACC8
  8
0
 10
341.17475820704328
 20
158.94842222334989
 30
0.0
  0
VERTEX
  5
ACC9
  8
0
 10
341.20863553144329
 20
158.75629782675
 30
0.0
  0
VERTEX
  5
ACCA
  8
0
 10
341.2412108667433
 20
158.57155323025
 30
0.0
  0
VERTEX
  5
ACCB
  8
0
 10
341.27123204994331
 20
158.40129256245001
 30
0.0
  0
VERTEX
  5
ACCC
  8
0
 10
341.2975461036433
 20
158.25205743314999
 30
0.0
  0
VERTEX
  5
ACCD
  8
0
 10
341.31914161144329
 20
158.12958478925
 30
0.0
  0
VERTEX
  5
ACCE
  8
0
 10
341.3351882994433
 20
158.0385796725501
 30
0.0
  0
VERTEX
  5
ACCF
  8
0
 10
341.34507009764332
 20
157.98253640535
 30
0.0
  0
VERTEX
  5
ACD0
  8
0
 10
341.3484065607434
 20
157.96361565595009
 30
0.0
  0
SEQEND
  5
ACD1
  8
0
  0
LINE
  5
9145
  8
0
 10
325.2499994635433
 20
163.07530626655009
 30
0.0
 11
333.24999984354332
 21
163.07530626655009
 31
0.0
  0
LINE
  5
9146
  8
0
 10
325.85000030704327
 20
162.47530356055
 30
0.0
 11
332.64999993144329
 21
162.47530356055
 31
0.0
  0
LINE
  5
9147
  8
0
 10
325.85000030704327
 20
160.47530323264999
 30
0.0
 11
332.64999993144329
 21
160.47530323264999
 31
0.0
  0
LINE
  5
9158
  8
0
 10
52.400000318943341
 20
175.27530416844991
 30
0.0
 11
63.75000059614333
 21
175.27530416844991
 31
0.0
  0
LINE
  5
9159
  8
0
 10
93.899998739443333
 20
174.4753055274499
 30
0.0
 11
98.700001761343344
 21
174.4753055274499
 31
0.0
  0
LINE
  5
915A
  8
0
 10
65.950000584143339
 20
171.97530418635
 30
0.0
 11
66.19778919974334
 21
168.43176335095001
 31
0.0
  0
LINE
  5
915B
  8
0
 10
75.30221149334335
 20
168.43176335095001
 30
0.0
 11
75.550001040143343
 21
171.97530418635
 31
0.0
  0
LINE
  5
915C
  8
0
 10
75.550001040143343
 20
171.97530418635
 30
0.0
 11
75.550001040143343
 21
172.97530435025001
 31
0.0
  0
LINE
  5
915D
  8
0
 10
65.950000584143339
 20
172.97530435025001
 30
0.0
 11
65.950000584143339
 21
171.97530418635
 31
0.0
  0
LINE
  5
915E
  8
0
 10
66.19778919974334
 20
168.43176335095001
 30
0.0
 11
66.750000156543337
 21
167.47530624275001
 31
0.0
  0
LINE
  5
915F
  8
0
 10
74.750000536543354
 20
167.47530624275001
 30
0.0
 11
75.30221149334335
 21
168.43176335095001
 31
0.0
  0
LINE
  5
9160
  8
0
 10
74.750000536543354
 20
163.07530626655
 30
0.0
 11
74.750000536543354
 21
167.47530624275001
 31
0.0
  0
LINE
  5
9161
  8
0
 10
66.750000156543337
 20
167.47530624275001
 30
0.0
 11
66.750000156543337
 21
163.07530626655
 31
0.0
  0
LINE
  5
9162
  8
0
 10
66.750000156543337
 20
163.07530626655
 30
0.0
 11
67.35000006864334
 21
162.47530356054989
 31
0.0
  0
LINE
  5
9163
  8
0
 10
74.149999693143343
 20
162.47530356054989
 30
0.0
 11
74.750000536543354
 21
163.07530626655
 31
0.0
  0
LINE
  5
9164
  8
0
 10
74.149999693143343
 20
160.47530323264991
 30
0.0
 11
74.149999693143343
 21
162.47530356054989
 31
0.0
  0
LINE
  5
9165
  8
0
 10
67.35000006864334
 20
162.47530356054989
 30
0.0
 11
67.35000006864334
 21
160.47530323264991
 31
0.0
  0
ARC
  5
9166
  8
0
 10
92.350000318943344
 20
171.1753047108499
 30
0.0
 40
0.3000000000000114
 50
270.0
 51
0.0
  0
ARC
  5
9167
  8
0
 10
87.950000318943353
 20
171.1753047108499
 30
0.0
 40
0.3000000000000114
 50
180.0
 51
270.0
  0
LINE
  5
9168
  8
0
 10
87.650000974643348
 20
172.97530435025001
 30
0.0
 11
87.650000974643348
 21
171.17530554534989
 31
0.0
  0
LINE
  5
9169
  8
0
 10
92.649999931543334
 20
171.17530554534989
 30
0.0
 11
92.649999931543334
 21
172.97530435025001
 31
0.0
  0
LINE
  5
916A
  8
0
 10
99.643044099243355
 20
184.44862663744991
 30
0.0
 11
102.6999986917433
 21
184.47530530394999
 31
0.0
  0
LINE
  5
916B
  8
0
 10
75.349999517243333
 20
165.47530591485
 30
0.0
 11
75.349999517243333
 21
169.1151715815499
 31
0.0
  0
LINE
  5
916C
  8
0
 10
66.150000244443333
 20
169.1151715815499
 30
0.0
 11
66.150000244443333
 21
165.47530591485
 31
0.0
  0
ARC
  5
9175
  8
0
 10
63.700000318943317
 20
218.37530471085
 30
0.0
 40
3.6000000000000001
 50
180.0
 51
237.6725115790999
  0
LINE
  5
9176
  8
0
 10
60.100000277243339
 20
228.37530523535
 30
0.0
 11
60.100000277243339
 21
218.3753054589499
 31
0.0
  0
ARC
  5
9177
  8
0
 10
63.700000318943317
 20
228.37530471085
 30
0.0
 40
3.599999999999993
 50
90.0
 51
180.0
  0
LINE
  5
9178
  8
0
 10
83.814214840543329
 20
218.8162215054501
 30
0.0
 11
68.286508247343335
 21
234.34392437335001
 31
0.0
  0
ARC
  5
9179
  8
0
 10
82.400000318943341
 20
217.40200744135001
 30
0.0
 40
2.0000000000000351
 50
0.0
 51
45.000000000000149
  0
LINE
  5
917A
  8
0
 10
84.400001838843338
 20
215.40359016504999
 30
0.0
 11
84.400001838843338
 21
217.40200817585
 31
0.0
  0
ARC
  5
917B
  8
0
 10
83.400000318943341
 20
215.40359039654999
 30
0.0
 40
1.0000000000000271
 50
314.42700400079968
 51
0.0
  0
ARC
  5
917C
  8
0
 10
84.800000318943333
 20
213.97530471085
 30
0.0
 40
1.0
 50
134.42700400079971
 51
180.0
  0
ARC
  5
917D
  8
0
 10
81.500000318943336
 20
213.97530471085
 30
0.0
 40
2.3000000000000251
 50
213.055731150898
 51
0.0
  0
ARC
  5
917E
  8
0
 10
78.734136981743347
 20
212.1753047108499
 30
0.0
 40
1.0
 50
33.055731150901401
 51
90.0
  0
LINE
  5
917F
  8
0
 10
67.265863455843345
 20
213.17530497904991
 30
0.0
 11
78.734137043443354
 21
213.17530497904991
 31
0.0
  0
ARC
  5
9180
  8
0
 10
67.265863656143353
 20
212.1753047108499
 30
0.0
 40
1.0
 50
90.0
 51
146.94426884909851
  0
ARC
  5
9181
  8
0
 10
64.500000318943336
 20
213.97530471085
 30
0.0
 40
2.3000000000000251
 50
171.05727508160069
 51
326.94426884909848
  0
ARC
  5
9182
  8
0
 10
61.240114376343342
 20
214.48827999405
 30
0.0
 40
1.000000000000012
 50
351.05727508160072
 51
57.67251157909989
  0
ARC
  5
9183
  8
0
 10
63.700000318943317
 20
232.97530471085
 30
0.0
 40
1.0
 50
270.0
 51
357.82219300579942
  0
ARC
  5
9184
  8
0
 10
66.800000318943333
 20
232.85741723485
 30
0.0
 40
2.1022407155160812
 50
45.000000000000149
 51
177.82219300579939
  0
LINE
  5
9185
  8
0
 10
95.769271180043333
 20
229.91030551495001
 30
0.0
 11
64.176848083743351
 21
240.17530381685
 31
0.0
  0
LINE
  5
9186
  8
0
 10
102.6999986917433
 20
215.04730433225001
 30
0.0
 11
95.769271180043333
 21
229.91030551495001
 31
0.0
  0
LINE
  5
9188
  8
0
 10
98.854955211343338
 20
180.39426840844999
 30
0.0
 11
102.6999986917433
 21
200.1753047108499
 31
0.0
  0
LINE
  5
9189
  8
0
 10
98.854955211343338
 20
180.39426840844999
 30
0.0
 11
92.158775702143345
 21
180.39426840844999
 31
0.0
  0
LINE
  5
918A
  8
0
 10
92.158775702143345
 20
180.39426840844999
 30
0.0
 11
89.332204237643367
 21
186.47530470045001
 31
0.0
  0
LINE
  5
918B
  8
0
 10
89.332204237643367
 20
186.47530470045001
 30
0.0
 11
52.400000318943341
 21
198.47530468835001
 31
0.0
  0
LINE
  5
918E
  8
0
 10
58.021481074443351
 20
242.17530414464991
 30
0.0
 11
52.400000318943341
 21
242.17530414464991
 31
0.0
  0
POLYLINE
  5
918F
  8
0
 66
     1
 10
0.0
 20
0.0
 30
0.0
 70
   128
  0
VERTEX
  5
ACD2
  8
0
 10
64.176848083743351
 20
240.17530381685
 30
0.0
  0
VERTEX
  5
ACD3
  8
0
 10
63.300847932743316
 20
240.4599346220499
 30
0.0
  0
VERTEX
  5
ACD4
  8
0
 10
62.442680746343342
 20
240.73876887565001
 30
0.0
  0
VERTEX
  5
ACD5
  8
0
 10
61.619816273543329
 20
241.0061329603499
 30
0.0
  0
VERTEX
  5
ACD6
  8
0
 10
60.849005281943327
 20
241.25658795235
 30
0.0
  0
VERTEX
  5
ACD7
  8
0
 10
60.145940091543331
 20
241.48502647875
 30
0.0
  0
VERTEX
  5
ACD8
  8
0
 10
59.524931870443339
 20
241.68680310245
 30
0.0
  0
VERTEX
  5
ACD9
  8
0
 10
58.998623788443361
 20
241.85781255365001
 30
0.0
  0
VERTEX
  5
ACDA
  8
0
 10
58.577729314643328
 20
241.99456796055
 30
0.0
  0
VERTEX
  5
ACDB
  8
0
 10
58.27081661674336
 20
242.0942902565499
 30
0.0
  0
VERTEX
  5
ACDC
  8
0
 10
58.084133938043323
 20
242.15494915844999
 30
0.0
  0
VERTEX
  5
ACDD
  8
0
 10
58.021481074443351
 20
242.17530414464991
 30
0.0
  0
SEQEND
  5
ACDE
  8
0
  0
ARC
  5
9191
  8
0
 10
92.321121266243338
 20
174.78400265395001
 30
0.0
 40
3.0518376108285681
 50
63.198499081598882
 51
88.518961528500157
  0
LINE
  5
9192
  8
0
 10
92.399999424843344
 20
179.87530380485001
 30
0.0
 11
92.399999424843344
 21
177.83482074734991
 31
0.0
  0
LINE
  5
9193
  8
0
 10
98.70000176134333
 20
174.4753055274499
 30
0.0
 11
98.700001761343344
 21
179.59708794955
 31
0.0
  0
POLYLINE
  5
9195
  8
0
 66
     1
 10
0.0
 20
0.0
 30
0.0
 70
   128
  0
VERTEX
  5
ACDF
  8
0
 10
92.399999424843344
 20
179.87530380485001
 30
0.0
  0
VERTEX
  5
ACE0
  8
0
 10
92.320043519243342
 20
180.04732094704991
 30
0.0
  0
VERTEX
  5
ACE1
  8
0
 10
92.239547446443339
 20
180.2205022424499
 30
0.0
  0
VERTEX
  5
ACE2
  8
0
 10
92.158775702143345
 20
180.39426840844999
 30
0.0
  0
SEQEND
  5
ACE3
  8
0
  0
POLYLINE
  5
9196
  8
0
 66
     1
 10
0.0
 20
0.0
 30
0.0
 70
   128
  0
VERTEX
  5
ACE4
  8
0
 10
98.700001761343344
 20
179.59708794955
 30
0.0
  0
VERTEX
  5
ACE5
  8
0
 10
98.750956282043333
 20
179.85923103984999
 30
0.0
  0
VERTEX
  5
ACE6
  8
0
 10
98.802745267843335
 20
180.12567125264991
 30
0.0
  0
VERTEX
  5
ACE7
  8
0
 10
98.854955211343338
 20
180.39426840844999
 30
0.0
  0
SEQEND
  5
ACE8
  8
0
  0
LINE
  5
9199
  8
0
 10
70.749999880843347
 20
178.55784371495
 30
0.0
 11
52.400000318943341
 21
178.55784371495
 31
0.0
  0
POLYLINE
  5
919C
  8
0
 66
     1
 10
0.0
 20
0.0
 30
0.0
 70
   128
  0
VERTEX
  5
ACE9
  8
0
 10
63.75000059614333
 20
176.81984305384989
 30
0.0
  0
VERTEX
  5
ACEA
  8
0
 10
63.85096620774334
 20
177.06671245394989
 30
0.0
  0
VERTEX
  5
ACEB
  8
0
 10
64.161838889143354
 20
177.33171656725
 30
0.0
  0
VERTEX
  5
ACEC
  8
0
 10
64.655926004143353
 20
177.59038023655
 30
0.0
  0
VERTEX
  5
ACED
  8
0
 10
65.348254442243359
 20
177.84661501644999
 30
0.0
  0
VERTEX
  5
ACEE
  8
0
 10
66.182070337343333
 20
178.0742675066499
 30
0.0
  0
VERTEX
  5
ACEF
  8
0
 10
67.184847705143355
 20
178.27457636595
 30
0.0
  0
VERTEX
  5
ACF0
  8
0
 10
68.241914659843331
 20
178.42125222084999
 30
0.0
  0
VERTEX
  5
ACF1
  8
0
 10
69.41105045384333
 20
178.51954773064989
 30
0.0
  0
VERTEX
  5
ACF2
  8
0
 10
70.749999880843347
 20
178.55784371495
 30
0.0
  0
SEQEND
  5
ACF3
  8
0
  0
LINE
  5
919D
  8
0
 10
63.75000059614333
 20
176.81984305384989
 30
0.0
 11
63.75000059614333
 21
173.7753048539499
 31
0.0
  0
LINE
  5
919F
  8
0
 10
52.400000318943341
 20
242.17530414464991
 30
0.0
 11
52.400000318943341
 21
175.27530416844991
 31
0.0
  0
POLYLINE
  5
91A0
  8
0
 66
     1
 10
0.0
 20
0.0
 30
0.0
 70
   128
  0
VERTEX
  5
ACF4
  8
0
 10
93.697197660843344
 20
177.50799357894991
 30
0.0
  0
VERTEX
  5
ACF5
  8
0
 10
93.876462355343335
 20
177.3711934685499
 30
0.0
  0
VERTEX
  5
ACF6
  8
0
 10
93.899998739443333
 20
177.2984571754499
 30
0.0
  0
SEQEND
  5
ACF7
  8
0
  0
LINE
  5
91A1
  8
0
 10
93.899998739443333
 20
173.7753048539499
 30
0.0
 11
93.899998739443333
 21
177.2984571754499
 31
0.0
  0
LINE
  5
91A7
  8
0
 10
93.749999925543335
 20
172.97530435025001
 30
0.0
 11
93.749999925543335
 21
173.7753048539499
 31
0.0
  0
LINE
  5
91AB
  8
0
 10
66.19778919974334
 20
168.43176335095001
 30
0.0
 11
75.30221149334335
 21
168.43176335095001
 31
0.0
  0
LINE
  5
91AC
  8
0
 10
65.950000584143339
 20
171.97530418635
 30
0.0
 11
75.550001040143343
 21
171.97530418635
 31
0.0
  0
LINE
  5
91B0
  8
0
 10
66.750000156543337
 20
167.47530624275001
 30
0.0
 11
74.750000536543354
 21
167.47530624275001
 31
0.0
  0
LINE
  5
91B1
  8
0
 10
66.750000156543337
 20
163.07530626655
 30
0.0
 11
74.750000536543354
 21
163.07530626655
 31
0.0
  0
ARC
  5
91B2
  8
0
 10
62.950000318943317
 20
171.97530471085
 30
0.0
 40
1.0
 50
90.0
 51
169.9999999999981
  0
LINE
  5
91B3
  8
0
 10
61.96519259364333
 20
172.1489530056499
 30
0.0
 11
61.610042043043372
 21
170.13479284944989
 31
0.0
  0
ARC
  5
91B5
  8
0
 10
62.950000318943317
 20
171.97530471085
 30
0.0
 40
1.7999999999999969
 50
90.0
 51
169.9999999999981
  0
LINE
  5
91B6
  8
0
 10
60.822195299043329
 20
170.27371264995
 30
0.0
 11
61.177346780943338
 21
172.2878709435499
 31
0.0
  0
LINE
  5
91B7
  8
0
 10
62.950000092443332
 20
173.7753048539499
 30
0.0
 11
93.899998739443333
 21
173.77530485394999
 31
0.0
  0
LINE
  5
91B8
  8
0
 10
93.749999925543321
 20
172.97530435025001
 30
0.0
 11
62.950000092443332
 21
172.97530435025001
 31
0.0
  0
POLYLINE
  5
91BA
  8
0
 66
     1
 10
0.0
 20
0.0
 30
0.0
 70
   128
  0
VERTEX
  5
ACF8
  8
0
 10
61.436394155043359
 20
169.14998628194999
 30
0.0
  0
VERTEX
  5
ACF9
  8
0
 10
61.439730152543348
 20
169.16890889404999
 30
0.0
  0
VERTEX
  5
ACFA
  8
0
 10
61.449611485043327
 20
169.22495029864999
 30
0.0
  0
VERTEX
  5
ACFB
  8
0
 10
61.465659104343359
 20
169.31595541535
 30
0.0
  0
VERTEX
  5
ACFC
  8
0
 10
61.487253680843338
 20
169.43842992185
 30
0.0
  0
VERTEX
  5
ACFD
  8
0
 10
61.51356820024332
 20
169.58766318855001
 30
0.0
  0
VERTEX
  5
ACFE
  8
0
 10
61.54358938344334
 20
169.75792385635
 30
0.0
  0
VERTEX
  5
ACFF
  8
0
 10
61.57616518444334
 20
169.9426665902499
 30
0.0
  0
VERTEX
  5
AD00
  8
0
 10
61.610042043043372
 20
170.13479284944989
 30
0.0
  0
SEQEND
  5
AD01
  8
0
  0
POLYLINE
  5
91BB
  8
0
 66
     1
 10
0.0
 20
0.0
 30
0.0
 70
   128
  0
VERTEX
  5
AD02
  8
0
 10
60.648547411043317
 20
169.28890421985
 30
0.0
  0
VERTEX
  5
AD03
  8
0
 10
60.651884339843349
 20
169.30782683194991
 30
0.0
  0
VERTEX
  5
AD04
  8
0
 10
60.661765672343357
 20
169.36386823654991
 30
0.0
  0
VERTEX
  5
AD05
  8
0
 10
60.677812360243337
 20
169.45487335324989
 30
0.0
  0
VERTEX
  5
AD06
  8
0
 10
60.699407868143339
 20
169.57734785974989
 30
0.0
  0
VERTEX
  5
AD07
  8
0
 10
60.725722387443369
 20
169.7265811264499
 30
0.0
  0
VERTEX
  5
AD08
  8
0
 10
60.755743570643347
 20
169.89684179425001
 30
0.0
  0
VERTEX
  5
AD09
  8
0
 10
60.788318440343318
 20
170.08158452804989
 30
0.0
  0
VERTEX
  5
AD0A
  8
0
 10
60.822195299043329
 20
170.27371264995
 30
0.0
  0
SEQEND
  5
AD0B
  8
0
  0
LINE
  5
91BC
  8
0
 10
67.35000006864334
 20
162.47530356054989
 30
0.0
 11
74.149999693143343
 21
162.47530356054989
 31
0.0
  0
LINE
  5
91BD
  8
0
 10
67.35000006864334
 20
160.47530323264991
 30
0.0
 11
74.149999693143343
 21
160.47530323264991
 31
0.0
  0
LINE
  5
91BE
  8
0
 10
100.47506533564329
 20
219.81868967414999
 30
0.0
 11
100.76508663604331
 21
219.95392702525001
 31
0.0
  0
LINE
  5
91C3
  8
0
 10
98.229374662143343
 20
225.39177425204991
 30
0.0
 11
97.939357087043334
 21
225.25653690105
 31
0.0
  0
LINE
  5
91C5
  8
0
 10
87.949998602343356
 20
170.87530419235
 30
0.0
 11
92.349998578443333
 21
170.87530419235
 31
0.0
  0
LINE
  5
91C6
  8
0
 10
102.6999986917433
 20
215.04730433225001
 30
0.0
 11
102.6999986917433
 21
184.47530530394999
 31
0.0
  0
POLYLINE
  5
91C8
  8
0
 66
     1
 10
0.0
 20
0.0
 30
0.0
 70
   128
  0
VERTEX
  5
AD0C
  8
0
 10
61.436394155043359
 20
169.14998628194999
 30
0.0
  0
VERTEX
  5
AD0D
  8
0
 10
61.433057226343323
 20
169.13106366995001
 30
0.0
  0
VERTEX
  5
AD0E
  8
0
 10
61.42317589374332
 20
169.07502226534999
 30
0.0
  0
VERTEX
  5
AD0F
  8
0
 10
61.407128274543339
 20
168.98401528594991
 30
0.0
  0
VERTEX
  5
AD10
  8
0
 10
61.385533697943337
 20
168.86154264215
 30
0.0
  0
VERTEX
  5
AD11
  8
0
 10
61.359219178643343
 20
168.7123075127499
 30
0.0
  0
VERTEX
  5
AD12
  8
0
 10
61.329197995443337
 20
168.54204684494999
 30
0.0
  0
VERTEX
  5
AD13
  8
0
 10
61.296622194443358
 20
168.3573059737499
 30
0.0
  0
VERTEX
  5
AD14
  8
0
 10
61.262745335743347
 20
168.16517785194989
 30
0.0
  0
SEQEND
  5
AD15
  8
0
  0
POLYLINE
  5
91C9
  8
0
 66
     1
 10
0.0
 20
0.0
 30
0.0
 70
   128
  0
VERTEX
  5
AD16
  8
0
 10
60.474899523043348
 20
168.30409765245
 30
0.0
  0
VERTEX
  5
AD17
  8
0
 10
60.508776381643337
 20
168.49622204904989
 30
0.0
  0
VERTEX
  5
AD18
  8
0
 10
60.541351251343343
 20
168.68096664545001
 30
0.0
  0
VERTEX
  5
AD19
  8
0
 10
60.571373365843357
 20
168.85122731325001
 30
0.0
  0
VERTEX
  5
AD1A
  8
0
 10
60.597686953943338
 20
169.00046057994999
 30
0.0
  0
VERTEX
  5
AD1B
  8
0
 10
60.61928246174336
 20
169.12293322384991
 30
0.0
  0
VERTEX
  5
AD1C
  8
0
 10
60.635329149743342
 20
169.21394020314989
 30
0.0
  0
VERTEX
  5
AD1D
  8
0
 10
60.64521048224335
 20
169.2699816078499
 30
0.0
  0
VERTEX
  5
AD1E
  8
0
 10
60.648547411043317
 20
169.28890421985
 30
0.0
  0
SEQEND
  5
AD1F
  8
0
  0
LINE
  5
91CB
  8
0
 10
61.262745335743347
 20
168.16517785194989
 30
0.0
 11
59.613088071443343
 21
158.80950242284999
 31
0.0
  0
LINE
  5
91CC
  8
0
 10
58.825241793043347
 20
158.94842222334989
 30
0.0
 11
60.474899523043348
 21
168.30409765245
 31
0.0
  0
LINE
  5
91CD
  8
0
 10
58.651593439343372
 20
157.96361565595001
 30
0.0
 11
59.43943971774334
 21
157.82469585535
 31
0.0
  0
POLYLINE
  5
91CE
  8
0
 66
     1
 10
0.0
 20
0.0
 30
0.0
 70
   128
  0
VERTEX
  5
AD20
  8
0
 10
59.43943971774334
 20
157.82469585535
 30
0.0
  0
VERTEX
  5
AD21
  8
0
 10
59.442776180843367
 20
157.84362033015
 30
0.0
  0
VERTEX
  5
AD22
  8
0
 10
59.452657979043352
 20
157.89965987204991
 30
0.0
  0
VERTEX
  5
AD23
  8
0
 10
59.46870466704334
 20
157.9906649887499
 30
0.0
  0
VERTEX
  5
AD24
  8
0
 10
59.49030017484332
 20
158.11314135795001
 30
0.0
  0
VERTEX
  5
AD25
  8
0
 10
59.516614228543318
 20
158.2623727619499
 30
0.0
  0
VERTEX
  5
AD26
  8
0
 10
59.546635411743353
 20
158.4326334297499
 30
0.0
  0
VERTEX
  5
AD27
  8
0
 10
59.579210747043341
 20
158.61737802625001
 30
0.0
  0
VERTEX
  5
AD28
  8
0
 10
59.613088071443343
 20
158.80950242284999
 30
0.0
  0
SEQEND
  5
AD29
  8
0
  0
POLYLINE
  5
91CF
  8
0
 66
     1
 10
0.0
 20
0.0
 30
0.0
 70
   128
  0
VERTEX
  5
AD2A
  8
0
 10
58.651593439343372
 20
157.96361565595001
 30
0.0
  0
VERTEX
  5
AD2B
  8
0
 10
58.654929902443342
 20
157.98253640535
 30
0.0
  0
VERTEX
  5
AD2C
  8
0
 10
58.664811700643362
 20
158.03857967254999
 30
0.0
  0
VERTEX
  5
AD2D
  8
0
 10
58.680858388643351
 20
158.12958478925
 30
0.0
  0
VERTEX
  5
AD2E
  8
0
 10
58.702453896443359
 20
158.25205743314999
 30
0.0
  0
VERTEX
  5
AD2F
  8
0
 10
58.72876795014335
 20
158.40129256245001
 30
0.0
  0
VERTEX
  5
AD30
  8
0
 10
58.758789133343363
 20
158.57155323025
 30
0.0
  0
VERTEX
  5
AD31
  8
0
 10
58.79136446864333
 20
158.75629782674989
 30
0.0
  0
VERTEX
  5
AD32
  8
0
 10
58.825241793043347
 20
158.94842222334989
 30
0.0
  0
SEQEND
  5
AD33
  8
0
  0
LINE
  5
91D0
  8
0
 10
66.150000244443333
 20
165.47530591485
 30
0.0
 11
66.750000156543337
 21
165.47530591485
 31
0.0
  0
LINE
  5
91D1
  8
0
 10
74.750000536543354
 20
165.47530591485
 30
0.0
 11
75.349999517243333
 21
165.47530591485
 31
0.0
  0
POLYLINE
  5
91E6
  8
0
 10
177.99999999999329
 20
339.15382356940057
 30
0.0
 66
     1
 70
     8
  0
VERTEX
  8
0
  5
AE17
 10
178.000
 20
339.154
 30
0.000000
  70
    32
  0
VERTEX
  8
0
  5
AE18
 10
177.975
 20
339.153
 30
0.000000
  70
    32
  0
VERTEX
  8
0
  5
AE19
 10
177.951
 20
339.152
 30
0.000000
  70
    32
  0
VERTEX
  8
0
  5
AE1A
 10
177.926
 20
339.150
 30
0.000000
  70
    32
  0
VERTEX
  8
0
  5
AE1B
 10
177.902
 20
339.146
 30
0.000000
  70
    32
  0
VERTEX
  8
0
  5
AE1C
 10
177.877
 20
339.142
 30
0.000000
  70
    32
  0
VERTEX
  8
0
  5
AE1D
 10
177.853
 20
339.137
 30
0.000000
  70
    32
  0
VERTEX
  8
0
  5
AE1E
 10
177.828
 20
339.131
 30
0.000000
  70
    32
  0
VERTEX
  8
0
  5
AE1F
 10
177.804
 20
339.124
 30
0.000000
  70
    32
  0
VERTEX
  8
0
  5
AE20
 10
177.780
 20
339.116
 30
0.000000
  70
    32
  0
VERTEX
  8
0
  5
AE21
 10
177.755
 20
339.108
 30
0.000000
  70
    32
  0
VERTEX
  8
0
  5
AE22
 10
177.731
 20
339.098
 30
0.000000
  70
    32
  0
VERTEX
  8
0
  5
AE23
 10
177.707
 20
339.087
 30
0.000000
  70
    32
  0
VERTEX
  8
0
  5
AE24
 10
177.682
 20
339.076
 30
0.000000
  70
    32
  0
VERTEX
  8
0
  5
AE25
 10
177.658
 20
339.063
 30
0.000000
  70
    32
  0
VERTEX
  8
0
  5
AE26
 10
177.634
 20
339.050
 30
0.000000
  70
    32
  0
VERTEX
  8
0
  5
AE27
 10
177.610
 20
339.036
 30
0.000000
  70
    32
  0
VERTEX
  8
0
  5
AE28
 10
177.586
 20
339.020
 30
0.000000
  70
    32
  0
VERTEX
  8
0
  5
AE29
 10
177.562
 20
339.004
 30
0.000000
  70
    32
  0
VERTEX
  8
0
  5
AE2A
 10
177.538
 20
338.987
 30
0.000000
  70
    32
  0
VERTEX
  8
0
  5
AE2B
 10
177.514
 20
338.969
 30
0.000000
  70
    32
  0
VERTEX
  8
0
  5
AE2C
 10
177.490
 20
338.951
 30
0.000000
  70
    32
  0
VERTEX
  8
0
  5
AE2D
 10
177.467
 20
338.931
 30
0.000000
  70
    32
  0
VERTEX
  8
0
  5
AE2E
 10
177.443
 20
338.910
 30
0.000000
  70
    32
  0
VERTEX
  8
0
  5
AE2F
 10
177.419
 20
338.889
 30
0.000000
  70
    32
  0
VERTEX
  8
0
  5
AE30
 10
177.396
 20
338.866
 30
0.000000
  70
    32
  0
VERTEX
  8
0
  5
AE31
 10
177.373
 20
338.843
 30
0.000000
  70
    32
  0
VERTEX
  8
0
  5
AE32
 10
177.349
 20
338.819
 30
0.000000
  70
    32
  0
VERTEX
  8
0
  5
AE33
 10
177.326
 20
338.794
 30
0.000000
  70
    32
  0
VERTEX
  8
0
  5
AE34
 10
177.303
 20
338.768
 30
0.000000
  70
    32
  0
VERTEX
  8
0
  5
AE35
 10
177.280
 20
338.741
 30
0.000000
  70
    32
  0
VERTEX
  8
0
  5
AE36
 10
177.257
 20
338.714
 30
0.000000
  70
    32
  0
VERTEX
  8
0
  5
AE37
 10
177.235
 20
338.685
 30
0.000000
  70
    32
  0
VERTEX
  8
0
  5
AE38
 10
177.212
 20
338.656
 30
0.000000
  70
    32
  0
VERTEX
  8
0
  5
AE39
 10
177.190
 20
338.626
 30
0.000000
  70
    32
  0
VERTEX
  8
0
  5
AE3A
 10
177.167
 20
338.595
 30
0.000000
  70
    32
  0
VERTEX
  8
0
  5
AE3B
 10
177.145
 20
338.563
 30
0.000000
  70
    32
  0
VERTEX
  8
0
  5
AE3C
 10
177.123
 20
338.530
 30
0.000000
  70
    32
  0
VERTEX
  8
0
  5
AE3D
 10
177.101
 20
338.497
 30
0.000000
  70
    32
  0
VERTEX
  8
0
  5
AE3E
 10
177.079
 20
338.462
 30
0.000000
  70
    32
  0
VERTEX
  8
0
  5
AE3F
 10
177.057
 20
338.427
 30
0.000000
  70
    32
  0
VERTEX
  8
0
  5
AE40
 10
177.036
 20
338.391
 30
0.000000
  70
    32
  0
VERTEX
  8
0
  5
AE41
 10
177.014
 20
338.354
 30
0.000000
  70
    32
  0
VERTEX
  8
0
  5
AE42
 10
176.993
 20
338.317
 30
0.000000
  70
    32
  0
VERTEX
  8
0
  5
AE43
 10
176.972
 20
338.278
 30
0.000000
  70
    32
  0
VERTEX
  8
0
  5
AE44
 10
176.951
 20
338.239
 30
0.000000
  70
    32
  0
VERTEX
  8
0
  5
AE45
 10
176.930
 20
338.199
 30
0.000000
  70
    32
  0
VERTEX
  8
0
  5
AE46
 10
176.909
 20
338.158
 30
0.000000
  70
    32
  0
VERTEX
  8
0
  5
AE47
 10
176.889
 20
338.116
 30
0.000000
  70
    32
  0
VERTEX
  8
0
  5
AE48
 10
176.869
 20
338.074
 30
0.000000
  70
    32
  0
VERTEX
  8
0
  5
AE49
 10
176.848
 20
338.031
 30
0.000000
  70
    32
  0
VERTEX
  8
0
  5
AE4A
 10
176.828
 20
337.987
 30
0.000000
  70
    32
  0
VERTEX
  8
0
  5
AE4B
 10
176.809
 20
337.942
 30
0.000000
  70
    32
  0
VERTEX
  8
0
  5
AE4C
 10
176.789
 20
337.897
 30
0.000000
  70
    32
  0
VERTEX
  8
0
  5
AE4D
 10
176.770
 20
337.851
 30
0.000000
  70
    32
  0
VERTEX
  8
0
  5
AE4E
 10
176.750
 20
337.804
 30
0.000000
  70
    32
  0
VERTEX
  8
0
  5
AE4F
 10
176.731
 20
337.757
 30
0.000000
  70
    32
  0
VERTEX
  8
0
  5
AE50
 10
176.712
 20
337.708
 30
0.000000
  70
    32
  0
VERTEX
  8
0
  5
AE51
 10
176.694
 20
337.659
 30
0.000000
  70
    32
  0
VERTEX
  8
0
  5
AE52
 10
176.675
 20
337.610
 30
0.000000
  70
    32
  0
VERTEX
  8
0
  5
AE53
 10
176.657
 20
337.559
 30
0.000000
  70
    32
  0
VERTEX
  8
0
  5
AE54
 10
176.639
 20
337.508
 30
0.000000
  70
    32
  0
VERTEX
  8
0
  5
AE55
 10
176.621
 20
337.456
 30
0.000000
  70
    32
  0
VERTEX
  8
0
  5
AE56
 10
176.603
 20
337.404
 30
0.000000
  70
    32
  0
VERTEX
  8
0
  5
AE57
 10
176.586
 20
337.351
 30
0.000000
  70
    32
  0
VERTEX
  8
0
  5
AE58
 10
176.569
 20
337.297
 30
0.000000
  70
    32
  0
VERTEX
  8
0
  5
AE59
 10
176.552
 20
337.243
 30
0.000000
  70
    32
  0
VERTEX
  8
0
  5
AE5A
 10
176.535
 20
337.188
 30
0.000000
  70
    32
  0
VERTEX
  8
0
  5
AE5B
 10
176.518
 20
337.132
 30
0.000000
  70
    32
  0
VERTEX
  8
0
  5
AE5C
 10
176.502
 20
337.076
 30
0.000000
  70
    32
  0
VERTEX
  8
0
  5
AE5D
 10
176.486
 20
337.019
 30
0.000000
  70
    32
  0
VERTEX
  8
0
  5
AE5E
 10
176.470
 20
336.961
 30
0.000000
  70
    32
  0
VERTEX
  8
0
  5
AE5F
 10
176.454
 20
336.903
 30
0.000000
  70
    32
  0
VERTEX
  8
0
  5
AE60
 10
176.439
 20
336.845
 30
0.000000
  70
    32
  0
VERTEX
  8
0
  5
AE61
 10
176.423
 20
336.785
 30
0.000000
  70
    32
  0
VERTEX
  8
0
  5
AE62
 10
176.408
 20
336.726
 30
0.000000
  70
    32
  0
VERTEX
  8
0
  5
AE63
 10
176.394
 20
336.665
 30
0.000000
  70
    32
  0
VERTEX
  8
0
  5
AE64
 10
176.379
 20
336.604
 30
0.000000
  70
    32
  0
VERTEX
  8
0
  5
AE65
 10
176.365
 20
336.543
 30
0.000000
  70
    32
  0
VERTEX
  8
0
  5
AE66
 10
176.351
 20
336.481
 30
0.000000
  70
    32
  0
VERTEX
  8
0
  5
AE67
 10
176.337
 20
336.418
 30
0.000000
  70
    32
  0
VERTEX
  8
0
  5
AE68
 10
176.324
 20
336.355
 30
0.000000
  70
    32
  0
VERTEX
  8
0
  5
AE69
 10
176.310
 20
336.292
 30
0.000000
  70
    32
  0
VERTEX
  8
0
  5
AE6A
 10
176.297
 20
336.227
 30
0.000000
  70
    32
  0
VERTEX
  8
0
  5
AE6B
 10
176.285
 20
336.163
 30
0.000000
  70
    32
  0
VERTEX
  8
0
  5
AE6C
 10
176.272
 20
336.098
 30
0.000000
  70
    32
  0
VERTEX
  8
0
  5
AE6D
 10
176.260
 20
336.032
 30
0.000000
  70
    32
  0
VERTEX
  8
0
  5
AE6E
 10
176.248
 20
335.966
 30
0.000000
  70
    32
  0
VERTEX
  8
0
  5
AE6F
 10
176.236
 20
335.900
 30
0.000000
  70
    32
  0
VERTEX
  8
0
  5
AE70
 10
176.225
 20
335.833
 30
0.000000
  70
    32
  0
VERTEX
  8
0
  5
AE71
 10
176.214
 20
335.766
 30
0.000000
  70
    32
  0
VERTEX
  8
0
  5
AE72
 10
176.203
 20
335.698
 30
0.000000
  70
    32
  0
VERTEX
  8
0
  5
AE73
 10
176.192
 20
335.630
 30
0.000000
  70
    32
  0
VERTEX
  8
0
  5
AE74
 10
176.182
 20
335.562
 30
0.000000
  70
    32
  0
VERTEX
  8
0
  5
AE75
 10
176.172
 20
335.493
 30
0.000000
  70
    32
  0
VERTEX
  8
0
  5
AE76
 10
176.162
 20
335.424
 30
0.000000
  70
    32
  0
VERTEX
  8
0
  5
AE77
 10
176.152
 20
335.354
 30
0.000000
  70
    32
  0
VERTEX
  8
0
  5
AE78
 10
176.143
 20
335.284
 30
0.000000
  70
    32
  0
VERTEX
  8
0
  5
AE79
 10
176.134
 20
335.214
 30
0.000000
  70
    32
  0
VERTEX
  8
0
  5
AE7A
 10
176.125
 20
335.143
 30
0.000000
  70
    32
  0
VERTEX
  8
0
  5
AE7B
 10
176.117
 20
335.072
 30
0.000000
  70
    32
  0
VERTEX
  8
0
  5
AE7C
 10
176.109
 20
335.001
 30
0.000000
  70
    32
  0
VERTEX
  8
0
  5
AE7D
 10
176.101
 20
334.929
 30
0.000000
  70
    32
  0
VERTEX
  8
0
  5
AE7E
 10
176.093
 20
334.857
 30
0.000000
  70
    32
  0
VERTEX
  8
0
  5
AE7F
 10
176.086
 20
334.785
 30
0.000000
  70
    32
  0
VERTEX
  8
0
  5
AE80
 10
176.079
 20
334.713
 30
0.000000
  70
    32
  0
VERTEX
  8
0
  5
AE81
 10
176.072
 20
334.640
 30
0.000000
  70
    32
  0
VERTEX
  8
0
  5
AE82
 10
176.066
 20
334.567
 30
0.000000
  70
    32
  0
VERTEX
  8
0
  5
AE83
 10
176.060
 20
334.494
 30
0.000000
  70
    32
  0
VERTEX
  8
0
  5
AE84
 10
176.054
 20
334.421
 30
0.000000
  70
    32
  0
VERTEX
  8
0
  5
AE85
 10
176.049
 20
334.347
 30
0.000000
  70
    32
  0
VERTEX
  8
0
  5
AE86
 10
176.043
 20
334.273
 30
0.000000
  70
    32
  0
VERTEX
  8
0
  5
AE87
 10
176.038
 20
334.199
 30
0.000000
  70
    32
  0
VERTEX
  8
0
  5
AE88
 10
176.034
 20
334.125
 30
0.000000
  70
    32
  0
VERTEX
  8
0
  5
AE89
 10
176.029
 20
334.051
 30
0.000000
  70
    32
  0
VERTEX
  8
0
  5
AE8A
 10
176.025
 20
333.976
 30
0.000000
  70
    32
  0
VERTEX
  8
0
  5
AE8B
 10
176.022
 20
333.902
 30
0.000000
  70
    32
  0
VERTEX
  8
0
  5
AE8C
 10
176.018
 20
333.827
 30
0.000000
  70
    32
  0
VERTEX
  8
0
  5
AE8D
 10
176.015
 20
333.752
 30
0.000000
  70
    32
  0
VERTEX
  8
0
  5
AE8E
 10
176.012
 20
333.677
 30
0.000000
  70
    32
  0
VERTEX
  8
0
  5
AE8F
 10
176.010
 20
333.602
 30
0.000000
  70
    32
  0
VERTEX
  8
0
  5
AE90
 10
176.007
 20
333.527
 30
0.000000
  70
    32
  0
VERTEX
  8
0
  5
AE91
 10
176.005
 20
333.451
 30
0.000000
  70
    32
  0
VERTEX
  8
0
  5
AE92
 10
176.004
 20
333.376
 30
0.000000
  70
    32
  0
VERTEX
  8
0
  5
AE93
 10
176.002
 20
333.300
 30
0.000000
  70
    32
  0
VERTEX
  8
0
  5
AE94
 10
176.001
 20
333.225
 30
0.000000
  70
    32
  0
VERTEX
  8
0
  5
AE95
 10
176.001
 20
333.150
 30
0.000000
  70
    32
  0
VERTEX
  8
0
  5
AE96
 10
176.000
 20
333.074
 30
0.000000
  70
    32
  0
VERTEX
  8
0
  5
AE97
 10
176.000
 20
332.998
 30
0.000000
  70
    32
  0
SEQEND
  8
0
  5
AE98
  0
LINE
  5
91E8
  8
0
 10
224.00000020859329
 20
344.77530426275013
 30
0.0
 11
175.99999979129331
 21
344.77530426275001
 31
0.0
  0
LINE
  5
91EB
  8
0
 10
178.00000011919329
 20
339.15382350725002
 30
0.0
 11
221.99999988069331
 21
339.15382350725002
 31
0.0
  0
POLYLINE
  5
91ED
  8
0
 10
223.9999999997909
 20
332.99845649504999
 30
0.0
 66
     1
 70
     8
  0
VERTEX
  8
0
  5
AE99
 10
224.000
 20
332.998
 30
0.000000
  70
    32
  0
VERTEX
  8
0
  5
AE9A
 10
224.000
 20
333.074
 30
0.000000
  70
    32
  0
VERTEX
  8
0
  5
AE9B
 10
223.999
 20
333.150
 30
0.000000
  70
    32
  0
VERTEX
  8
0
  5
AE9C
 10
223.999
 20
333.225
 30
0.000000
  70
    32
  0
VERTEX
  8
0
  5
AE9D
 10
223.998
 20
333.300
 30
0.000000
  70
    32
  0
VERTEX
  8
0
  5
AE9E
 10
223.996
 20
333.376
 30
0.000000
  70
    32
  0
VERTEX
  8
0
  5
AE9F
 10
223.995
 20
333.451
 30
0.000000
  70
    32
  0
VERTEX
  8
0
  5
AEA0
 10
223.993
 20
333.527
 30
0.000000
  70
    32
  0
VERTEX
  8
0
  5
AEA1
 10
223.990
 20
333.602
 30
0.000000
  70
    32
  0
VERTEX
  8
0
  5
AEA2
 10
223.988
 20
333.677
 30
0.000000
  70
    32
  0
VERTEX
  8
0
  5
AEA3
 10
223.985
 20
333.752
 30
0.000000
  70
    32
  0
VERTEX
  8
0
  5
AEA4
 10
223.982
 20
333.827
 30
0.000000
  70
    32
  0
VERTEX
  8
0
  5
AEA5
 10
223.978
 20
333.902
 30
0.000000
  70
    32
  0
VERTEX
  8
0
  5
AEA6
 10
223.975
 20
333.976
 30
0.000000
  70
    32
  0
VERTEX
  8
0
  5
AEA7
 10
223.971
 20
334.051
 30
0.000000
  70
    32
  0
VERTEX
  8
0
  5
AEA8
 10
223.966
 20
334.125
 30
0.000000
  70
    32
  0
VERTEX
  8
0
  5
AEA9
 10
223.962
 20
334.199
 30
0.000000
  70
    32
  0
VERTEX
  8
0
  5
AEAA
 10
223.957
 20
334.273
 30
0.000000
  70
    32
  0
VERTEX
  8
0
  5
AEAB
 10
223.951
 20
334.347
 30
0.000000
  70
    32
  0
VERTEX
  8
0
  5
AEAC
 10
223.946
 20
334.421
 30
0.000000
  70
    32
  0
VERTEX
  8
0
  5
AEAD
 10
223.940
 20
334.494
 30
0.000000
  70
    32
  0
VERTEX
  8
0
  5
AEAE
 10
223.934
 20
334.567
 30
0.000000
  70
    32
  0
VERTEX
  8
0
  5
AEAF
 10
223.928
 20
334.640
 30
0.000000
  70
    32
  0
VERTEX
  8
0
  5
AEB0
 10
223.921
 20
334.713
 30
0.000000
  70
    32
  0
VERTEX
  8
0
  5
AEB1
 10
223.914
 20
334.785
 30
0.000000
  70
    32
  0
VERTEX
  8
0
  5
AEB2
 10
223.907
 20
334.857
 30
0.000000
  70
    32
  0
VERTEX
  8
0
  5
AEB3
 10
223.899
 20
334.929
 30
0.000000
  70
    32
  0
VERTEX
  8
0
  5
AEB4
 10
223.891
 20
335.001
 30
0.000000
  70
    32
  0
VERTEX
  8
0
  5
AEB5
 10
223.883
 20
335.072
 30
0.000000
  70
    32
  0
VERTEX
  8
0
  5
AEB6
 10
223.875
 20
335.143
 30
0.000000
  70
    32
  0
VERTEX
  8
0
  5
AEB7
 10
223.866
 20
335.214
 30
0.000000
  70
    32
  0
VERTEX
  8
0
  5
AEB8
 10
223.857
 20
335.284
 30
0.000000
  70
    32
  0
VERTEX
  8
0
  5
AEB9
 10
223.848
 20
335.354
 30
0.000000
  70
    32
  0
VERTEX
  8
0
  5
AEBA
 10
223.838
 20
335.424
 30
0.000000
  70
    32
  0
VERTEX
  8
0
  5
AEBB
 10
223.828
 20
335.493
 30
0.000000
  70
    32
  0
VERTEX
  8
0
  5
AEBC
 10
223.818
 20
335.562
 30
0.000000
  70
    32
  0
VERTEX
  8
0
  5
AEBD
 10
223.808
 20
335.630
 30
0.000000
  70
    32
  0
VERTEX
  8
0
  5
AEBE
 10
223.797
 20
335.698
 30
0.000000
  70
    32
  0
VERTEX
  8
0
  5
AEBF
 10
223.786
 20
335.766
 30
0.000000
  70
    32
  0
VERTEX
  8
0
  5
AEC0
 10
223.775
 20
335.833
 30
0.000000
  70
    32
  0
VERTEX
  8
0
  5
AEC1
 10
223.764
 20
335.900
 30
0.000000
  70
    32
  0
VERTEX
  8
0
  5
AEC2
 10
223.752
 20
335.966
 30
0.000000
  70
    32
  0
VERTEX
  8
0
  5
AEC3
 10
223.740
 20
336.032
 30
0.000000
  70
    32
  0
VERTEX
  8
0
  5
AEC4
 10
223.728
 20
336.098
 30
0.000000
  70
    32
  0
VERTEX
  8
0
  5
AEC5
 10
223.715
 20
336.163
 30
0.000000
  70
    32
  0
VERTEX
  8
0
  5
AEC6
 10
223.703
 20
336.227
 30
0.000000
  70
    32
  0
VERTEX
  8
0
  5
AEC7
 10
223.690
 20
336.292
 30
0.000000
  70
    32
  0
VERTEX
  8
0
  5
AEC8
 10
223.676
 20
336.355
 30
0.000000
  70
    32
  0
VERTEX
  8
0
  5
AEC9
 10
223.663
 20
336.418
 30
0.000000
  70
    32
  0
VERTEX
  8
0
  5
AECA
 10
223.649
 20
336.481
 30
0.000000
  70
    32
  0
VERTEX
  8
0
  5
AECB
 10
223.635
 20
336.543
 30
0.000000
  70
    32
  0
VERTEX
  8
0
  5
AECC
 10
223.621
 20
336.604
 30
0.000000
  70
    32
  0
VERTEX
  8
0
  5
AECD
 10
223.606
 20
336.665
 30
0.000000
  70
    32
  0
VERTEX
  8
0
  5
AECE
 10
223.592
 20
336.726
 30
0.000000
  70
    32
  0
VERTEX
  8
0
  5
AECF
 10
223.577
 20
336.785
 30
0.000000
  70
    32
  0
VERTEX
  8
0
  5
AED0
 10
223.561
 20
336.845
 30
0.000000
  70
    32
  0
VERTEX
  8
0
  5
AED1
 10
223.546
 20
336.903
 30
0.000000
  70
    32
  0
VERTEX
  8
0
  5
AED2
 10
223.530
 20
336.961
 30
0.000000
  70
    32
  0
VERTEX
  8
0
  5
AED3
 10
223.514
 20
337.019
 30
0.000000
  70
    32
  0
VERTEX
  8
0
  5
AED4
 10
223.498
 20
337.076
 30
0.000000
  70
    32
  0
VERTEX
  8
0
  5
AED5
 10
223.482
 20
337.132
 30
0.000000
  70
    32
  0
VERTEX
  8
0
  5
AED6
 10
223.465
 20
337.188
 30
0.000000
  70
    32
  0
VERTEX
  8
0
  5
AED7
 10
223.448
 20
337.243
 30
0.000000
  70
    32
  0
VERTEX
  8
0
  5
AED8
 10
223.431
 20
337.297
 30
0.000000
  70
    32
  0
VERTEX
  8
0
  5
AED9
 10
223.414
 20
337.351
 30
0.000000
  70
    32
  0
VERTEX
  8
0
  5
AEDA
 10
223.397
 20
337.404
 30
0.000000
  70
    32
  0
VERTEX
  8
0
  5
AEDB
 10
223.379
 20
337.456
 30
0.000000
  70
    32
  0
VERTEX
  8
0
  5
AEDC
 10
223.361
 20
337.508
 30
0.000000
  70
    32
  0
VERTEX
  8
0
  5
AEDD
 10
223.343
 20
337.559
 30
0.000000
  70
    32
  0
VERTEX
  8
0
  5
AEDE
 10
223.325
 20
337.610
 30
0.000000
  70
    32
  0
VERTEX
  8
0
  5
AEDF
 10
223.306
 20
337.659
 30
0.000000
  70
    32
  0
VERTEX
  8
0
  5
AEE0
 10
223.288
 20
337.708
 30
0.000000
  70
    32
  0
VERTEX
  8
0
  5
AEE1
 10
223.269
 20
337.757
 30
0.000000
  70
    32
  0
VERTEX
  8
0
  5
AEE2
 10
223.250
 20
337.804
 30
0.000000
  70
    32
  0
VERTEX
  8
0
  5
AEE3
 10
223.230
 20
337.851
 30
0.000000
  70
    32
  0
VERTEX
  8
0
  5
AEE4
 10
223.211
 20
337.897
 30
0.000000
  70
    32
  0
VERTEX
  8
0
  5
AEE5
 10
223.191
 20
337.942
 30
0.000000
  70
    32
  0
VERTEX
  8
0
  5
AEE6
 10
223.172
 20
337.987
 30
0.000000
  70
    32
  0
VERTEX
  8
0
  5
AEE7
 10
223.152
 20
338.031
 30
0.000000
  70
    32
  0
VERTEX
  8
0
  5
AEE8
 10
223.131
 20
338.074
 30
0.000000
  70
    32
  0
VERTEX
  8
0
  5
AEE9
 10
223.111
 20
338.116
 30
0.000000
  70
    32
  0
VERTEX
  8
0
  5
AEEA
 10
223.091
 20
338.158
 30
0.000000
  70
    32
  0
VERTEX
  8
0
  5
AEEB
 10
223.070
 20
338.199
 30
0.000000
  70
    32
  0
VERTEX
  8
0
  5
AEEC
 10
223.049
 20
338.239
 30
0.000000
  70
    32
  0
VERTEX
  8
0
  5
AEED
 10
223.028
 20
338.278
 30
0.000000
  70
    32
  0
VERTEX
  8
0
  5
AEEE
 10
223.007
 20
338.317
 30
0.000000
  70
    32
  0
VERTEX
  8
0
  5
AEEF
 10
222.986
 20
338.354
 30
0.000000
  70
    32
  0
VERTEX
  8
0
  5
AEF0
 10
222.964
 20
338.391
 30
0.000000
  70
    32
  0
VERTEX
  8
0
  5
AEF1
 10
222.943
 20
338.427
 30
0.000000
  70
    32
  0
VERTEX
  8
0
  5
AEF2
 10
222.921
 20
338.462
 30
0.000000
  70
    32
  0
VERTEX
  8
0
  5
AEF3
 10
222.899
 20
338.497
 30
0.000000
  70
    32
  0
VERTEX
  8
0
  5
AEF4
 10
222.877
 20
338.530
 30
0.000000
  70
    32
  0
VERTEX
  8
0
  5
AEF5
 10
222.855
 20
338.563
 30
0.000000
  70
    32
  0
VERTEX
  8
0
  5
AEF6
 10
222.833
 20
338.595
 30
0.000000
  70
    32
  0
VERTEX
  8
0
  5
AEF7
 10
222.810
 20
338.626
 30
0.000000
  70
    32
  0
VERTEX
  8
0
  5
AEF8
 10
222.788
 20
338.656
 30
0.000000
  70
    32
  0
VERTEX
  8
0
  5
AEF9
 10
222.765
 20
338.685
 30
0.000000
  70
    32
  0
VERTEX
  8
0
  5
AEFA
 10
222.743
 20
338.714
 30
0.000000
  70
    32
  0
VERTEX
  8
0
  5
AEFB
 10
222.720
 20
338.741
 30
0.000000
  70
    32
  0
VERTEX
  8
0
  5
AEFC
 10
222.697
 20
338.768
 30
0.000000
  70
    32
  0
VERTEX
  8
0
  5
AEFD
 10
222.674
 20
338.794
 30
0.000000
  70
    32
  0
VERTEX
  8
0
  5
AEFE
 10
222.651
 20
338.819
 30
0.000000
  70
    32
  0
VERTEX
  8
0
  5
AEFF
 10
222.627
 20
338.843
 30
0.000000
  70
    32
  0
VERTEX
  8
0
  5
AF00
 10
222.604
 20
338.866
 30
0.000000
  70
    32
  0
VERTEX
  8
0
  5
AF01
 10
222.581
 20
338.889
 30
0.000000
  70
    32
  0
VERTEX
  8
0
  5
AF02
 10
222.557
 20
338.910
 30
0.000000
  70
    32
  0
VERTEX
  8
0
  5
AF03
 10
222.533
 20
338.931
 30
0.000000
  70
    32
  0
VERTEX
  8
0
  5
AF04
 10
222.510
 20
338.951
 30
0.000000
  70
    32
  0
VERTEX
  8
0
  5
AF05
 10
222.486
 20
338.969
 30
0.000000
  70
    32
  0
VERTEX
  8
0
  5
AF06
 10
222.462
 20
338.987
 30
0.000000
  70
    32
  0
VERTEX
  8
0
  5
AF07
 10
222.438
 20
339.004
 30
0.000000
  70
    32
  0
VERTEX
  8
0
  5
AF08
 10
222.414
 20
339.020
 30
0.000000
  70
    32
  0
VERTEX
  8
0
  5
AF09
 10
222.390
 20
339.036
 30
0.000000
  70
    32
  0
VERTEX
  8
0
  5
AF0A
 10
222.366
 20
339.050
 30
0.000000
  70
    32
  0
VERTEX
  8
0
  5
AF0B
 10
222.342
 20
339.063
 30
0.000000
  70
    32
  0
VERTEX
  8
0
  5
AF0C
 10
222.318
 20
339.076
 30
0.000000
  70
    32
  0
VERTEX
  8
0
  5
AF0D
 10
222.293
 20
339.087
 30
0.000000
  70
    32
  0
VERTEX
  8
0
  5
AF0E
 10
222.269
 20
339.098
 30
0.000000
  70
    32
  0
VERTEX
  8
0
  5
AF0F
 10
222.245
 20
339.108
 30
0.000000
  70
    32
  0
VERTEX
  8
0
  5
AF10
 10
222.220
 20
339.116
 30
0.000000
  70
    32
  0
VERTEX
  8
0
  5
AF11
 10
222.196
 20
339.124
 30
0.000000
  70
    32
  0
VERTEX
  8
0
  5
AF12
 10
222.172
 20
339.131
 30
0.000000
  70
    32
  0
VERTEX
  8
0
  5
AF13
 10
222.147
 20
339.137
 30
0.000000
  70
    32
  0
VERTEX
  8
0
  5
AF14
 10
222.123
 20
339.142
 30
0.000000
  70
    32
  0
VERTEX
  8
0
  5
AF15
 10
222.098
 20
339.146
 30
0.000000
  70
    32
  0
VERTEX
  8
0
  5
AF16
 10
222.074
 20
339.150
 30
0.000000
  70
    32
  0
VERTEX
  8
0
  5
AF17
 10
222.049
 20
339.152
 30
0.000000
  70
    32
  0
VERTEX
  8
0
  5
AF18
 10
222.025
 20
339.153
 30
0.000000
  70
    32
  0
VERTEX
  8
0
  5
AF19
 10
222.000
 20
339.154
 30
0.000000
  70
    32
  0
SEQEND
  8
0
  5
AF1A
  0
ARC
  5
91FD
  8
0
 10
221.22387227639331
 20
336.45281457685002
 30
0.0
 40
0.9764499522373856
 50
1.473044048899151
 51
91.400944997200327
  0
LINE
  5
91FF
  8
0
 10
221.19999937709341
 20
337.42897265524999
 30
0.0
 11
178.80000062279331
 21
337.42897265524999
 31
0.0
  0
ARC
  5
9203
  8
0
 10
178.77612772349329
 20
336.45281457685002
 30
0.0
 40
0.9764499522373856
 50
88.599055002799616
 51
178.5269559511008
  0
LINE
  5
9206
  8
0
 10
217.7999995648631
 20
308.51445353515578
 30
0.0
 11
217.79999956479341
 21
327.63309038175009
 31
0.0
  0
ARC
  5
9207
  8
0
 10
217.31193893939329
 20
327.62054218104998
 30
0.0
 40
0.4882219080352697
 50
1.4727690629995791
 51
91.401197450000083
  0
LINE
  5
9208
  8
0
 10
217.30000041419331
 20
328.10861810044997
 30
0.0
 11
182.69999958569329
 21
328.10861810044997
 31
0.0
  0
ARC
  5
9209
  8
0
 10
182.68806106049331
 20
327.62054218104998
 30
0.0
 40
0.4882219080352457
 50
88.598802549999931
 51
178.52723093700041
  0
LINE
  5
920A
  8
0
 10
182.2000004350933
 20
327.63309038175009
 30
0.0
 11
182.2000004350235
 21
308.51445353515578
 31
0.0
  0
LINE
  5
920C
  8
0
 10
177.80000045889329
 20
336.47791582085
 30
0.0
 11
177.80000045889329
 21
303.57136211285001
 31
0.0
  0
LINE
  5
920D
  8
0
 10
222.1999995409933
 20
336.47791582085
 30
0.0
 11
222.1999995409933
 21
303.57136211285001
 31
0.0
  0
ARC
  5
920E
  8
0
 10
221.2238684009933
 20
303.59646504195001
 30
0.0
 40
0.9764538696225981
 50
268.59928808769968
 51
358.52686295689938
  0
LINE
  5
920F
  8
0
 10
178.80000062279331
 20
302.62030295025011
 30
0.0
 11
221.19999937709341
 21
302.62030295025011
 31
0.0
  0
ARC
  5
9210
  8
0
 10
178.7761315988933
 20
303.59646504195001
 30
0.0
 40
0.9764538696225981
 50
181.47313704310059
 51
271.40071191230032
  0
ARC
  5
9213
  8
0
 10
217.31194152629331
 20
308.52700092765002
 30
0.0
 40
0.488219301206963
 50
268.59849138490011
 51
358.52731795599891
  0
LINE
  5
9214
  8
0
 10
182.69999958569329
 20
308.03892767915011
 30
0.0
 11
217.30000041419331
 21
308.03892767915011
 31
0.0
  0
ARC
  5
9215
  8
0
 10
182.68805847359329
 20
308.52700092765002
 30
0.0
 40
0.488219301206963
 50
181.472682044001
 51
271.40150861509989
  0
LINE
  5
921F
  8
0
 10
175.99999979129331
 20
337.07530430445013
 30
0.0
 11
174.85000081359331
 21
337.07530430445013
 31
0.0
  0
LINE
  5
9229
  8
0
 10
224.00000020859329
 20
294.47530588994999
 30
0.0
 11
175.99999979129331
 21
294.47530588994999
 31
0.0
  0
LINE
  5
922A
  8
0
 10
175.99999979129331
 20
294.47530588994999
 30
0.0
 11
175.99999979129331
 21
344.77530426275001
 31
0.0
  0
LINE
  5
922B
  8
0
 10
224.00000020859329
 20
294.47530588994999
 30
0.0
 11
224.00000020859329
 21
344.77530426275001
 31
0.0
  0
POLYLINE
  5
922D
  8
0
 66
     1
 10
0.0
 20
0.0
 30
0.0
 70
   128
  0
VERTEX
  5
AD34
  8
0
 10
220.9999997167933
 20
301.13773054375002
 30
0.0
  0
VERTEX
  5
AD35
  8
0
 10
221.19508944449331
 20
301.12960941084998
 30
0.0
  0
VERTEX
  5
AD36
  8
0
 10
221.38268388799341
 20
301.10555893675001
 30
0.0
  0
VERTEX
  5
AD37
  8
0
 10
221.55557088549341
 20
301.06650671854999
 30
0.0
  0
VERTEX
  5
AD38
  8
0
 10
221.70710638159341
 20
301.01394659764998
 30
0.0
  0
VERTEX
  5
AD39
  8
0
 10
221.83146961029331
 20
300.94990513214998
 30
0.0
  0
VERTEX
  5
AD3A
  8
0
 10
221.9238791613933
 20
300.87684101355012
 30
0.0
  0
VERTEX
  5
AD3B
  8
0
 10
221.98078483339339
 20
300.79755938544997
 30
0.0
  0
VERTEX
  5
AD3C
  8
0
 10
221.99999988069331
 20
300.71511126054997
 30
0.0
  0
SEQEND
  5
AD3D
  8
0
  0
LINE
  5
9233
  8
0
 10
221.99999988069331
 20
300.71511126054997
 30
0.0
 11
221.99999988069331
 21
295.22107548014998
 31
0.0
  0
POLYLINE
  5
9234
  8
0
 66
     1
 10
0.0
 20
0.0
 30
0.0
 70
   128
  0
VERTEX
  5
AD3E
  8
0
 10
221.99999988069331
 20
295.22107548014998
 30
0.0
  0
VERTEX
  5
AD3F
  8
0
 10
221.98078483339339
 20
295.13862362995002
 30
0.0
  0
VERTEX
  5
AD40
  8
0
 10
221.9238791613933
 20
295.05934572705002
 30
0.0
  0
VERTEX
  5
AD41
  8
0
 10
221.83146961029331
 20
294.98627788315008
 30
0.0
  0
VERTEX
  5
AD42
  8
0
 10
221.70710638159341
 20
294.92223641765003
 30
0.0
  0
VERTEX
  5
AD43
  8
0
 10
221.55557088549341
 20
294.86968002215002
 30
0.0
  0
VERTEX
  5
AD44
  8
0
 10
221.38268388799341
 20
294.83062407864998
 30
0.0
  0
VERTEX
  5
AD45
  8
0
 10
221.19508944449331
 20
294.80657732974998
 30
0.0
  0
VERTEX
  5
AD46
  8
0
 10
220.9999997167933
 20
294.79845619694999
 30
0.0
  0
SEQEND
  5
AD47
  8
0
  0
LINE
  5
9235
  8
0
 10
179.0000002830933
 20
294.79845619694999
 30
0.0
 11
220.9999997167933
 21
294.79845619694999
 31
0.0
  0
POLYLINE
  5
9236
  8
0
 66
     1
 10
0.0
 20
0.0
 30
0.0
 70
   128
  0
VERTEX
  5
AD48
  8
0
 10
179.0000002830933
 20
294.79845619694999
 30
0.0
  0
VERTEX
  5
AD49
  8
0
 10
178.80491055539329
 20
294.80657732974998
 30
0.0
  0
VERTEX
  5
AD4A
  8
0
 10
178.6173161118933
 20
294.83062407864998
 30
0.0
  0
VERTEX
  5
AD4B
  8
0
 10
178.4444291143933
 20
294.86968002215002
 30
0.0
  0
VERTEX
  5
AD4C
  8
0
 10
178.29289361829331
 20
294.92223641765003
 30
0.0
  0
VERTEX
  5
AD4D
  8
0
 10
178.16853038959329
 20
294.98627788315008
 30
0.0
  0
VERTEX
  5
AD4E
  8
0
 10
178.0761208384933
 20
295.05934572705002
 30
0.0
  0
VERTEX
  5
AD4F
  8
0
 10
178.0192151664933
 20
295.13862362995002
 30
0.0
  0
VERTEX
  5
AD50
  8
0
 10
178.00000011919329
 20
295.22107548014998
 30
0.0
  0
SEQEND
  5
AD51
  8
0
  0
LINE
  5
9237
  8
0
 10
178.00000011919329
 20
300.71511126054997
 30
0.0
 11
178.00000011919329
 21
295.22107548014998
 31
0.0
  0
POLYLINE
  5
9238
  8
0
 66
     1
 10
0.0
 20
0.0
 30
0.0
 70
   128
  0
VERTEX
  5
AD52
  8
0
 10
178.00000011919329
 20
300.71511126054997
 30
0.0
  0
VERTEX
  5
AD53
  8
0
 10
178.0192151664933
 20
300.79755938544997
 30
0.0
  0
VERTEX
  5
AD54
  8
0
 10
178.0761208384933
 20
300.87684101355012
 30
0.0
  0
VERTEX
  5
AD55
  8
0
 10
178.16853038959329
 20
300.94990513214998
 30
0.0
  0
VERTEX
  5
AD56
  8
0
 10
178.29289361829331
 20
301.01394659764998
 30
0.0
  0
VERTEX
  5
AD57
  8
0
 10
178.4444291143933
 20
301.06650671854999
 30
0.0
  0
VERTEX
  5
AD58
  8
0
 10
178.6173161118933
 20
301.10555893675001
 30
0.0
  0
VERTEX
  5
AD59
  8
0
 10
178.80491055539329
 20
301.12960941084998
 30
0.0
  0
VERTEX
  5
AD5A
  8
0
 10
179.0000002830933
 20
301.13773054375002
 30
0.0
  0
SEQEND
  5
AD5B
  8
0
  0
LINE
  5
9239
  8
0
 10
220.9999997167933
 20
301.13773054375002
 30
0.0
 11
179.0000002830933
 21
301.13773054375002
 31
0.0
  0
POLYLINE
  5
9247
  8
0
 66
     1
 10
0.0
 20
0.0
 30
0.0
 70
   128
  0
VERTEX
  5
AD5C
  8
0
 10
182.34999924889331
 20
298.52331063644999
 30
0.0
  0
VERTEX
  5
AD5D
  8
0
 10
182.36921429629331
 20
298.60575876125
 30
0.0
  0
VERTEX
  5
AD5E
  8
0
 10
182.42611996819329
 20
298.68504038945002
 30
0.0
  0
VERTEX
  5
AD5F
  8
0
 10
182.5185295193933
 20
298.75810450805011
 30
0.0
  0
VERTEX
  5
AD60
  8
0
 10
182.64289274809329
 20
298.82214597354999
 30
0.0
  0
VERTEX
  5
AD61
  8
0
 10
182.7944301067933
 20
298.87470609435007
 30
0.0
  0
VERTEX
  5
AD62
  8
0
 10
182.9673171042933
 20
298.91375831254999
 30
0.0
  0
VERTEX
  5
AD63
  8
0
 10
183.1549096851933
 20
298.93780878675011
 30
0.0
  0
VERTEX
  5
AD64
  8
0
 10
183.3499994127933
 20
298.94592991964998
 30
0.0
  0
SEQEND
  5
AD65
  8
0
  0
LINE
  5
9249
  8
0
 10
187.3500000684933
 20
298.94592991964998
 30
0.0
 11
183.3499994127933
 21
298.94592991964998
 31
0.0
  0
LINE
  5
924A
  8
0
 10
182.34999924889331
 20
298.52331063644999
 30
0.0
 11
182.34999924889331
 21
296.83283722885
 31
0.0
  0
POLYLINE
  5
924B
  8
0
 66
     1
 10
0.0
 20
0.0
 30
0.0
 70
   128
  0
VERTEX
  5
AD66
  8
0
 10
187.3500000684933
 20
298.94592991964998
 30
0.0
  0
VERTEX
  5
AD67
  8
0
 10
187.54509072749329
 20
298.93780878675011
 30
0.0
  0
VERTEX
  5
AD68
  8
0
 10
187.73268330839329
 20
298.91375831254999
 30
0.0
  0
VERTEX
  5
AD69
  8
0
 10
187.9055703057933
 20
298.87470609435007
 30
0.0
  0
VERTEX
  5
AD6A
  8
0
 10
188.0571067332933
 20
298.82214597354999
 30
0.0
  0
VERTEX
  5
AD6B
  8
0
 10
188.18146996199329
 20
298.75810450805011
 30
0.0
  0
VERTEX
  5
AD6C
  8
0
 10
188.27387951309331
 20
298.68504038945002
 30
0.0
  0
VERTEX
  5
AD6D
  8
0
 10
188.3307851850933
 20
298.60575876125
 30
0.0
  0
VERTEX
  5
AD6E
  8
0
 10
188.35000023239331
 20
298.52331063644999
 30
0.0
  0
SEQEND
  5
AD6F
  8
0
  0
LINE
  5
924C
  8
0
 10
188.35000023239331
 20
296.83283722885
 30
0.0
 11
188.35000023239331
 21
298.52331063644999
 31
0.0
  0
POLYLINE
  5
924D
  8
0
 66
     1
 10
0.0
 20
0.0
 30
0.0
 70
   128
  0
VERTEX
  5
AD70
  8
0
 10
187.3500000684933
 20
296.41021794565
 30
0.0
  0
VERTEX
  5
AD71
  8
0
 10
187.54509072749329
 20
296.41833907854999
 30
0.0
  0
VERTEX
  5
AD72
  8
0
 10
187.73268330839329
 20
296.44238955275011
 30
0.0
  0
VERTEX
  5
AD73
  8
0
 10
187.9055703057933
 20
296.48144177095008
 30
0.0
  0
VERTEX
  5
AD74
  8
0
 10
188.0571067332933
 20
296.53400189174988
 30
0.0
  0
VERTEX
  5
AD75
  8
0
 10
188.18146996199329
 20
296.59804335725011
 30
0.0
  0
VERTEX
  5
AD76
  8
0
 10
188.27387951309331
 20
296.67110747584991
 30
0.0
  0
VERTEX
  5
AD77
  8
0
 10
188.3307851850933
 20
296.75038910404999
 30
0.0
  0
VERTEX
  5
AD78
  8
0
 10
188.35000023239331
 20
296.83283722885
 30
0.0
  0
SEQEND
  5
AD79
  8
0
  0
LINE
  5
924E
  8
0
 10
183.3499994127933
 20
296.41021794565
 30
0.0
 11
187.3500000684933
 21
296.41021794565
 31
0.0
  0
POLYLINE
  5
924F
  8
0
 66
     1
 10
0.0
 20
0.0
 30
0.0
 70
   128
  0
VERTEX
  5
AD7A
  8
0
 10
183.3499994127933
 20
296.41021794565
 30
0.0
  0
VERTEX
  5
AD7B
  8
0
 10
183.1549096851933
 20
296.41833907854999
 30
0.0
  0
VERTEX
  5
AD7C
  8
0
 10
182.9673171042933
 20
296.44238955275011
 30
0.0
  0
VERTEX
  5
AD7D
  8
0
 10
182.7944301067933
 20
296.48144177095008
 30
0.0
  0
VERTEX
  5
AD7E
  8
0
 10
182.64289274809329
 20
296.53400189174988
 30
0.0
  0
VERTEX
  5
AD7F
  8
0
 10
182.5185295193933
 20
296.59804335725011
 30
0.0
  0
VERTEX
  5
AD80
  8
0
 10
182.42611996819329
 20
296.67110747584991
 30
0.0
  0
VERTEX
  5
AD81
  8
0
 10
182.36921429629331
 20
296.75038910404999
 30
0.0
  0
VERTEX
  5
AD82
  8
0
 10
182.34999924889331
 20
296.83283722885
 30
0.0
  0
SEQEND
  5
AD83
  8
0
  0
POLYLINE
  5
9253
  8
0
 66
     1
 10
0.0
 20
0.0
 30
0.0
 70
   128
  0
VERTEX
  5
AD84
  8
0
 10
216.6500005870933
 20
298.94592991964998
 30
0.0
  0
VERTEX
  5
AD85
  8
0
 10
216.84509031469329
 20
298.93780878675011
 30
0.0
  0
VERTEX
  5
AD86
  8
0
 10
217.0326828955933
 20
298.91375831254999
 30
0.0
  0
VERTEX
  5
AD87
  8
0
 10
217.2055698930933
 20
298.87470609435007
 30
0.0
  0
VERTEX
  5
AD88
  8
0
 10
217.35710725179339
 20
298.82214597354999
 30
0.0
  0
VERTEX
  5
AD89
  8
0
 10
217.4814704804933
 20
298.75810450805011
 30
0.0
  0
VERTEX
  5
AD8A
  8
0
 10
217.57388003169339
 20
298.68504038945002
 30
0.0
  0
VERTEX
  5
AD8B
  8
0
 10
217.63078570359329
 20
298.60575876125
 30
0.0
  0
VERTEX
  5
AD8C
  8
0
 10
217.65000075099331
 20
298.52331063644999
 30
0.0
  0
SEQEND
  5
AD8D
  8
0
  0
LINE
  5
9254
  8
0
 10
217.65000075099331
 20
296.83283722885
 30
0.0
 11
217.65000075099331
 21
298.52331063644999
 31
0.0
  0
POLYLINE
  5
9255
  8
0
 66
     1
 10
0.0
 20
0.0
 30
0.0
 70
   128
  0
VERTEX
  5
AD8E
  8
0
 10
217.65000075099331
 20
296.83283722885
 30
0.0
  0
VERTEX
  5
AD8F
  8
0
 10
217.63078570359329
 20
296.75038910404999
 30
0.0
  0
VERTEX
  5
AD90
  8
0
 10
217.57388003169339
 20
296.67110747584991
 30
0.0
  0
VERTEX
  5
AD91
  8
0
 10
217.4814704804933
 20
296.59804335725011
 30
0.0
  0
VERTEX
  5
AD92
  8
0
 10
217.35710725179339
 20
296.53400189174988
 30
0.0
  0
VERTEX
  5
AD93
  8
0
 10
217.2055698930933
 20
296.48144177095008
 30
0.0
  0
VERTEX
  5
AD94
  8
0
 10
217.0326828955933
 20
296.44238955275011
 30
0.0
  0
VERTEX
  5
AD95
  8
0
 10
216.84509031469329
 20
296.41833907854999
 30
0.0
  0
VERTEX
  5
AD96
  8
0
 10
216.6500005870933
 20
296.41021794565
 30
0.0
  0
SEQEND
  5
AD97
  8
0
  0
LINE
  5
9256
  8
0
 10
212.64999993139341
 20
296.41021794565
 30
0.0
 11
216.6500005870933
 21
296.41021794565
 31
0.0
  0
POLYLINE
  5
9257
  8
0
 66
     1
 10
0.0
 20
0.0
 30
0.0
 70
   128
  0
VERTEX
  5
AD98
  8
0
 10
212.64999993139341
 20
296.41021794565
 30
0.0
  0
VERTEX
  5
AD99
  8
0
 10
212.45490927239331
 20
296.41833907854999
 30
0.0
  0
VERTEX
  5
AD9A
  8
0
 10
212.26731669149331
 20
296.44238955275011
 30
0.0
  0
VERTEX
  5
AD9B
  8
0
 10
212.09442969409329
 20
296.48144177095008
 30
0.0
  0
VERTEX
  5
AD9C
  8
0
 10
211.9428932665933
 20
296.53400189174988
 30
0.0
  0
VERTEX
  5
AD9D
  8
0
 10
211.81853003799341
 20
296.59804335725011
 30
0.0
  0
VERTEX
  5
AD9E
  8
0
 10
211.72612048679329
 20
296.67110747584991
 30
0.0
  0
VERTEX
  5
AD9F
  8
0
 10
211.66921481489339
 20
296.75038910404999
 30
0.0
  0
VERTEX
  5
ADA0
  8
0
 10
211.64999976749331
 20
296.83283722885
 30
0.0
  0
SEQEND
  5
ADA1
  8
0
  0
LINE
  5
9258
  8
0
 10
211.64999976749331
 20
298.52331063644999
 30
0.0
 11
211.64999976749331
 21
296.83283722885
 31
0.0
  0
POLYLINE
  5
9259
  8
0
 66
     1
 10
0.0
 20
0.0
 30
0.0
 70
   128
  0
VERTEX
  5
ADA2
  8
0
 10
212.64999993139341
 20
298.94592991964998
 30
0.0
  0
VERTEX
  5
ADA3
  8
0
 10
212.45490927239331
 20
298.93780878675011
 30
0.0
  0
VERTEX
  5
ADA4
  8
0
 10
212.26731669149331
 20
298.91375831254999
 30
0.0
  0
VERTEX
  5
ADA5
  8
0
 10
212.09442969409329
 20
298.87470609435007
 30
0.0
  0
VERTEX
  5
ADA6
  8
0
 10
211.9428932665933
 20
298.82214597354999
 30
0.0
  0
VERTEX
  5
ADA7
  8
0
 10
211.81853003799341
 20
298.75810450805011
 30
0.0
  0
VERTEX
  5
ADA8
  8
0
 10
211.72612048679329
 20
298.68504038945002
 30
0.0
  0
VERTEX
  5
ADA9
  8
0
 10
211.66921481489339
 20
298.60575876125
 30
0.0
  0
VERTEX
  5
ADAA
  8
0
 10
211.64999976749331
 20
298.52331063644999
 30
0.0
  0
SEQEND
  5
ADAB
  8
0
  0
LINE
  5
925A
  8
0
 10
216.6500005870933
 20
298.94592991964998
 30
0.0
 11
212.64999993139341
 21
298.94592991964998
 31
0.0
  0
LINE
  5
925C
  8
0
 10
203.0000000259933
 20
296.83283722885
 30
0.0
 11
203.0000000259933
 21
298.52331063644999
 31
0.0
  0
POLYLINE
  5
925D
  8
0
 66
     1
 10
0.0
 20
0.0
 30
0.0
 70
   128
  0
VERTEX
  5
ADAC
  8
0
 10
203.0000000259933
 20
296.83283722885
 30
0.0
  0
VERTEX
  5
ADAD
  8
0
 10
202.9807852114933
 20
296.75038910404999
 30
0.0
  0
VERTEX
  5
ADAE
  8
0
 10
202.9238795394933
 20
296.67110747584991
 30
0.0
  0
VERTEX
  5
ADAF
  8
0
 10
202.8314695226934
 20
296.59804335725011
 30
0.0
  0
VERTEX
  5
ADB0
  8
0
 10
202.70710675969329
 20
296.53400189174988
 30
0.0
  0
VERTEX
  5
ADB1
  8
0
 10
202.55557033229331
 20
296.48144177095008
 30
0.0
  0
VERTEX
  5
ADB2
  8
0
 10
202.38268333479331
 20
296.44238955275011
 30
0.0
  0
VERTEX
  5
ADB3
  8
0
 10
202.1950902882933
 20
296.41833907854999
 30
0.0
  0
VERTEX
  5
ADB4
  8
0
 10
202.00000009489329
 20
296.41021794565
 30
0.0
  0
SEQEND
  5
ADB5
  8
0
  0
LINE
  5
925E
  8
0
 10
197.9999999049933
 20
296.41021794565
 30
0.0
 11
202.00000009489329
 21
296.41021794565
 31
0.0
  0
POLYLINE
  5
925F
  8
0
 66
     1
 10
0.0
 20
0.0
 30
0.0
 70
   128
  0
VERTEX
  5
ADB6
  8
0
 10
197.9999999049933
 20
296.41021794565
 30
0.0
  0
VERTEX
  5
ADB7
  8
0
 10
197.80490971169331
 20
296.41833907854999
 30
0.0
  0
VERTEX
  5
ADB8
  8
0
 10
197.61731666509331
 20
296.44238955275011
 30
0.0
  0
VERTEX
  5
ADB9
  8
0
 10
197.44442966759331
 20
296.48144177095008
 30
0.0
  0
VERTEX
  5
ADBA
  8
0
 10
197.29289324019331
 20
296.53400189174988
 30
0.0
  0
VERTEX
  5
ADBB
  8
0
 10
197.16853047719329
 20
296.59804335725011
 30
0.0
  0
VERTEX
  5
ADBC
  8
0
 10
197.0761204603933
 20
296.67110747584991
 30
0.0
  0
VERTEX
  5
ADBD
  8
0
 10
197.0192147883933
 20
296.75038910404999
 30
0.0
  0
VERTEX
  5
ADBE
  8
0
 10
196.9999999738933
 20
296.83283722885
 30
0.0
  0
SEQEND
  5
ADBF
  8
0
  0
LINE
  5
9260
  8
0
 10
196.9999999738933
 20
298.52331063644999
 30
0.0
 11
196.9999999738933
 21
296.83283722885
 31
0.0
  0
POLYLINE
  5
9261
  8
0
 66
     1
 10
0.0
 20
0.0
 30
0.0
 70
   128
  0
VERTEX
  5
ADC0
  8
0
 10
197.9999999049933
 20
298.94592991964998
 30
0.0
  0
VERTEX
  5
ADC1
  8
0
 10
197.80490971169331
 20
298.93780878675011
 30
0.0
  0
VERTEX
  5
ADC2
  8
0
 10
197.61731666509331
 20
298.91375831254999
 30
0.0
  0
VERTEX
  5
ADC3
  8
0
 10
197.44442966759331
 20
298.87470609435007
 30
0.0
  0
VERTEX
  5
ADC4
  8
0
 10
197.29289324019331
 20
298.82214597354999
 30
0.0
  0
VERTEX
  5
ADC5
  8
0
 10
197.16853047719329
 20
298.75810450805011
 30
0.0
  0
VERTEX
  5
ADC6
  8
0
 10
197.0761204603933
 20
298.68504038945002
 30
0.0
  0
VERTEX
  5
ADC7
  8
0
 10
197.0192147883933
 20
298.60575876125
 30
0.0
  0
VERTEX
  5
ADC8
  8
0
 10
196.9999999738933
 20
298.52331063644999
 30
0.0
  0
SEQEND
  5
ADC9
  8
0
  0
LINE
  5
9262
  8
0
 10
202.00000009489329
 20
298.94592991964998
 30
0.0
 11
197.9999999049933
 21
298.94592991964998
 31
0.0
  0
POLYLINE
  5
9263
  8
0
 66
     1
 10
0.0
 20
0.0
 30
0.0
 70
   128
  0
VERTEX
  5
ADCA
  8
0
 10
202.00000009489329
 20
298.94592991964998
 30
0.0
  0
VERTEX
  5
ADCB
  8
0
 10
202.1950902882933
 20
298.93780878675011
 30
0.0
  0
VERTEX
  5
ADCC
  8
0
 10
202.38268333479331
 20
298.91375831254999
 30
0.0
  0
VERTEX
  5
ADCD
  8
0
 10
202.55557033229331
 20
298.87470609435007
 30
0.0
  0
VERTEX
  5
ADCE
  8
0
 10
202.70710675969329
 20
298.82214597354999
 30
0.0
  0
VERTEX
  5
ADCF
  8
0
 10
202.8314695226934
 20
298.75810450805011
 30
0.0
  0
VERTEX
  5
ADD0
  8
0
 10
202.9238795394933
 20
298.68504038945002
 30
0.0
  0
VERTEX
  5
ADD1
  8
0
 10
202.9807852114933
 20
298.60575876125
 30
0.0
  0
VERTEX
  5
ADD2
  8
0
 10
203.0000000259933
 20
298.52331063644999
 30
0.0
  0
SEQEND
  5
ADD3
  8
0
  0
POLYLINE
  5
9269
  8
0
 66
     1
 10
0.0
 20
0.0
 30
0.0
 70
   128
  0
VERTEX
  5
ADD4
  8
0
 10
207.32500012959329
 20
298.55670413864999
 30
0.0
  0
VERTEX
  5
ADD5
  8
0
 10
207.74759892369329
 20
298.53102571264998
 30
0.0
  0
VERTEX
  5
ADD6
  8
0
 10
208.1359613685934
 20
298.45606914655008
 30
0.0
  0
VERTEX
  5
ADD7
  8
0
 10
208.45862459389329
 20
298.3379103888501
 30
0.0
  0
VERTEX
  5
ADD8
  8
0
 10
208.68944823739329
 20
298.18611971035
 30
0.0
  0
VERTEX
  5
ADD9
  8
0
 10
208.8097322731933
 20
298.01299429425012
 30
0.0
  0
VERTEX
  5
ADDA
  8
0
 10
208.8097322731933
 20
297.83255985864997
 30
0.0
  0
VERTEX
  5
ADDB
  8
0
 10
208.68944823739329
 20
297.65943444265002
 30
0.0
  0
VERTEX
  5
ADDC
  8
0
 10
208.45862459389329
 20
297.50764376414998
 30
0.0
  0
VERTEX
  5
ADDD
  8
0
 10
208.1359613685934
 20
297.38948500645
 30
0.0
  0
VERTEX
  5
ADDE
  8
0
 10
207.74759892369329
 20
297.31452844034999
 30
0.0
  0
VERTEX
  5
ADDF
  8
0
 10
207.32500012959329
 20
297.28885001435009
 30
0.0
  0
VERTEX
  5
ADE0
  8
0
 10
206.90240133549329
 20
297.31452844034999
 30
0.0
  0
VERTEX
  5
ADE1
  8
0
 10
206.5140388905933
 20
297.38948500645
 30
0.0
  0
VERTEX
  5
ADE2
  8
0
 10
206.19137566529341
 20
297.50764376414998
 30
0.0
  0
VERTEX
  5
ADE3
  8
0
 10
205.96055202179329
 20
297.65943444265002
 30
0.0
  0
VERTEX
  5
ADE4
  8
0
 10
205.84026798599331
 20
297.83255985864997
 30
0.0
  0
VERTEX
  5
ADE5
  8
0
 10
205.84026798599331
 20
298.01299429425012
 30
0.0
  0
VERTEX
  5
ADE6
  8
0
 10
205.96055202179329
 20
298.18611971035
 30
0.0
  0
VERTEX
  5
ADE7
  8
0
 10
206.19137566529341
 20
298.3379103888501
 30
0.0
  0
VERTEX
  5
ADE8
  8
0
 10
206.5140388905933
 20
298.45606914655008
 30
0.0
  0
VERTEX
  5
ADE9
  8
0
 10
206.90240133549329
 20
298.53102571264998
 30
0.0
  0
VERTEX
  5
ADEA
  8
0
 10
207.32500012959329
 20
298.55670413864999
 30
0.0
  0
SEQEND
  5
ADEB
  8
0
  0
POLYLINE
  5
926A
  8
0
 66
     1
 10
0.0
 20
0.0
 30
0.0
 70
   128
  0
VERTEX
  5
ADEC
  8
0
 10
192.67499987029331
 20
298.55670413864999
 30
0.0
  0
VERTEX
  5
ADED
  8
0
 10
193.0975986643933
 20
298.53102571264998
 30
0.0
  0
VERTEX
  5
ADEE
  8
0
 10
193.48596110939329
 20
298.45606914655008
 30
0.0
  0
VERTEX
  5
ADEF
  8
0
 10
193.8086243345933
 20
298.3379103888501
 30
0.0
  0
VERTEX
  5
ADF0
  8
0
 10
194.03944797809331
 20
298.18611971035
 30
0.0
  0
VERTEX
  5
ADF1
  8
0
 10
194.15973201389329
 20
298.01299429425012
 30
0.0
  0
VERTEX
  5
ADF2
  8
0
 10
194.15973201389329
 20
297.83255985864997
 30
0.0
  0
VERTEX
  5
ADF3
  8
0
 10
194.03944797809331
 20
297.65943444265002
 30
0.0
  0
VERTEX
  5
ADF4
  8
0
 10
193.8086243345933
 20
297.50764376414998
 30
0.0
  0
VERTEX
  5
ADF5
  8
0
 10
193.48596110939329
 20
297.38948500645
 30
0.0
  0
VERTEX
  5
ADF6
  8
0
 10
193.0975986643933
 20
297.31452844034999
 30
0.0
  0
VERTEX
  5
ADF7
  8
0
 10
192.67499987029331
 20
297.28885001435009
 30
0.0
  0
VERTEX
  5
ADF8
  8
0
 10
192.25240107619331
 20
297.31452844034999
 30
0.0
  0
VERTEX
  5
ADF9
  8
0
 10
191.86403863129331
 20
297.38948500645
 30
0.0
  0
VERTEX
  5
ADFA
  8
0
 10
191.54137540599331
 20
297.50764376414998
 30
0.0
  0
VERTEX
  5
ADFB
  8
0
 10
191.3105517624933
 20
297.65943444265002
 30
0.0
  0
VERTEX
  5
ADFC
  8
0
 10
191.19026772669329
 20
297.83255985864997
 30
0.0
  0
VERTEX
  5
ADFD
  8
0
 10
191.19026772669329
 20
298.01299429425012
 30
0.0
  0
VERTEX
  5
ADFE
  8
0
 10
191.3105517624933
 20
298.18611971035
 30
0.0
  0
VERTEX
  5
ADFF
  8
0
 10
191.54137540599331
 20
298.3379103888501
 30
0.0
  0
VERTEX
  5
AE00
  8
0
 10
191.86403863129331
 20
298.45606914655008
 30
0.0
  0
VERTEX
  5
AE01
  8
0
 10
192.25240107619331
 20
298.53102571264998
 30
0.0
  0
VERTEX
  5
AE02
  8
0
 10
192.67499987029331
 20
298.55670413864999
 30
0.0
  0
SEQEND
  5
AE03
  8
0
  0
LINE
  5
926B
  8
0
 10
174.85000081359331
 20
312.77530274284999
 30
0.0
 11
175.99999979129331
 21
312.77530274284999
 31
0.0
  0
LINE
  5
926C
  8
0
 10
174.85000081359331
 20
337.07530430445013
 30
0.0
 11
174.85000081359331
 21
312.77530274284999
 31
0.0
  0
ARC
  5
9285
  8
0
 10
197.65753844959309
 20
64.184672233849994
 30
0.0
 40
1.588540484795393
 50
241.51836334190011
 51
278.77946801339982
  0
ARC
  5
9287
  8
0
 10
197.65753844959309
 20
63.39682595544997
 30
0.0
 40
1.588540484795393
 50
241.51836334190011
 51
278.77946801339982
  0
LINE
  5
9288
  8
0
 10
197.90000007489309
 20
62.614744454649951
 30
0.0
 11
202.0999999251932
 21
62.614744454649951
 31
0.0
  0
LINE
  5
928A
  8
0
 10
202.0999999251932
 20
61.826898176249927
 30
0.0
 11
197.90000007489309
 21
61.826898176249927
 31
0.0
  0
ARC
  5
928B
  8
0
 10
202.34246155049311
 20
64.184672233849994
 30
0.0
 40
1.588540484795381
 50
261.22053198659938
 51
298.48163665809972
  0
ARC
  5
928D
  8
0
 10
202.34246155049311
 20
63.39682595544997
 30
0.0
 40
1.588540484795381
 50
261.22053198659938
 51
298.48163665809972
  0
POLYLINE
  5
928E
  8
0
 66
     1
 10
0.0
 20
0.0
 30
0.0
 70
   128
  0
VERTEX
  5
AE04
  8
0
 10
200.00000000009319
 20
63.569809701249987
 30
0.0
  0
VERTEX
  5
AE05
  8
0
 10
200.32511749309319
 20
63.55925595384992
 30
0.0
  0
VERTEX
  5
AE06
  8
0
 10
200.60632609529321
 20
63.529020566449901
 30
0.0
  0
VERTEX
  5
AE07
  8
0
 10
200.80564693789319
 20
63.483187388649931
 30
0.0
  0
VERTEX
  5
AE08
  8
0
 10
200.8961607818932
 20
63.427945990149901
 30
0.0
  0
VERTEX
  5
AE09
  8
0
 10
200.8656430873931
 20
63.370757196049958
 30
0.0
  0
VERTEX
  5
AE0A
  8
0
 10
200.71821548049309
 20
63.31934446464998
 30
0.0
  0
VERTEX
  5
AE0B
  8
0
 10
200.47378893949309
 20
63.280651271349988
 30
0.0
  0
VERTEX
  5
AE0C
  8
0
 10
200.16537457129311
 20
63.259903732650002
 30
0.0
  0
VERTEX
  5
AE0D
  8
0
 10
199.83462542879309
 20
63.259903732650002
 30
0.0
  0
VERTEX
  5
AE0E
  8
0
 10
199.5262110605932
 20
63.280651271349988
 30
0.0
  0
VERTEX
  5
AE0F
  8
0
 10
199.28178451959309
 20
63.31934446464998
 30
0.0
  0
VERTEX
  5
AE10
  8
0
 10
199.13435691269311
 20
63.370757196049958
 30
0.0
  0
VERTEX
  5
AE11
  8
0
 10
199.10383921819309
 20
63.427945990149901
 30
0.0
  0
VERTEX
  5
AE12
  8
0
 10
199.1943530621931
 20
63.483187388649931
 30
0.0
  0
VERTEX
  5
AE13
  8
0
 10
199.3936739047931
 20
63.529020566449901
 30
0.0
  0
VERTEX
  5
AE14
  8
0
 10
199.6748825069931
 20
63.55925595384992
 30
0.0
  0
VERTEX
  5
AE15
  8
0
 10
200.00000000009319
 20
63.569809701249987
 30
0.0
  0
SEQEND
  5
AE16
  8
0
  0
LINE
  5
928F
  8
0
 10
196.8999999109931
 20
64.438050072649901
 30
0.0
 11
196.8999999109931
 21
62.000546529844272
 31
0.0
  0
ARC
  5
9290
  8
0
 10
196.14246170089311
 20
63.04177642384996
 30
0.0
 40
1.588535250446778
 50
61.518274395001129
 51
98.779500664100112
  0
LINE
  5
9291
  8
0
 10
182.0000007748931
 20
64.61169889194997
 30
0.0
 11
195.8999999798931
 21
64.61169889194997
 31
0.0
  0
ARC
  5
9292
  8
0
 10
181.75753576819309
 20
66.181610942449936
 30
0.0
 40
1.5885254564130911
 50
241.51820801510149
 51
278.77967513909971
  0
ARC
  5
9296
  8
0
 10
218.24246423199321
 20
66.181610942449936
 30
0.0
 40
1.588525456413086
 50
261.22032486090029
 51
298.48179198489851
  0
LINE
  5
9297
  8
0
 10
204.10000002019311
 20
64.61169889194997
 30
0.0
 11
217.99999922519311
 21
64.61169889194997
 31
0.0
  0
ARC
  5
9298
  8
0
 10
203.85753829919321
 20
63.04177642384996
 30
0.0
 40
1.588535250446776
 50
81.22049933589966
 51
118.4817256050998
  0
LINE
  5
9299
  8
0
 10
203.1000000890931
 20
62.0005465298443
 30
0.0
 11
203.1000000890931
 21
64.438050072649901
 31
0.0
  0
CIRCLE
  5
929A
  8
0
 10
185.00000000009319
 20
73.925305055849947
 30
0.0
 40
3.0000000000000062
  0
CIRCLE
  5
929B
  8
0
 10
185.00000000009319
 20
73.925305055849947
 30
0.0
 40
3.399999999999999
  0
CIRCLE
  5
929C
  8
0
 10
186.4500000000931
 20
72.850305055849901
 30
0.0
 40
0.5499999999999972
  0
CIRCLE
  5
929D
  8
0
 10
184.50000000009311
 20
72.225305055849901
 30
0.0
 40
0.5500000000000043
  0
CIRCLE
  5
929E
  8
0
 10
186.4500000000931
 20
75.000305055849992
 30
0.0
 40
0.5500000000000043
  0
CIRCLE
  5
929F
  8
0
 10
184.50000000009311
 20
75.625305055849992
 30
0.0
 40
0.5499999999999972
  0
CIRCLE
  5
92A0
  8
0
 10
185.00000000009319
 20
73.925305055849947
 30
0.0
 40
4.0
  0
CIRCLE
  5
92A1
  8
0
 10
215.00000000009319
 20
73.925305055849947
 30
0.0
 40
3.8000000000712011
  0
CIRCLE
  5
92A3
  8
0
 10
215.00000000009319
 20
73.925305055849947
 30
0.0
 40
3.5000000000328191
  0
CIRCLE
  5
92A4
  8
0
 10
215.50000000009311
 20
75.625305055849992
 30
0.0
 40
0.5499999999999972
  0
CIRCLE
  5
92A5
  8
0
 10
213.55000000009321
 20
75.000305055849992
 30
0.0
 40
0.5499999999999901
  0
CIRCLE
  5
92A6
  8
0
 10
213.55000000009321
 20
72.850305055849901
 30
0.0
 40
0.5499999999999901
  0
CIRCLE
  5
92A7
  8
0
 10
215.00000000009319
 20
73.925305055849947
 30
0.0
 40
2.7999999999999972
  0
CIRCLE
  5
92A8
  8
0
 10
215.50000000009311
 20
72.225305055849901
 30
0.0
 40
0.5499999999999972
  0
ARC
  5
92AB
  8
0
 10
196.14246082809311
 20
62.25391716464997
 30
0.0
 40
1.5885474857690041
 50
61.518478003999412
 51
98.77940065290008
  0
ARC
  5
92AD
  8
0
 10
203.8575391719931
 20
62.25391716464997
 30
0.0
 40
1.5885474857690169
 50
81.220599347099935
 51
118.4815219960003
  0
CIRCLE
  5
92AE
  8
0
 10
185.00000000009319
 20
73.925305055849947
 30
0.0
 40
4.7999999999999972
  0
CIRCLE
  5
92AF
  8
0
 10
215.00000000009319
 20
73.925305055849947
 30
0.0
 40
4.7999999999999972
  0
LINE
  5
92B1
  8
0
 10
217.99999922519311
 20
63.823852147949928
 30
0.0
 11
204.10000002019311
 21
63.823852147949928
 31
0.0
  0
ARC
  5
92B3
  8
0
 10
218.2424600358932
 20
65.393788362749945
 30
0.0
 40
1.5885486972188669
 50
261.22060746340031
 51
298.48150938239968
  0
ARC
  5
92B6
  8
0
 10
181.7575399642931
 20
65.393788362749945
 30
0.0
 40
1.5885486972188541
 50
241.51849061760021
 51
278.77939253659969
  0
LINE
  5
92B7
  8
0
 10
195.8999999798931
 20
63.823852147949928
 30
0.0
 11
182.0000007748931
 21
63.823852147949928
 31
0.0
  0
CIRCLE
  5
92BE
  8
0
 10
200.00000000009319
 20
73.525305055849969
 30
0.0
 40
2.5
  0
CIRCLE
  5
92BF
  8
0
 10
215.00000000009319
 20
93.325305055849924
 30
0.0
 40
2.5
  0
CIRCLE
  5
92C0
  8
0
 10
185.00000000009319
 20
93.325305055849924
 30
0.0
 40
2.5
  0
ARC
  5
92C4
  8
0
 10
179.00000000009311
 20
67.079739074349902
 30
0.0
 40
2.0000000000000022
 50
0.0
 51
51.521404866699072
  0
ARC
  5
92C5
  8
0
 10
184.6000000000931
 20
74.125305055849992
 30
0.0
 40
6.9999999999999947
 50
180.0
 51
231.5214048666991
  0
LINE
  5
92C6
  8
0
 10
177.6000007987931
 20
95.425305347849914
 30
0.0
 11
177.6000007987931
 21
74.125304277949965
 31
0.0
  0
ARC
  5
92C7
  8
0
 10
179.1000000000931
 20
95.425305055849947
 30
0.0
 40
1.500000000000014
 50
90.0
 51
180.0
  0
LINE
  5
92C8
  8
0
 10
220.8999998867931
 20
96.92530466244996
 30
0.0
 11
179.10000011329311
 21
96.92530466244996
 31
0.0
  0
ARC
  5
92C9
  8
0
 10
220.9000000000932
 20
95.425305055849947
 30
0.0
 40
1.500000000000014
 50
0.0
 51
90.0
  0
LINE
  5
92CA
  8
0
 10
222.39999920139309
 20
74.125304277949965
 30
0.0
 11
222.39999920139309
 21
95.425305347849914
 31
0.0
  0
ARC
  5
92CB
  8
0
 10
215.4000000000932
 20
74.125305055849992
 30
0.0
 40
6.9999999999999947
 50
308.47859513330093
 51
0.0
  0
ARC
  5
92CC
  8
0
 10
221.00000000009319
 20
67.079739074349902
 30
0.0
 40
2.0
 50
128.4785951333009
 51
180.0
  0
LINE
  5
92CD
  8
0
 10
218.9999993890932
 20
63.997500035867169
 30
0.0
 11
218.9999993890932
 21
67.079739104949965
 31
0.0
  0
LINE
  5
92CE
  8
0
 10
181.00000061099311
 20
67.079739104949965
 30
0.0
 11
181.00000061099311
 21
63.997500035921441
 31
0.0
  0
ARC
  5
92CF
  8
0
 10
178.93500000009311
 20
95.575305055849924
 30
0.0
 40
1.5
 50
90.0
 51
180.0
  0
LINE
  5
92D0
  8
0
 10
178.93499955539309
 20
97.07530347634993
 30
0.0
 11
221.0650004446932
 21
97.07530347634993
 31
0.0
  0
ARC
  5
92D1
  8
0
 10
221.06500000009311
 20
95.575305055849924
 30
0.0
 40
1.5
 50
0.0
 51
90.0
  0
ARC
  5
92D2
  8
0
 10
215.56500000009319
 20
73.925305055849947
 30
0.0
 40
6.9999999999999973
 50
301.2297094477986
 51
0.0
  0
ARC
  5
92D3
  8
0
 10
184.43500000009311
 20
73.925305055849947
 30
0.0
 40
7.0
 50
180.0
 51
238.770290552201
  0
LINE
  5
92DA
  8
0
 10
222.56499975929319
 20
95.575304161750012
 30
0.0
 11
222.56499975929319
 21
55.575305055849917
 31
0.0
  0
LINE
  5
92DB
  8
0
 10
177.4350000000934
 20
95.575304161750012
 30
0.0
 11
177.43500024089309
 21
55.575305055849917
 31
0.0
  0
POLYLINE
  5
92DC
  8
0
 10
224.00000000009319
 20
95.334081675150003
 30
0.0
 66
     1
 70
     8
  0
VERTEX
  8
0
  5
AF1B
 10
224.000
 20
95.3341
 30
0.000000
  70
    32
  0
VERTEX
  8
0
  5
AF1C
 10
224.000
 20
95.3360
 30
0.000000
  70
    32
  0
VERTEX
  8
0
  5
AF1D
 10
224.000
 20
95.3379
 30
0.000000
  70
    32
  0
VERTEX
  8
0
  5
AF1E
 10
224.000
 20
95.3398
 30
0.000000
  70
    32
  0
VERTEX
  8
0
  5
AF1F
 10
224.000
 20
95.3417
 30
0.000000
  70
    32
  0
VERTEX
  8
0
  5
AF20
 10
224.000
 20
95.3436
 30
0.000000
  70
    32
  0
VERTEX
  8
0
  5
AF21
 10
224.000
 20
95.3454
 30
0.000000
  70
    32
  0
VERTEX
  8
0
  5
AF22
 10
224.000
 20
95.3473
 30
0.000000
  70
    32
  0
VERTEX
  8
0
  5
AF23
 10
224.000
 20
95.3492
 30
0.000000
  70
    32
  0
VERTEX
  8
0
  5
AF24
 10
224.000
 20
95.3511
 30
0.000000
  70
    32
  0
VERTEX
  8
0
  5
AF25
 10
224.000
 20
95.3530
 30
0.000000
  70
    32
  0
VERTEX
  8
0
  5
AF26
 10
224.000
 20
95.3549
 30
0.000000
  70
    32
  0
VERTEX
  8
0
  5
AF27
 10
224.000
 20
95.3568
 30
0.000000
  70
    32
  0
VERTEX
  8
0
  5
AF28
 10
224.000
 20
95.3587
 30
0.000000
  70
    32
  0
VERTEX
  8
0
  5
AF29
 10
223.999
 20
95.3606
 30
0.000000
  70
    32
  0
VERTEX
  8
0
  5
AF2A
 10
223.999
 20
95.3625
 30
0.000000
  70
    32
  0
VERTEX
  8
0
  5
AF2B
 10
223.999
 20
95.3644
 30
0.000000
  70
    32
  0
VERTEX
  8
0
  5
AF2C
 10
223.999
 20
95.3663
 30
0.000000
  70
    32
  0
VERTEX
  8
0
  5
AF2D
 10
223.999
 20
95.3682
 30
0.000000
  70
    32
  0
VERTEX
  8
0
  5
AF2E
 10
223.999
 20
95.3701
 30
0.000000
  70
    32
  0
VERTEX
  8
0
  5
AF2F
 10
223.999
 20
95.3720
 30
0.000000
  70
    32
  0
VERTEX
  8
0
  5
AF30
 10
223.999
 20
95.3739
 30
0.000000
  70
    32
  0
VERTEX
  8
0
  5
AF31
 10
223.999
 20
95.3757
 30
0.000000
  70
    32
  0
VERTEX
  8
0
  5
AF32
 10
223.999
 20
95.3776
 30
0.000000
  70
    32
  0
VERTEX
  8
0
  5
AF33
 10
223.998
 20
95.3795
 30
0.000000
  70
    32
  0
VERTEX
  8
0
  5
AF34
 10
223.998
 20
95.3814
 30
0.000000
  70
    32
  0
VERTEX
  8
0
  5
AF35
 10
223.998
 20
95.3833
 30
0.000000
  70
    32
  0
VERTEX
  8
0
  5
AF36
 10
223.998
 20
95.3852
 30
0.000000
  70
    32
  0
VERTEX
  8
0
  5
AF37
 10
223.998
 20
95.3871
 30
0.000000
  70
    32
  0
VERTEX
  8
0
  5
AF38
 10
223.998
 20
95.3890
 30
0.000000
  70
    32
  0
VERTEX
  8
0
  5
AF39
 10
223.998
 20
95.3909
 30
0.000000
  70
    32
  0
VERTEX
  8
0
  5
AF3A
 10
223.997
 20
95.3928
 30
0.000000
  70
    32
  0
VERTEX
  8
0
  5
AF3B
 10
223.997
 20
95.3947
 30
0.000000
  70
    32
  0
VERTEX
  8
0
  5
AF3C
 10
223.997
 20
95.3966
 30
0.000000
  70
    32
  0
VERTEX
  8
0
  5
AF3D
 10
223.997
 20
95.3985
 30
0.000000
  70
    32
  0
VERTEX
  8
0
  5
AF3E
 10
223.997
 20
95.4003
 30
0.000000
  70
    32
  0
VERTEX
  8
0
  5
AF3F
 10
223.996
 20
95.4022
 30
0.000000
  70
    32
  0
VERTEX
  8
0
  5
AF40
 10
223.996
 20
95.4041
 30
0.000000
  70
    32
  0
VERTEX
  8
0
  5
AF41
 10
223.996
 20
95.4060
 30
0.000000
  70
    32
  0
VERTEX
  8
0
  5
AF42
 10
223.996
 20
95.4079
 30
0.000000
  70
    32
  0
VERTEX
  8
0
  5
AF43
 10
223.996
 20
95.4098
 30
0.000000
  70
    32
  0
VERTEX
  8
0
  5
AF44
 10
223.995
 20
95.4117
 30
0.000000
  70
    32
  0
VERTEX
  8
0
  5
AF45
 10
223.995
 20
95.4136
 30
0.000000
  70
    32
  0
VERTEX
  8
0
  5
AF46
 10
223.995
 20
95.4155
 30
0.000000
  70
    32
  0
VERTEX
  8
0
  5
AF47
 10
223.995
 20
95.4174
 30
0.000000
  70
    32
  0
VERTEX
  8
0
  5
AF48
 10
223.994
 20
95.4193
 30
0.000000
  70
    32
  0
VERTEX
  8
0
  5
AF49
 10
223.994
 20
95.4212
 30
0.000000
  70
    32
  0
VERTEX
  8
0
  5
AF4A
 10
223.994
 20
95.4230
 30
0.000000
  70
    32
  0
VERTEX
  8
0
  5
AF4B
 10
223.994
 20
95.4249
 30
0.000000
  70
    32
  0
VERTEX
  8
0
  5
AF4C
 10
223.993
 20
95.4268
 30
0.000000
  70
    32
  0
VERTEX
  8
0
  5
AF4D
 10
223.993
 20
95.4287
 30
0.000000
  70
    32
  0
VERTEX
  8
0
  5
AF4E
 10
223.993
 20
95.4306
 30
0.000000
  70
    32
  0
VERTEX
  8
0
  5
AF4F
 10
223.993
 20
95.4325
 30
0.000000
  70
    32
  0
VERTEX
  8
0
  5
AF50
 10
223.992
 20
95.4344
 30
0.000000
  70
    32
  0
VERTEX
  8
0
  5
AF51
 10
223.992
 20
95.4363
 30
0.000000
  70
    32
  0
VERTEX
  8
0
  5
AF52
 10
223.992
 20
95.4382
 30
0.000000
  70
    32
  0
VERTEX
  8
0
  5
AF53
 10
223.991
 20
95.4400
 30
0.000000
  70
    32
  0
VERTEX
  8
0
  5
AF54
 10
223.991
 20
95.4419
 30
0.000000
  70
    32
  0
VERTEX
  8
0
  5
AF55
 10
223.991
 20
95.4438
 30
0.000000
  70
    32
  0
VERTEX
  8
0
  5
AF56
 10
223.990
 20
95.4457
 30
0.000000
  70
    32
  0
VERTEX
  8
0
  5
AF57
 10
223.990
 20
95.4476
 30
0.000000
  70
    32
  0
VERTEX
  8
0
  5
AF58
 10
223.990
 20
95.4495
 30
0.000000
  70
    32
  0
VERTEX
  8
0
  5
AF59
 10
223.989
 20
95.4514
 30
0.000000
  70
    32
  0
VERTEX
  8
0
  5
AF5A
 10
223.989
 20
95.4533
 30
0.000000
  70
    32
  0
VERTEX
  8
0
  5
AF5B
 10
223.989
 20
95.4552
 30
0.000000
  70
    32
  0
VERTEX
  8
0
  5
AF5C
 10
223.988
 20
95.4570
 30
0.000000
  70
    32
  0
VERTEX
  8
0
  5
AF5D
 10
223.988
 20
95.4589
 30
0.000000
  70
    32
  0
VERTEX
  8
0
  5
AF5E
 10
223.988
 20
95.4608
 30
0.000000
  70
    32
  0
VERTEX
  8
0
  5
AF5F
 10
223.987
 20
95.4627
 30
0.000000
  70
    32
  0
VERTEX
  8
0
  5
AF60
 10
223.987
 20
95.4646
 30
0.000000
  70
    32
  0
VERTEX
  8
0
  5
AF61
 10
223.986
 20
95.4665
 30
0.000000
  70
    32
  0
VERTEX
  8
0
  5
AF62
 10
223.986
 20
95.4684
 30
0.000000
  70
    32
  0
VERTEX
  8
0
  5
AF63
 10
223.986
 20
95.4702
 30
0.000000
  70
    32
  0
VERTEX
  8
0
  5
AF64
 10
223.985
 20
95.4721
 30
0.000000
  70
    32
  0
VERTEX
  8
0
  5
AF65
 10
223.985
 20
95.4740
 30
0.000000
  70
    32
  0
VERTEX
  8
0
  5
AF66
 10
223.984
 20
95.4759
 30
0.000000
  70
    32
  0
VERTEX
  8
0
  5
AF67
 10
223.984
 20
95.4778
 30
0.000000
  70
    32
  0
VERTEX
  8
0
  5
AF68
 10
223.984
 20
95.4797
 30
0.000000
  70
    32
  0
VERTEX
  8
0
  5
AF69
 10
223.983
 20
95.4815
 30
0.000000
  70
    32
  0
VERTEX
  8
0
  5
AF6A
 10
223.983
 20
95.4834
 30
0.000000
  70
    32
  0
VERTEX
  8
0
  5
AF6B
 10
223.982
 20
95.4853
 30
0.000000
  70
    32
  0
VERTEX
  8
0
  5
AF6C
 10
223.982
 20
95.4872
 30
0.000000
  70
    32
  0
VERTEX
  8
0
  5
AF6D
 10
223.981
 20
95.4891
 30
0.000000
  70
    32
  0
VERTEX
  8
0
  5
AF6E
 10
223.981
 20
95.4910
 30
0.000000
  70
    32
  0
VERTEX
  8
0
  5
AF6F
 10
223.980
 20
95.4928
 30
0.000000
  70
    32
  0
VERTEX
  8
0
  5
AF70
 10
223.980
 20
95.4947
 30
0.000000
  70
    32
  0
VERTEX
  8
0
  5
AF71
 10
223.980
 20
95.4966
 30
0.000000
  70
    32
  0
VERTEX
  8
0
  5
AF72
 10
223.979
 20
95.4985
 30
0.000000
  70
    32
  0
VERTEX
  8
0
  5
AF73
 10
223.979
 20
95.5004
 30
0.000000
  70
    32
  0
VERTEX
  8
0
  5
AF74
 10
223.978
 20
95.5022
 30
0.000000
  70
    32
  0
VERTEX
  8
0
  5
AF75
 10
223.978
 20
95.5041
 30
0.000000
  70
    32
  0
VERTEX
  8
0
  5
AF76
 10
223.977
 20
95.5060
 30
0.000000
  70
    32
  0
VERTEX
  8
0
  5
AF77
 10
223.977
 20
95.5079
 30
0.000000
  70
    32
  0
VERTEX
  8
0
  5
AF78
 10
223.976
 20
95.5098
 30
0.000000
  70
    32
  0
VERTEX
  8
0
  5
AF79
 10
223.976
 20
95.5116
 30
0.000000
  70
    32
  0
VERTEX
  8
0
  5
AF7A
 10
223.975
 20
95.5135
 30
0.000000
  70
    32
  0
VERTEX
  8
0
  5
AF7B
 10
223.975
 20
95.5154
 30
0.000000
  70
    32
  0
VERTEX
  8
0
  5
AF7C
 10
223.974
 20
95.5173
 30
0.000000
  70
    32
  0
VERTEX
  8
0
  5
AF7D
 10
223.973
 20
95.5192
 30
0.000000
  70
    32
  0
VERTEX
  8
0
  5
AF7E
 10
223.973
 20
95.5210
 30
0.000000
  70
    32
  0
VERTEX
  8
0
  5
AF7F
 10
223.972
 20
95.5229
 30
0.000000
  70
    32
  0
VERTEX
  8
0
  5
AF80
 10
223.972
 20
95.5248
 30
0.000000
  70
    32
  0
VERTEX
  8
0
  5
AF81
 10
223.971
 20
95.5267
 30
0.000000
  70
    32
  0
VERTEX
  8
0
  5
AF82
 10
223.971
 20
95.5285
 30
0.000000
  70
    32
  0
VERTEX
  8
0
  5
AF83
 10
223.970
 20
95.5304
 30
0.000000
  70
    32
  0
VERTEX
  8
0
  5
AF84
 10
223.970
 20
95.5323
 30
0.000000
  70
    32
  0
VERTEX
  8
0
  5
AF85
 10
223.969
 20
95.5342
 30
0.000000
  70
    32
  0
VERTEX
  8
0
  5
AF86
 10
223.968
 20
95.5360
 30
0.000000
  70
    32
  0
VERTEX
  8
0
  5
AF87
 10
223.968
 20
95.5379
 30
0.000000
  70
    32
  0
VERTEX
  8
0
  5
AF88
 10
223.967
 20
95.5398
 30
0.000000
  70
    32
  0
VERTEX
  8
0
  5
AF89
 10
223.967
 20
95.5417
 30
0.000000
  70
    32
  0
VERTEX
  8
0
  5
AF8A
 10
223.966
 20
95.5435
 30
0.000000
  70
    32
  0
VERTEX
  8
0
  5
AF8B
 10
223.965
 20
95.5454
 30
0.000000
  70
    32
  0
VERTEX
  8
0
  5
AF8C
 10
223.965
 20
95.5473
 30
0.000000
  70
    32
  0
VERTEX
  8
0
  5
AF8D
 10
223.964
 20
95.5491
 30
0.000000
  70
    32
  0
VERTEX
  8
0
  5
AF8E
 10
223.963
 20
95.5510
 30
0.000000
  70
    32
  0
VERTEX
  8
0
  5
AF8F
 10
223.963
 20
95.5529
 30
0.000000
  70
    32
  0
VERTEX
  8
0
  5
AF90
 10
223.962
 20
95.5548
 30
0.000000
  70
    32
  0
VERTEX
  8
0
  5
AF91
 10
223.962
 20
95.5566
 30
0.000000
  70
    32
  0
VERTEX
  8
0
  5
AF92
 10
223.961
 20
95.5585
 30
0.000000
  70
    32
  0
VERTEX
  8
0
  5
AF93
 10
223.960
 20
95.5604
 30
0.000000
  70
    32
  0
VERTEX
  8
0
  5
AF94
 10
223.960
 20
95.5622
 30
0.000000
  70
    32
  0
VERTEX
  8
0
  5
AF95
 10
223.959
 20
95.5641
 30
0.000000
  70
    32
  0
VERTEX
  8
0
  5
AF96
 10
223.958
 20
95.5660
 30
0.000000
  70
    32
  0
VERTEX
  8
0
  5
AF97
 10
223.958
 20
95.5678
 30
0.000000
  70
    32
  0
VERTEX
  8
0
  5
AF98
 10
223.957
 20
95.5697
 30
0.000000
  70
    32
  0
VERTEX
  8
0
  5
AF99
 10
223.956
 20
95.5716
 30
0.000000
  70
    32
  0
VERTEX
  8
0
  5
AF9A
 10
223.955
 20
95.5734
 30
0.000000
  70
    32
  0
VERTEX
  8
0
  5
AF9B
 10
223.955
 20
95.5753
 30
0.000000
  70
    32
  0
SEQEND
  8
0
  5
AF9C
  0
LINE
  5
92DD
  8
0
 10
222.56499975929319
 20
95.575304161750012
 30
0.0
 11
223.9547714591931
 21
95.575304161750012
 31
0.0
  0
POLYLINE
  5
92DE
  8
0
 10
223.89214541093256
 20
101.87530505589699
 30
0.0
 66
     1
 70
     8
  0
VERTEX
  8
0
  5
AF9D
 10
223.892
 20
101.875
 30
0.000000
  70
    32
  0
VERTEX
  8
0
  5
AF9E
 10
223.894
 20
101.876
 30
0.000000
  70
    32
  0
VERTEX
  8
0
  5
AF9F
 10
223.895
 20
101.878
 30
0.000000
  70
    32
  0
VERTEX
  8
0
  5
AFA0
 10
223.897
 20
101.879
 30
0.000000
  70
    32
  0
VERTEX
  8
0
  5
AFA1
 10
223.899
 20
101.880
 30
0.000000
  70
    32
  0
VERTEX
  8
0
  5
AFA2
 10
223.900
 20
101.881
 30
0.000000
  70
    32
  0
VERTEX
  8
0
  5
AFA3
 10
223.902
 20
101.882
 30
0.000000
  70
    32
  0
VERTEX
  8
0
  5
AFA4
 10
223.904
 20
101.884
 30
0.000000
  70
    32
  0
VERTEX
  8
0
  5
AFA5
 10
223.905
 20
101.885
 30
0.000000
  70
    32
  0
VERTEX
  8
0
  5
AFA6
 10
223.907
 20
101.886
 30
0.000000
  70
    32
  0
VERTEX
  8
0
  5
AFA7
 10
223.908
 20
101.887
 30
0.000000
  70
    32
  0
VERTEX
  8
0
  5
AFA8
 10
223.910
 20
101.888
 30
0.000000
  70
    32
  0
VERTEX
  8
0
  5
AFA9
 10
223.911
 20
101.890
 30
0.000000
  70
    32
  0
VERTEX
  8
0
  5
AFAA
 10
223.913
 20
101.891
 30
0.000000
  70
    32
  0
VERTEX
  8
0
  5
AFAB
 10
223.914
 20
101.892
 30
0.000000
  70
    32
  0
VERTEX
  8
0
  5
AFAC
 10
223.916
 20
101.893
 30
0.000000
  70
    32
  0
VERTEX
  8
0
  5
AFAD
 10
223.917
 20
101.894
 30
0.000000
  70
    32
  0
VERTEX
  8
0
  5
AFAE
 10
223.919
 20
101.895
 30
0.000000
  70
    32
  0
VERTEX
  8
0
  5
AFAF
 10
223.920
 20
101.897
 30
0.000000
  70
    32
  0
VERTEX
  8
0
  5
AFB0
 10
223.922
 20
101.898
 30
0.000000
  70
    32
  0
VERTEX
  8
0
  5
AFB1
 10
223.923
 20
101.899
 30
0.000000
  70
    32
  0
VERTEX
  8
0
  5
AFB2
 10
223.924
 20
101.900
 30
0.000000
  70
    32
  0
VERTEX
  8
0
  5
AFB3
 10
223.926
 20
101.901
 30
0.000000
  70
    32
  0
VERTEX
  8
0
  5
AFB4
 10
223.927
 20
101.903
 30
0.000000
  70
    32
  0
VERTEX
  8
0
  5
AFB5
 10
223.929
 20
101.904
 30
0.000000
  70
    32
  0
VERTEX
  8
0
  5
AFB6
 10
223.930
 20
101.905
 30
0.000000
  70
    32
  0
VERTEX
  8
0
  5
AFB7
 10
223.931
 20
101.906
 30
0.000000
  70
    32
  0
VERTEX
  8
0
  5
AFB8
 10
223.933
 20
101.907
 30
0.000000
  70
    32
  0
VERTEX
  8
0
  5
AFB9
 10
223.934
 20
101.909
 30
0.000000
  70
    32
  0
VERTEX
  8
0
  5
AFBA
 10
223.935
 20
101.910
 30
0.000000
  70
    32
  0
VERTEX
  8
0
  5
AFBB
 10
223.937
 20
101.911
 30
0.000000
  70
    32
  0
VERTEX
  8
0
  5
AFBC
 10
223.938
 20
101.912
 30
0.000000
  70
    32
  0
VERTEX
  8
0
  5
AFBD
 10
223.939
 20
101.913
 30
0.000000
  70
    32
  0
VERTEX
  8
0
  5
AFBE
 10
223.940
 20
101.915
 30
0.000000
  70
    32
  0
VERTEX
  8
0
  5
AFBF
 10
223.942
 20
101.916
 30
0.000000
  70
    32
  0
VERTEX
  8
0
  5
AFC0
 10
223.943
 20
101.917
 30
0.000000
  70
    32
  0
VERTEX
  8
0
  5
AFC1
 10
223.944
 20
101.918
 30
0.000000
  70
    32
  0
VERTEX
  8
0
  5
AFC2
 10
223.945
 20
101.919
 30
0.000000
  70
    32
  0
VERTEX
  8
0
  5
AFC3
 10
223.947
 20
101.921
 30
0.000000
  70
    32
  0
VERTEX
  8
0
  5
AFC4
 10
223.948
 20
101.922
 30
0.000000
  70
    32
  0
VERTEX
  8
0
  5
AFC5
 10
223.949
 20
101.923
 30
0.000000
  70
    32
  0
VERTEX
  8
0
  5
AFC6
 10
223.950
 20
101.924
 30
0.000000
  70
    32
  0
VERTEX
  8
0
  5
AFC7
 10
223.951
 20
101.925
 30
0.000000
  70
    32
  0
VERTEX
  8
0
  5
AFC8
 10
223.952
 20
101.927
 30
0.000000
  70
    32
  0
VERTEX
  8
0
  5
AFC9
 10
223.953
 20
101.928
 30
0.000000
  70
    32
  0
VERTEX
  8
0
  5
AFCA
 10
223.954
 20
101.929
 30
0.000000
  70
    32
  0
VERTEX
  8
0
  5
AFCB
 10
223.956
 20
101.930
 30
0.000000
  70
    32
  0
VERTEX
  8
0
  5
AFCC
 10
223.957
 20
101.931
 30
0.000000
  70
    32
  0
VERTEX
  8
0
  5
AFCD
 10
223.958
 20
101.933
 30
0.000000
  70
    32
  0
VERTEX
  8
0
  5
AFCE
 10
223.959
 20
101.934
 30
0.000000
  70
    32
  0
VERTEX
  8
0
  5
AFCF
 10
223.960
 20
101.935
 30
0.000000
  70
    32
  0
VERTEX
  8
0
  5
AFD0
 10
223.961
 20
101.936
 30
0.000000
  70
    32
  0
VERTEX
  8
0
  5
AFD1
 10
223.962
 20
101.938
 30
0.000000
  70
    32
  0
VERTEX
  8
0
  5
AFD2
 10
223.963
 20
101.939
 30
0.000000
  70
    32
  0
VERTEX
  8
0
  5
AFD3
 10
223.964
 20
101.940
 30
0.000000
  70
    32
  0
VERTEX
  8
0
  5
AFD4
 10
223.965
 20
101.941
 30
0.000000
  70
    32
  0
VERTEX
  8
0
  5
AFD5
 10
223.966
 20
101.942
 30
0.000000
  70
    32
  0
VERTEX
  8
0
  5
AFD6
 10
223.967
 20
101.944
 30
0.000000
  70
    32
  0
VERTEX
  8
0
  5
AFD7
 10
223.968
 20
101.945
 30
0.000000
  70
    32
  0
VERTEX
  8
0
  5
AFD8
 10
223.969
 20
101.946
 30
0.000000
  70
    32
  0
VERTEX
  8
0
  5
AFD9
 10
223.969
 20
101.947
 30
0.000000
  70
    32
  0
VERTEX
  8
0
  5
AFDA
 10
223.970
 20
101.948
 30
0.000000
  70
    32
  0
VERTEX
  8
0
  5
AFDB
 10
223.971
 20
101.950
 30
0.000000
  70
    32
  0
VERTEX
  8
0
  5
AFDC
 10
223.972
 20
101.951
 30
0.000000
  70
    32
  0
VERTEX
  8
0
  5
AFDD
 10
223.973
 20
101.952
 30
0.000000
  70
    32
  0
VERTEX
  8
0
  5
AFDE
 10
223.974
 20
101.953
 30
0.000000
  70
    32
  0
VERTEX
  8
0
  5
AFDF
 10
223.975
 20
101.955
 30
0.000000
  70
    32
  0
VERTEX
  8
0
  5
AFE0
 10
223.975
 20
101.956
 30
0.000000
  70
    32
  0
VERTEX
  8
0
  5
AFE1
 10
223.976
 20
101.957
 30
0.000000
  70
    32
  0
VERTEX
  8
0
  5
AFE2
 10
223.977
 20
101.958
 30
0.000000
  70
    32
  0
VERTEX
  8
0
  5
AFE3
 10
223.978
 20
101.959
 30
0.000000
  70
    32
  0
VERTEX
  8
0
  5
AFE4
 10
223.979
 20
101.961
 30
0.000000
  70
    32
  0
VERTEX
  8
0
  5
AFE5
 10
223.979
 20
101.962
 30
0.000000
  70
    32
  0
VERTEX
  8
0
  5
AFE6
 10
223.980
 20
101.963
 30
0.000000
  70
    32
  0
VERTEX
  8
0
  5
AFE7
 10
223.981
 20
101.964
 30
0.000000
  70
    32
  0
VERTEX
  8
0
  5
AFE8
 10
223.981
 20
101.965
 30
0.000000
  70
    32
  0
VERTEX
  8
0
  5
AFE9
 10
223.982
 20
101.967
 30
0.000000
  70
    32
  0
VERTEX
  8
0
  5
AFEA
 10
223.983
 20
101.968
 30
0.000000
  70
    32
  0
VERTEX
  8
0
  5
AFEB
 10
223.983
 20
101.969
 30
0.000000
  70
    32
  0
VERTEX
  8
0
  5
AFEC
 10
223.984
 20
101.970
 30
0.000000
  70
    32
  0
VERTEX
  8
0
  5
AFED
 10
223.985
 20
101.972
 30
0.000000
  70
    32
  0
VERTEX
  8
0
  5
AFEE
 10
223.985
 20
101.973
 30
0.000000
  70
    32
  0
VERTEX
  8
0
  5
AFEF
 10
223.986
 20
101.974
 30
0.000000
  70
    32
  0
VERTEX
  8
0
  5
AFF0
 10
223.987
 20
101.975
 30
0.000000
  70
    32
  0
VERTEX
  8
0
  5
AFF1
 10
223.987
 20
101.976
 30
0.000000
  70
    32
  0
VERTEX
  8
0
  5
AFF2
 10
223.988
 20
101.978
 30
0.000000
  70
    32
  0
VERTEX
  8
0
  5
AFF3
 10
223.988
 20
101.979
 30
0.000000
  70
    32
  0
VERTEX
  8
0
  5
AFF4
 10
223.989
 20
101.980
 30
0.000000
  70
    32
  0
VERTEX
  8
0
  5
AFF5
 10
223.989
 20
101.981
 30
0.000000
  70
    32
  0
VERTEX
  8
0
  5
AFF6
 10
223.990
 20
101.983
 30
0.000000
  70
    32
  0
VERTEX
  8
0
  5
AFF7
 10
223.990
 20
101.984
 30
0.000000
  70
    32
  0
VERTEX
  8
0
  5
AFF8
 10
223.991
 20
101.985
 30
0.000000
  70
    32
  0
VERTEX
  8
0
  5
AFF9
 10
223.991
 20
101.986
 30
0.000000
  70
    32
  0
VERTEX
  8
0
  5
AFFA
 10
223.992
 20
101.987
 30
0.000000
  70
    32
  0
VERTEX
  8
0
  5
AFFB
 10
223.992
 20
101.989
 30
0.000000
  70
    32
  0
VERTEX
  8
0
  5
AFFC
 10
223.993
 20
101.990
 30
0.000000
  70
    32
  0
VERTEX
  8
0
  5
AFFD
 10
223.993
 20
101.991
 30
0.000000
  70
    32
  0
VERTEX
  8
0
  5
AFFE
 10
223.994
 20
101.992
 30
0.000000
  70
    32
  0
VERTEX
  8
0
  5
AFFF
 10
223.994
 20
101.994
 30
0.000000
  70
    32
  0
VERTEX
  8
0
  5
B000
 10
223.994
 20
101.995
 30
0.000000
  70
    32
  0
VERTEX
  8
0
  5
B001
 10
223.995
 20
101.996
 30
0.000000
  70
    32
  0
VERTEX
  8
0
  5
B002
 10
223.995
 20
101.997
 30
0.000000
  70
    32
  0
VERTEX
  8
0
  5
B003
 10
223.996
 20
101.998
 30
0.000000
  70
    32
  0
VERTEX
  8
0
  5
B004
 10
223.996
 20
102.000
 30
0.000000
  70
    32
  0
VERTEX
  8
0
  5
B005
 10
223.996
 20
102.001
 30
0.000000
  70
    32
  0
VERTEX
  8
0
  5
B006
 10
223.996
 20
102.002
 30
0.000000
  70
    32
  0
VERTEX
  8
0
  5
B007
 10
223.997
 20
102.003
 30
0.000000
  70
    32
  0
VERTEX
  8
0
  5
B008
 10
223.997
 20
102.005
 30
0.000000
  70
    32
  0
VERTEX
  8
0
  5
B009
 10
223.997
 20
102.006
 30
0.000000
  70
    32
  0
VERTEX
  8
0
  5
B00A
 10
223.998
 20
102.007
 30
0.000000
  70
    32
  0
VERTEX
  8
0
  5
B00B
 10
223.998
 20
102.008
 30
0.000000
  70
    32
  0
VERTEX
  8
0
  5
B00C
 10
223.998
 20
102.009
 30
0.000000
  70
    32
  0
VERTEX
  8
0
  5
B00D
 10
223.998
 20
102.011
 30
0.000000
  70
    32
  0
VERTEX
  8
0
  5
B00E
 10
223.999
 20
102.012
 30
0.000000
  70
    32
  0
VERTEX
  8
0
  5
B00F
 10
223.999
 20
102.013
 30
0.000000
  70
    32
  0
VERTEX
  8
0
  5
B010
 10
223.999
 20
102.014
 30
0.000000
  70
    32
  0
VERTEX
  8
0
  5
B011
 10
223.999
 20
102.016
 30
0.000000
  70
    32
  0
VERTEX
  8
0
  5
B012
 10
223.999
 20
102.017
 30
0.000000
  70
    32
  0
VERTEX
  8
0
  5
B013
 10
223.999
 20
102.018
 30
0.000000
  70
    32
  0
VERTEX
  8
0
  5
B014
 10
223.999
 20
102.019
 30
0.000000
  70
    32
  0
VERTEX
  8
0
  5
B015
 10
224.000
 20
102.020
 30
0.000000
  70
    32
  0
VERTEX
  8
0
  5
B016
 10
224.000
 20
102.022
 30
0.000000
  70
    32
  0
VERTEX
  8
0
  5
B017
 10
224.000
 20
102.023
 30
0.000000
  70
    32
  0
VERTEX
  8
0
  5
B018
 10
224.000
 20
102.024
 30
0.000000
  70
    32
  0
VERTEX
  8
0
  5
B019
 10
224.000
 20
102.025
 30
0.000000
  70
    32
  0
VERTEX
  8
0
  5
B01A
 10
224.000
 20
102.027
 30
0.000000
  70
    32
  0
VERTEX
  8
0
  5
B01B
 10
224.000
 20
102.028
 30
0.000000
  70
    32
  0
VERTEX
  8
0
  5
B01C
 10
224.000
 20
102.029
 30
0.000000
  70
    32
  0
VERTEX
  8
0
  5
B01D
 10
224.000
 20
102.030
 30
0.000000
  70
    32
  0
SEQEND
  8
0
  5
B01E
  0
LINE
  5
92E1
  8
0
 10
176.04522854099321
 20
95.575304161750012
 30
0.0
 11
177.43500024089309
 21
95.575304161750012
 31
0.0
  0
POLYLINE
  5
92E2
  8
0
 10
176.04522807938017
 20
95.575305055789968
 30
0.0
 66
     1
 70
     8
  0
VERTEX
  8
0
  5
B01F
 10
176.045
 20
95.5753
 30
0.000000
  70
    32
  0
VERTEX
  8
0
  5
B020
 10
176.045
 20
95.5734
 30
0.000000
  70
    32
  0
VERTEX
  8
0
  5
B021
 10
176.044
 20
95.5716
 30
0.000000
  70
    32
  0
VERTEX
  8
0
  5
B022
 10
176.043
 20
95.5697
 30
0.000000
  70
    32
  0
VERTEX
  8
0
  5
B023
 10
176.042
 20
95.5678
 30
0.000000
  70
    32
  0
VERTEX
  8
0
  5
B024
 10
176.042
 20
95.5660
 30
0.000000
  70
    32
  0
VERTEX
  8
0
  5
B025
 10
176.041
 20
95.5641
 30
0.000000
  70
    32
  0
VERTEX
  8
0
  5
B026
 10
176.040
 20
95.5622
 30
0.000000
  70
    32
  0
VERTEX
  8
0
  5
B027
 10
176.040
 20
95.5604
 30
0.000000
  70
    32
  0
VERTEX
  8
0
  5
B028
 10
176.039
 20
95.5585
 30
0.000000
  70
    32
  0
VERTEX
  8
0
  5
B029
 10
176.038
 20
95.5566
 30
0.000000
  70
    32
  0
VERTEX
  8
0
  5
B02A
 10
176.038
 20
95.5548
 30
0.000000
  70
    32
  0
VERTEX
  8
0
  5
B02B
 10
176.037
 20
95.5529
 30
0.000000
  70
    32
  0
VERTEX
  8
0
  5
B02C
 10
176.037
 20
95.5510
 30
0.000000
  70
    32
  0
VERTEX
  8
0
  5
B02D
 10
176.036
 20
95.5491
 30
0.000000
  70
    32
  0
VERTEX
  8
0
  5
B02E
 10
176.035
 20
95.5473
 30
0.000000
  70
    32
  0
VERTEX
  8
0
  5
B02F
 10
176.035
 20
95.5454
 30
0.000000
  70
    32
  0
VERTEX
  8
0
  5
B030
 10
176.034
 20
95.5435
 30
0.000000
  70
    32
  0
VERTEX
  8
0
  5
B031
 10
176.033
 20
95.5417
 30
0.000000
  70
    32
  0
VERTEX
  8
0
  5
B032
 10
176.033
 20
95.5398
 30
0.000000
  70
    32
  0
VERTEX
  8
0
  5
B033
 10
176.032
 20
95.5379
 30
0.000000
  70
    32
  0
VERTEX
  8
0
  5
B034
 10
176.032
 20
95.5360
 30
0.000000
  70
    32
  0
VERTEX
  8
0
  5
B035
 10
176.031
 20
95.5342
 30
0.000000
  70
    32
  0
VERTEX
  8
0
  5
B036
 10
176.030
 20
95.5323
 30
0.000000
  70
    32
  0
VERTEX
  8
0
  5
B037
 10
176.030
 20
95.5304
 30
0.000000
  70
    32
  0
VERTEX
  8
0
  5
B038
 10
176.029
 20
95.5285
 30
0.000000
  70
    32
  0
VERTEX
  8
0
  5
B039
 10
176.029
 20
95.5267
 30
0.000000
  70
    32
  0
VERTEX
  8
0
  5
B03A
 10
176.028
 20
95.5248
 30
0.000000
  70
    32
  0
VERTEX
  8
0
  5
B03B
 10
176.028
 20
95.5229
 30
0.000000
  70
    32
  0
VERTEX
  8
0
  5
B03C
 10
176.027
 20
95.5210
 30
0.000000
  70
    32
  0
VERTEX
  8
0
  5
B03D
 10
176.027
 20
95.5192
 30
0.000000
  70
    32
  0
VERTEX
  8
0
  5
B03E
 10
176.026
 20
95.5173
 30
0.000000
  70
    32
  0
VERTEX
  8
0
  5
B03F
 10
176.025
 20
95.5154
 30
0.000000
  70
    32
  0
VERTEX
  8
0
  5
B040
 10
176.025
 20
95.5135
 30
0.000000
  70
    32
  0
VERTEX
  8
0
  5
B041
 10
176.024
 20
95.5116
 30
0.000000
  70
    32
  0
VERTEX
  8
0
  5
B042
 10
176.024
 20
95.5098
 30
0.000000
  70
    32
  0
VERTEX
  8
0
  5
B043
 10
176.023
 20
95.5079
 30
0.000000
  70
    32
  0
VERTEX
  8
0
  5
B044
 10
176.023
 20
95.5060
 30
0.000000
  70
    32
  0
VERTEX
  8
0
  5
B045
 10
176.022
 20
95.5041
 30
0.000000
  70
    32
  0
VERTEX
  8
0
  5
B046
 10
176.022
 20
95.5022
 30
0.000000
  70
    32
  0
VERTEX
  8
0
  5
B047
 10
176.021
 20
95.5004
 30
0.000000
  70
    32
  0
VERTEX
  8
0
  5
B048
 10
176.021
 20
95.4985
 30
0.000000
  70
    32
  0
VERTEX
  8
0
  5
B049
 10
176.020
 20
95.4966
 30
0.000000
  70
    32
  0
VERTEX
  8
0
  5
B04A
 10
176.020
 20
95.4947
 30
0.000000
  70
    32
  0
VERTEX
  8
0
  5
B04B
 10
176.020
 20
95.4928
 30
0.000000
  70
    32
  0
VERTEX
  8
0
  5
B04C
 10
176.019
 20
95.4910
 30
0.000000
  70
    32
  0
VERTEX
  8
0
  5
B04D
 10
176.019
 20
95.4891
 30
0.000000
  70
    32
  0
VERTEX
  8
0
  5
B04E
 10
176.018
 20
95.4872
 30
0.000000
  70
    32
  0
VERTEX
  8
0
  5
B04F
 10
176.018
 20
95.4853
 30
0.000000
  70
    32
  0
VERTEX
  8
0
  5
B050
 10
176.017
 20
95.4834
 30
0.000000
  70
    32
  0
VERTEX
  8
0
  5
B051
 10
176.017
 20
95.4815
 30
0.000000
  70
    32
  0
VERTEX
  8
0
  5
B052
 10
176.016
 20
95.4797
 30
0.000000
  70
    32
  0
VERTEX
  8
0
  5
B053
 10
176.016
 20
95.4778
 30
0.000000
  70
    32
  0
VERTEX
  8
0
  5
B054
 10
176.016
 20
95.4759
 30
0.000000
  70
    32
  0
VERTEX
  8
0
  5
B055
 10
176.015
 20
95.4740
 30
0.000000
  70
    32
  0
VERTEX
  8
0
  5
B056
 10
176.015
 20
95.4721
 30
0.000000
  70
    32
  0
VERTEX
  8
0
  5
B057
 10
176.014
 20
95.4702
 30
0.000000
  70
    32
  0
VERTEX
  8
0
  5
B058
 10
176.014
 20
95.4684
 30
0.000000
  70
    32
  0
VERTEX
  8
0
  5
B059
 10
176.014
 20
95.4665
 30
0.000000
  70
    32
  0
VERTEX
  8
0
  5
B05A
 10
176.013
 20
95.4646
 30
0.000000
  70
    32
  0
VERTEX
  8
0
  5
B05B
 10
176.013
 20
95.4627
 30
0.000000
  70
    32
  0
VERTEX
  8
0
  5
B05C
 10
176.012
 20
95.4608
 30
0.000000
  70
    32
  0
VERTEX
  8
0
  5
B05D
 10
176.012
 20
95.4589
 30
0.000000
  70
    32
  0
VERTEX
  8
0
  5
B05E
 10
176.012
 20
95.4570
 30
0.000000
  70
    32
  0
VERTEX
  8
0
  5
B05F
 10
176.011
 20
95.4552
 30
0.000000
  70
    32
  0
VERTEX
  8
0
  5
B060
 10
176.011
 20
95.4533
 30
0.000000
  70
    32
  0
VERTEX
  8
0
  5
B061
 10
176.011
 20
95.4514
 30
0.000000
  70
    32
  0
VERTEX
  8
0
  5
B062
 10
176.010
 20
95.4495
 30
0.000000
  70
    32
  0
VERTEX
  8
0
  5
B063
 10
176.010
 20
95.4476
 30
0.000000
  70
    32
  0
VERTEX
  8
0
  5
B064
 10
176.010
 20
95.4457
 30
0.000000
  70
    32
  0
VERTEX
  8
0
  5
B065
 10
176.009
 20
95.4438
 30
0.000000
  70
    32
  0
VERTEX
  8
0
  5
B066
 10
176.009
 20
95.4419
 30
0.000000
  70
    32
  0
VERTEX
  8
0
  5
B067
 10
176.009
 20
95.4400
 30
0.000000
  70
    32
  0
VERTEX
  8
0
  5
B068
 10
176.008
 20
95.4382
 30
0.000000
  70
    32
  0
VERTEX
  8
0
  5
B069
 10
176.008
 20
95.4363
 30
0.000000
  70
    32
  0
VERTEX
  8
0
  5
B06A
 10
176.008
 20
95.4344
 30
0.000000
  70
    32
  0
VERTEX
  8
0
  5
B06B
 10
176.007
 20
95.4325
 30
0.000000
  70
    32
  0
VERTEX
  8
0
  5
B06C
 10
176.007
 20
95.4306
 30
0.000000
  70
    32
  0
VERTEX
  8
0
  5
B06D
 10
176.007
 20
95.4287
 30
0.000000
  70
    32
  0
VERTEX
  8
0
  5
B06E
 10
176.007
 20
95.4268
 30
0.000000
  70
    32
  0
VERTEX
  8
0
  5
B06F
 10
176.006
 20
95.4249
 30
0.000000
  70
    32
  0
VERTEX
  8
0
  5
B070
 10
176.006
 20
95.4230
 30
0.000000
  70
    32
  0
VERTEX
  8
0
  5
B071
 10
176.006
 20
95.4212
 30
0.000000
  70
    32
  0
VERTEX
  8
0
  5
B072
 10
176.006
 20
95.4193
 30
0.000000
  70
    32
  0
VERTEX
  8
0
  5
B073
 10
176.005
 20
95.4174
 30
0.000000
  70
    32
  0
VERTEX
  8
0
  5
B074
 10
176.005
 20
95.4155
 30
0.000000
  70
    32
  0
VERTEX
  8
0
  5
B075
 10
176.005
 20
95.4136
 30
0.000000
  70
    32
  0
VERTEX
  8
0
  5
B076
 10
176.005
 20
95.4117
 30
0.000000
  70
    32
  0
VERTEX
  8
0
  5
B077
 10
176.004
 20
95.4098
 30
0.000000
  70
    32
  0
VERTEX
  8
0
  5
B078
 10
176.004
 20
95.4079
 30
0.000000
  70
    32
  0
VERTEX
  8
0
  5
B079
 10
176.004
 20
95.4060
 30
0.000000
  70
    32
  0
VERTEX
  8
0
  5
B07A
 10
176.004
 20
95.4041
 30
0.000000
  70
    32
  0
VERTEX
  8
0
  5
B07B
 10
176.004
 20
95.4022
 30
0.000000
  70
    32
  0
VERTEX
  8
0
  5
B07C
 10
176.003
 20
95.4003
 30
0.000000
  70
    32
  0
VERTEX
  8
0
  5
B07D
 10
176.003
 20
95.3985
 30
0.000000
  70
    32
  0
VERTEX
  8
0
  5
B07E
 10
176.003
 20
95.3966
 30
0.000000
  70
    32
  0
VERTEX
  8
0
  5
B07F
 10
176.003
 20
95.3947
 30
0.000000
  70
    32
  0
VERTEX
  8
0
  5
B080
 10
176.003
 20
95.3928
 30
0.000000
  70
    32
  0
VERTEX
  8
0
  5
B081
 10
176.002
 20
95.3909
 30
0.000000
  70
    32
  0
VERTEX
  8
0
  5
B082
 10
176.002
 20
95.3890
 30
0.000000
  70
    32
  0
VERTEX
  8
0
  5
B083
 10
176.002
 20
95.3871
 30
0.000000
  70
    32
  0
VERTEX
  8
0
  5
B084
 10
176.002
 20
95.3852
 30
0.000000
  70
    32
  0
VERTEX
  8
0
  5
B085
 10
176.002
 20
95.3833
 30
0.000000
  70
    32
  0
VERTEX
  8
0
  5
B086
 10
176.002
 20
95.3814
 30
0.000000
  70
    32
  0
VERTEX
  8
0
  5
B087
 10
176.002
 20
95.3795
 30
0.000000
  70
    32
  0
VERTEX
  8
0
  5
B088
 10
176.001
 20
95.3776
 30
0.000000
  70
    32
  0
VERTEX
  8
0
  5
B089
 10
176.001
 20
95.3757
 30
0.000000
  70
    32
  0
VERTEX
  8
0
  5
B08A
 10
176.001
 20
95.3739
 30
0.000000
  70
    32
  0
VERTEX
  8
0
  5
B08B
 10
176.001
 20
95.3720
 30
0.000000
  70
    32
  0
VERTEX
  8
0
  5
B08C
 10
176.001
 20
95.3701
 30
0.000000
  70
    32
  0
VERTEX
  8
0
  5
B08D
 10
176.001
 20
95.3682
 30
0.000000
  70
    32
  0
VERTEX
  8
0
  5
B08E
 10
176.001
 20
95.3663
 30
0.000000
  70
    32
  0
VERTEX
  8
0
  5
B08F
 10
176.001
 20
95.3644
 30
0.000000
  70
    32
  0
VERTEX
  8
0
  5
B090
 10
176.001
 20
95.3625
 30
0.000000
  70
    32
  0
VERTEX
  8
0
  5
B091
 10
176.001
 20
95.3606
 30
0.000000
  70
    32
  0
VERTEX
  8
0
  5
B092
 10
176.000
 20
95.3587
 30
0.000000
  70
    32
  0
VERTEX
  8
0
  5
B093
 10
176.000
 20
95.3568
 30
0.000000
  70
    32
  0
VERTEX
  8
0
  5
B094
 10
176.000
 20
95.3549
 30
0.000000
  70
    32
  0
VERTEX
  8
0
  5
B095
 10
176.000
 20
95.3530
 30
0.000000
  70
    32
  0
VERTEX
  8
0
  5
B096
 10
176.000
 20
95.3511
 30
0.000000
  70
    32
  0
VERTEX
  8
0
  5
B097
 10
176.000
 20
95.3492
 30
0.000000
  70
    32
  0
VERTEX
  8
0
  5
B098
 10
176.000
 20
95.3473
 30
0.000000
  70
    32
  0
VERTEX
  8
0
  5
B099
 10
176.000
 20
95.3454
 30
0.000000
  70
    32
  0
VERTEX
  8
0
  5
B09A
 10
176.000
 20
95.3436
 30
0.000000
  70
    32
  0
VERTEX
  8
0
  5
B09B
 10
176.000
 20
95.3417
 30
0.000000
  70
    32
  0
VERTEX
  8
0
  5
B09C
 10
176.000
 20
95.3398
 30
0.000000
  70
    32
  0
VERTEX
  8
0
  5
B09D
 10
176.000
 20
95.3379
 30
0.000000
  70
    32
  0
VERTEX
  8
0
  5
B09E
 10
176.000
 20
95.3360
 30
0.000000
  70
    32
  0
VERTEX
  8
0
  5
B09F
 10
176.000
 20
95.3341
 30
0.000000
  70
    32
  0
SEQEND
  8
0
  5
B0A0
  0
POLYLINE
  5
92E4
  8
0
 10
176.00000000009311
 20
102.0302610251499
 30
0.0
 66
     1
 70
     8
  0
VERTEX
  8
0
  5
B0A1
 10
176.000
 20
102.030
 30
0.000000
  70
    32
  0
VERTEX
  8
0
  5
B0A2
 10
176.000
 20
102.029
 30
0.000000
  70
    32
  0
VERTEX
  8
0
  5
B0A3
 10
176.000
 20
102.028
 30
0.000000
  70
    32
  0
VERTEX
  8
0
  5
B0A4
 10
176.000
 20
102.027
 30
0.000000
  70
    32
  0
VERTEX
  8
0
  5
B0A5
 10
176.000
 20
102.025
 30
0.000000
  70
    32
  0
VERTEX
  8
0
  5
B0A6
 10
176.000
 20
102.024
 30
0.000000
  70
    32
  0
VERTEX
  8
0
  5
B0A7
 10
176.000
 20
102.023
 30
0.000000
  70
    32
  0
VERTEX
  8
0
  5
B0A8
 10
176.000
 20
102.022
 30
0.000000
  70
    32
  0
VERTEX
  8
0
  5
B0A9
 10
176.000
 20
102.020
 30
0.000000
  70
    32
  0
VERTEX
  8
0
  5
B0AA
 10
176.001
 20
102.019
 30
0.000000
  70
    32
  0
VERTEX
  8
0
  5
B0AB
 10
176.001
 20
102.018
 30
0.000000
  70
    32
  0
VERTEX
  8
0
  5
B0AC
 10
176.001
 20
102.017
 30
0.000000
  70
    32
  0
VERTEX
  8
0
  5
B0AD
 10
176.001
 20
102.016
 30
0.000000
  70
    32
  0
VERTEX
  8
0
  5
B0AE
 10
176.001
 20
102.014
 30
0.000000
  70
    32
  0
VERTEX
  8
0
  5
B0AF
 10
176.001
 20
102.013
 30
0.000000
  70
    32
  0
VERTEX
  8
0
  5
B0B0
 10
176.001
 20
102.012
 30
0.000000
  70
    32
  0
VERTEX
  8
0
  5
B0B1
 10
176.002
 20
102.011
 30
0.000000
  70
    32
  0
VERTEX
  8
0
  5
B0B2
 10
176.002
 20
102.009
 30
0.000000
  70
    32
  0
VERTEX
  8
0
  5
B0B3
 10
176.002
 20
102.008
 30
0.000000
  70
    32
  0
VERTEX
  8
0
  5
B0B4
 10
176.002
 20
102.007
 30
0.000000
  70
    32
  0
VERTEX
  8
0
  5
B0B5
 10
176.003
 20
102.006
 30
0.000000
  70
    32
  0
VERTEX
  8
0
  5
B0B6
 10
176.003
 20
102.005
 30
0.000000
  70
    32
  0
VERTEX
  8
0
  5
B0B7
 10
176.003
 20
102.003
 30
0.000000
  70
    32
  0
VERTEX
  8
0
  5
B0B8
 10
176.004
 20
102.002
 30
0.000000
  70
    32
  0
VERTEX
  8
0
  5
B0B9
 10
176.004
 20
102.001
 30
0.000000
  70
    32
  0
VERTEX
  8
0
  5
B0BA
 10
176.004
 20
102.000
 30
0.000000
  70
    32
  0
VERTEX
  8
0
  5
B0BB
 10
176.004
 20
101.998
 30
0.000000
  70
    32
  0
VERTEX
  8
0
  5
B0BC
 10
176.005
 20
101.997
 30
0.000000
  70
    32
  0
VERTEX
  8
0
  5
B0BD
 10
176.005
 20
101.996
 30
0.000000
  70
    32
  0
VERTEX
  8
0
  5
B0BE
 10
176.006
 20
101.995
 30
0.000000
  70
    32
  0
VERTEX
  8
0
  5
B0BF
 10
176.006
 20
101.994
 30
0.000000
  70
    32
  0
VERTEX
  8
0
  5
B0C0
 10
176.006
 20
101.992
 30
0.000000
  70
    32
  0
VERTEX
  8
0
  5
B0C1
 10
176.007
 20
101.991
 30
0.000000
  70
    32
  0
VERTEX
  8
0
  5
B0C2
 10
176.007
 20
101.990
 30
0.000000
  70
    32
  0
VERTEX
  8
0
  5
B0C3
 10
176.008
 20
101.989
 30
0.000000
  70
    32
  0
VERTEX
  8
0
  5
B0C4
 10
176.008
 20
101.987
 30
0.000000
  70
    32
  0
VERTEX
  8
0
  5
B0C5
 10
176.009
 20
101.986
 30
0.000000
  70
    32
  0
VERTEX
  8
0
  5
B0C6
 10
176.009
 20
101.985
 30
0.000000
  70
    32
  0
VERTEX
  8
0
  5
B0C7
 10
176.010
 20
101.984
 30
0.000000
  70
    32
  0
VERTEX
  8
0
  5
B0C8
 10
176.010
 20
101.983
 30
0.000000
  70
    32
  0
VERTEX
  8
0
  5
B0C9
 10
176.011
 20
101.981
 30
0.000000
  70
    32
  0
VERTEX
  8
0
  5
B0CA
 10
176.011
 20
101.980
 30
0.000000
  70
    32
  0
VERTEX
  8
0
  5
B0CB
 10
176.012
 20
101.979
 30
0.000000
  70
    32
  0
VERTEX
  8
0
  5
B0CC
 10
176.012
 20
101.978
 30
0.000000
  70
    32
  0
VERTEX
  8
0
  5
B0CD
 10
176.013
 20
101.976
 30
0.000000
  70
    32
  0
VERTEX
  8
0
  5
B0CE
 10
176.013
 20
101.975
 30
0.000000
  70
    32
  0
VERTEX
  8
0
  5
B0CF
 10
176.014
 20
101.974
 30
0.000000
  70
    32
  0
VERTEX
  8
0
  5
B0D0
 10
176.015
 20
101.973
 30
0.000000
  70
    32
  0
VERTEX
  8
0
  5
B0D1
 10
176.015
 20
101.972
 30
0.000000
  70
    32
  0
VERTEX
  8
0
  5
B0D2
 10
176.016
 20
101.970
 30
0.000000
  70
    32
  0
VERTEX
  8
0
  5
B0D3
 10
176.017
 20
101.969
 30
0.000000
  70
    32
  0
VERTEX
  8
0
  5
B0D4
 10
176.017
 20
101.968
 30
0.000000
  70
    32
  0
VERTEX
  8
0
  5
B0D5
 10
176.018
 20
101.967
 30
0.000000
  70
    32
  0
VERTEX
  8
0
  5
B0D6
 10
176.019
 20
101.965
 30
0.000000
  70
    32
  0
VERTEX
  8
0
  5
B0D7
 10
176.019
 20
101.964
 30
0.000000
  70
    32
  0
VERTEX
  8
0
  5
B0D8
 10
176.020
 20
101.963
 30
0.000000
  70
    32
  0
VERTEX
  8
0
  5
B0D9
 10
176.021
 20
101.962
 30
0.000000
  70
    32
  0
VERTEX
  8
0
  5
B0DA
 10
176.021
 20
101.961
 30
0.000000
  70
    32
  0
VERTEX
  8
0
  5
B0DB
 10
176.022
 20
101.959
 30
0.000000
  70
    32
  0
VERTEX
  8
0
  5
B0DC
 10
176.023
 20
101.958
 30
0.000000
  70
    32
  0
VERTEX
  8
0
  5
B0DD
 10
176.024
 20
101.957
 30
0.000000
  70
    32
  0
VERTEX
  8
0
  5
B0DE
 10
176.025
 20
101.956
 30
0.000000
  70
    32
  0
VERTEX
  8
0
  5
B0DF
 10
176.025
 20
101.955
 30
0.000000
  70
    32
  0
VERTEX
  8
0
  5
B0E0
 10
176.026
 20
101.953
 30
0.000000
  70
    32
  0
VERTEX
  8
0
  5
B0E1
 10
176.027
 20
101.952
 30
0.000000
  70
    32
  0
VERTEX
  8
0
  5
B0E2
 10
176.028
 20
101.951
 30
0.000000
  70
    32
  0
VERTEX
  8
0
  5
B0E3
 10
176.029
 20
101.950
 30
0.000000
  70
    32
  0
VERTEX
  8
0
  5
B0E4
 10
176.030
 20
101.948
 30
0.000000
  70
    32
  0
VERTEX
  8
0
  5
B0E5
 10
176.031
 20
101.947
 30
0.000000
  70
    32
  0
VERTEX
  8
0
  5
B0E6
 10
176.031
 20
101.946
 30
0.000000
  70
    32
  0
VERTEX
  8
0
  5
B0E7
 10
176.032
 20
101.945
 30
0.000000
  70
    32
  0
VERTEX
  8
0
  5
B0E8
 10
176.033
 20
101.944
 30
0.000000
  70
    32
  0
VERTEX
  8
0
  5
B0E9
 10
176.034
 20
101.942
 30
0.000000
  70
    32
  0
VERTEX
  8
0
  5
B0EA
 10
176.035
 20
101.941
 30
0.000000
  70
    32
  0
VERTEX
  8
0
  5
B0EB
 10
176.036
 20
101.940
 30
0.000000
  70
    32
  0
VERTEX
  8
0
  5
B0EC
 10
176.037
 20
101.939
 30
0.000000
  70
    32
  0
VERTEX
  8
0
  5
B0ED
 10
176.038
 20
101.938
 30
0.000000
  70
    32
  0
VERTEX
  8
0
  5
B0EE
 10
176.039
 20
101.936
 30
0.000000
  70
    32
  0
VERTEX
  8
0
  5
B0EF
 10
176.040
 20
101.935
 30
0.000000
  70
    32
  0
VERTEX
  8
0
  5
B0F0
 10
176.041
 20
101.934
 30
0.000000
  70
    32
  0
VERTEX
  8
0
  5
B0F1
 10
176.042
 20
101.933
 30
0.000000
  70
    32
  0
VERTEX
  8
0
  5
B0F2
 10
176.043
 20
101.931
 30
0.000000
  70
    32
  0
VERTEX
  8
0
  5
B0F3
 10
176.044
 20
101.930
 30
0.000000
  70
    32
  0
VERTEX
  8
0
  5
B0F4
 10
176.046
 20
101.929
 30
0.000000
  70
    32
  0
VERTEX
  8
0
  5
B0F5
 10
176.047
 20
101.928
 30
0.000000
  70
    32
  0
VERTEX
  8
0
  5
B0F6
 10
176.048
 20
101.927
 30
0.000000
  70
    32
  0
VERTEX
  8
0
  5
B0F7
 10
176.049
 20
101.925
 30
0.000000
  70
    32
  0
VERTEX
  8
0
  5
B0F8
 10
176.050
 20
101.924
 30
0.000000
  70
    32
  0
VERTEX
  8
0
  5
B0F9
 10
176.051
 20
101.923
 30
0.000000
  70
    32
  0
VERTEX
  8
0
  5
B0FA
 10
176.052
 20
101.922
 30
0.000000
  70
    32
  0
VERTEX
  8
0
  5
B0FB
 10
176.053
 20
101.921
 30
0.000000
  70
    32
  0
VERTEX
  8
0
  5
B0FC
 10
176.055
 20
101.919
 30
0.000000
  70
    32
  0
VERTEX
  8
0
  5
B0FD
 10
176.056
 20
101.918
 30
0.000000
  70
    32
  0
VERTEX
  8
0
  5
B0FE
 10
176.057
 20
101.917
 30
0.000000
  70
    32
  0
VERTEX
  8
0
  5
B0FF
 10
176.058
 20
101.916
 30
0.000000
  70
    32
  0
VERTEX
  8
0
  5
B100
 10
176.060
 20
101.915
 30
0.000000
  70
    32
  0
VERTEX
  8
0
  5
B101
 10
176.061
 20
101.913
 30
0.000000
  70
    32
  0
VERTEX
  8
0
  5
B102
 10
176.062
 20
101.912
 30
0.000000
  70
    32
  0
VERTEX
  8
0
  5
B103
 10
176.063
 20
101.911
 30
0.000000
  70
    32
  0
VERTEX
  8
0
  5
B104
 10
176.065
 20
101.910
 30
0.000000
  70
    32
  0
VERTEX
  8
0
  5
B105
 10
176.066
 20
101.909
 30
0.000000
  70
    32
  0
VERTEX
  8
0
  5
B106
 10
176.067
 20
101.907
 30
0.000000
  70
    32
  0
VERTEX
  8
0
  5
B107
 10
176.069
 20
101.906
 30
0.000000
  70
    32
  0
VERTEX
  8
0
  5
B108
 10
176.070
 20
101.905
 30
0.000000
  70
    32
  0
VERTEX
  8
0
  5
B109
 10
176.071
 20
101.904
 30
0.000000
  70
    32
  0
VERTEX
  8
0
  5
B10A
 10
176.073
 20
101.903
 30
0.000000
  70
    32
  0
VERTEX
  8
0
  5
B10B
 10
176.074
 20
101.901
 30
0.000000
  70
    32
  0
VERTEX
  8
0
  5
B10C
 10
176.076
 20
101.900
 30
0.000000
  70
    32
  0
VERTEX
  8
0
  5
B10D
 10
176.077
 20
101.899
 30
0.000000
  70
    32
  0
VERTEX
  8
0
  5
B10E
 10
176.078
 20
101.898
 30
0.000000
  70
    32
  0
VERTEX
  8
0
  5
B10F
 10
176.080
 20
101.897
 30
0.000000
  70
    32
  0
VERTEX
  8
0
  5
B110
 10
176.081
 20
101.895
 30
0.000000
  70
    32
  0
VERTEX
  8
0
  5
B111
 10
176.083
 20
101.894
 30
0.000000
  70
    32
  0
VERTEX
  8
0
  5
B112
 10
176.084
 20
101.893
 30
0.000000
  70
    32
  0
VERTEX
  8
0
  5
B113
 10
176.086
 20
101.892
 30
0.000000
  70
    32
  0
VERTEX
  8
0
  5
B114
 10
176.087
 20
101.891
 30
0.000000
  70
    32
  0
VERTEX
  8
0
  5
B115
 10
176.089
 20
101.890
 30
0.000000
  70
    32
  0
VERTEX
  8
0
  5
B116
 10
176.090
 20
101.888
 30
0.000000
  70
    32
  0
VERTEX
  8
0
  5
B117
 10
176.092
 20
101.887
 30
0.000000
  70
    32
  0
VERTEX
  8
0
  5
B118
 10
176.093
 20
101.886
 30
0.000000
  70
    32
  0
VERTEX
  8
0
  5
B119
 10
176.095
 20
101.885
 30
0.000000
  70
    32
  0
VERTEX
  8
0
  5
B11A
 10
176.096
 20
101.884
 30
0.000000
  70
    32
  0
VERTEX
  8
0
  5
B11B
 10
176.098
 20
101.882
 30
0.000000
  70
    32
  0
VERTEX
  8
0
  5
B11C
 10
176.100
 20
101.881
 30
0.000000
  70
    32
  0
VERTEX
  8
0
  5
B11D
 10
176.101
 20
101.880
 30
0.000000
  70
    32
  0
VERTEX
  8
0
  5
B11E
 10
176.103
 20
101.879
 30
0.000000
  70
    32
  0
VERTEX
  8
0
  5
B11F
 10
176.105
 20
101.878
 30
0.000000
  70
    32
  0
VERTEX
  8
0
  5
B120
 10
176.106
 20
101.876
 30
0.000000
  70
    32
  0
VERTEX
  8
0
  5
B121
 10
176.108
 20
101.875
 30
0.000000
  70
    32
  0
SEQEND
  8
0
  5
B122
  0
LINE
  5
92E5
  8
0
 10
223.8921454109325
 20
101.875305055897
 30
0.0
 11
176.1078543961932
 21
101.8753064982499
 31
0.0
  0
LINE
  5
92E7
  8
0
 10
175.99999979139309
 20
105.8753034286499
 30
0.0
 11
224.00000020869319
 21
105.8753034286499
 31
0.0
  0
POLYLINE
  5
92E8
  8
0
 10
184.30000000009318
 20
105.87530505584023
 30
0.0
 66
     1
 70
     8
  0
VERTEX
  8
0
  5
B123
 10
184.300
 20
105.875
 30
0.000000
  70
    32
  0
VERTEX
  8
0
  5
B124
 10
184.304
 20
105.800
 30
0.000000
  70
    32
  0
VERTEX
  8
0
  5
B125
 10
184.318
 20
105.725
 30
0.000000
  70
    32
  0
VERTEX
  8
0
  5
B126
 10
184.341
 20
105.651
 30
0.000000
  70
    32
  0
VERTEX
  8
0
  5
B127
 10
184.373
 20
105.576
 30
0.000000
  70
    32
  0
VERTEX
  8
0
  5
B128
 10
184.415
 20
105.501
 30
0.000000
  70
    32
  0
VERTEX
  8
0
  5
B129
 10
184.466
 20
105.427
 30
0.000000
  70
    32
  0
VERTEX
  8
0
  5
B12A
 10
184.527
 20
105.353
 30
0.000000
  70
    32
  0
VERTEX
  8
0
  5
B12B
 10
184.597
 20
105.279
 30
0.000000
  70
    32
  0
VERTEX
  8
0
  5
B12C
 10
184.676
 20
105.206
 30
0.000000
  70
    32
  0
VERTEX
  8
0
  5
B12D
 10
184.765
 20
105.133
 30
0.000000
  70
    32
  0
VERTEX
  8
0
  5
B12E
 10
184.863
 20
105.060
 30
0.000000
  70
    32
  0
VERTEX
  8
0
  5
B12F
 10
184.970
 20
104.988
 30
0.000000
  70
    32
  0
VERTEX
  8
0
  5
B130
 10
185.086
 20
104.917
 30
0.000000
  70
    32
  0
VERTEX
  8
0
  5
B131
 10
185.211
 20
104.846
 30
0.000000
  70
    32
  0
VERTEX
  8
0
  5
B132
 10
185.345
 20
104.776
 30
0.000000
  70
    32
  0
VERTEX
  8
0
  5
B133
 10
185.487
 20
104.706
 30
0.000000
  70
    32
  0
VERTEX
  8
0
  5
B134
 10
185.639
 20
104.637
 30
0.000000
  70
    32
  0
VERTEX
  8
0
  5
B135
 10
185.799
 20
104.569
 30
0.000000
  70
    32
  0
VERTEX
  8
0
  5
B136
 10
185.968
 20
104.501
 30
0.000000
  70
    32
  0
VERTEX
  8
0
  5
B137
 10
186.145
 20
104.435
 30
0.000000
  70
    32
  0
VERTEX
  8
0
  5
B138
 10
186.331
 20
104.369
 30
0.000000
  70
    32
  0
VERTEX
  8
0
  5
B139
 10
186.525
 20
104.304
 30
0.000000
  70
    32
  0
VERTEX
  8
0
  5
B13A
 10
186.727
 20
104.240
 30
0.000000
  70
    32
  0
VERTEX
  8
0
  5
B13B
 10
186.937
 20
104.177
 30
0.000000
  70
    32
  0
VERTEX
  8
0
  5
B13C
 10
187.155
 20
104.115
 30
0.000000
  70
    32
  0
VERTEX
  8
0
  5
B13D
 10
187.380
 20
104.055
 30
0.000000
  70
    32
  0
VERTEX
  8
0
  5
B13E
 10
187.613
 20
103.995
 30
0.000000
  70
    32
  0
VERTEX
  8
0
  5
B13F
 10
187.854
 20
103.936
 30
0.000000
  70
    32
  0
VERTEX
  8
0
  5
B140
 10
188.102
 20
103.879
 30
0.000000
  70
    32
  0
VERTEX
  8
0
  5
B141
 10
188.358
 20
103.823
 30
0.000000
  70
    32
  0
VERTEX
  8
0
  5
B142
 10
188.620
 20
103.768
 30
0.000000
  70
    32
  0
VERTEX
  8
0
  5
B143
 10
188.889
 20
103.714
 30
0.000000
  70
    32
  0
VERTEX
  8
0
  5
B144
 10
189.165
 20
103.662
 30
0.000000
  70
    32
  0
VERTEX
  8
0
  5
B145
 10
189.447
 20
103.611
 30
0.000000
  70
    32
  0
VERTEX
  8
0
  5
B146
 10
189.736
 20
103.561
 30
0.000000
  70
    32
  0
VERTEX
  8
0
  5
B147
 10
190.031
 20
103.513
 30
0.000000
  70
    32
  0
VERTEX
  8
0
  5
B148
 10
190.332
 20
103.466
 30
0.000000
  70
    32
  0
VERTEX
  8
0
  5
B149
 10
190.639
 20
103.420
 30
0.000000
  70
    32
  0
VERTEX
  8
0
  5
B14A
 10
190.951
 20
103.376
 30
0.000000
  70
    32
  0
VERTEX
  8
0
  5
B14B
 10
191.269
 20
103.334
 30
0.000000
  70
    32
  0
VERTEX
  8
0
  5
B14C
 10
191.592
 20
103.293
 30
0.000000
  70
    32
  0
VERTEX
  8
0
  5
B14D
 10
191.921
 20
103.253
 30
0.000000
  70
    32
  0
VERTEX
  8
0
  5
B14E
 10
192.254
 20
103.216
 30
0.000000
  70
    32
  0
VERTEX
  8
0
  5
B14F
 10
192.592
 20
103.179
 30
0.000000
  70
    32
  0
VERTEX
  8
0
  5
B150
 10
192.934
 20
103.145
 30
0.000000
  70
    32
  0
VERTEX
  8
0
  5
B151
 10
193.281
 20
103.112
 30
0.000000
  70
    32
  0
VERTEX
  8
0
  5
B152
 10
193.631
 20
103.081
 30
0.000000
  70
    32
  0
VERTEX
  8
0
  5
B153
 10
193.986
 20
103.051
 30
0.000000
  70
    32
  0
VERTEX
  8
0
  5
B154
 10
194.344
 20
103.023
 30
0.000000
  70
    32
  0
VERTEX
  8
0
  5
B155
 10
194.705
 20
102.997
 30
0.000000
  70
    32
  0
VERTEX
  8
0
  5
B156
 10
195.070
 20
102.973
 30
0.000000
  70
    32
  0
VERTEX
  8
0
  5
B157
 10
195.438
 20
102.950
 30
0.000000
  70
    32
  0
VERTEX
  8
0
  5
B158
 10
195.808
 20
102.929
 30
0.000000
  70
    32
  0
VERTEX
  8
0
  5
B159
 10
196.181
 20
102.910
 30
0.000000
  70
    32
  0
VERTEX
  8
0
  5
B15A
 10
196.556
 20
102.893
 30
0.000000
  70
    32
  0
VERTEX
  8
0
  5
B15B
 10
196.934
 20
102.877
 30
0.000000
  70
    32
  0
VERTEX
  8
0
  5
B15C
 10
197.313
 20
102.863
 30
0.000000
  70
    32
  0
VERTEX
  8
0
  5
B15D
 10
197.694
 20
102.851
 30
0.000000
  70
    32
  0
VERTEX
  8
0
  5
B15E
 10
198.076
 20
102.841
 30
0.000000
  70
    32
  0
VERTEX
  8
0
  5
B15F
 10
198.459
 20
102.833
 30
0.000000
  70
    32
  0
VERTEX
  8
0
  5
B160
 10
198.844
 20
102.827
 30
0.000000
  70
    32
  0
VERTEX
  8
0
  5
B161
 10
199.229
 20
102.822
 30
0.000000
  70
    32
  0
VERTEX
  8
0
  5
B162
 10
199.614
 20
102.819
 30
0.000000
  70
    32
  0
VERTEX
  8
0
  5
B163
 10
200.000
 20
102.818
 30
0.000000
  70
    32
  0
VERTEX
  8
0
  5
B164
 10
200.386
 20
102.819
 30
0.000000
  70
    32
  0
VERTEX
  8
0
  5
B165
 10
200.771
 20
102.822
 30
0.000000
  70
    32
  0
VERTEX
  8
0
  5
B166
 10
201.156
 20
102.827
 30
0.000000
  70
    32
  0
VERTEX
  8
0
  5
B167
 10
201.541
 20
102.833
 30
0.000000
  70
    32
  0
VERTEX
  8
0
  5
B168
 10
201.924
 20
102.841
 30
0.000000
  70
    32
  0
VERTEX
  8
0
  5
B169
 10
202.306
 20
102.851
 30
0.000000
  70
    32
  0
VERTEX
  8
0
  5
B16A
 10
202.687
 20
102.863
 30
0.000000
  70
    32
  0
VERTEX
  8
0
  5
B16B
 10
203.066
 20
102.877
 30
0.000000
  70
    32
  0
VERTEX
  8
0
  5
B16C
 10
203.444
 20
102.893
 30
0.000000
  70
    32
  0
VERTEX
  8
0
  5
B16D
 10
203.819
 20
102.910
 30
0.000000
  70
    32
  0
VERTEX
  8
0
  5
B16E
 10
204.192
 20
102.929
 30
0.000000
  70
    32
  0
VERTEX
  8
0
  5
B16F
 10
204.562
 20
102.950
 30
0.000000
  70
    32
  0
VERTEX
  8
0
  5
B170
 10
204.930
 20
102.973
 30
0.000000
  70
    32
  0
VERTEX
  8
0
  5
B171
 10
205.295
 20
102.997
 30
0.000000
  70
    32
  0
VERTEX
  8
0
  5
B172
 10
205.656
 20
103.023
 30
0.000000
  70
    32
  0
VERTEX
  8
0
  5
B173
 10
206.014
 20
103.051
 30
0.000000
  70
    32
  0
VERTEX
  8
0
  5
B174
 10
206.369
 20
103.081
 30
0.000000
  70
    32
  0
VERTEX
  8
0
  5
B175
 10
206.719
 20
103.112
 30
0.000000
  70
    32
  0
VERTEX
  8
0
  5
B176
 10
207.066
 20
103.145
 30
0.000000
  70
    32
  0
VERTEX
  8
0
  5
B177
 10
207.408
 20
103.179
 30
0.000000
  70
    32
  0
VERTEX
  8
0
  5
B178
 10
207.746
 20
103.216
 30
0.000000
  70
    32
  0
VERTEX
  8
0
  5
B179
 10
208.079
 20
103.253
 30
0.000000
  70
    32
  0
VERTEX
  8
0
  5
B17A
 10
208.408
 20
103.293
 30
0.000000
  70
    32
  0
VERTEX
  8
0
  5
B17B
 10
208.731
 20
103.334
 30
0.000000
  70
    32
  0
VERTEX
  8
0
  5
B17C
 10
209.049
 20
103.376
 30
0.000000
  70
    32
  0
VERTEX
  8
0
  5
B17D
 10
209.361
 20
103.420
 30
0.000000
  70
    32
  0
VERTEX
  8
0
  5
B17E
 10
209.668
 20
103.466
 30
0.000000
  70
    32
  0
VERTEX
  8
0
  5
B17F
 10
209.969
 20
103.513
 30
0.000000
  70
    32
  0
VERTEX
  8
0
  5
B180
 10
210.264
 20
103.561
 30
0.000000
  70
    32
  0
VERTEX
  8
0
  5
B181
 10
210.553
 20
103.611
 30
0.000000
  70
    32
  0
VERTEX
  8
0
  5
B182
 10
210.835
 20
103.662
 30
0.000000
  70
    32
  0
VERTEX
  8
0
  5
B183
 10
211.111
 20
103.714
 30
0.000000
  70
    32
  0
VERTEX
  8
0
  5
B184
 10
211.380
 20
103.768
 30
0.000000
  70
    32
  0
VERTEX
  8
0
  5
B185
 10
211.642
 20
103.823
 30
0.000000
  70
    32
  0
VERTEX
  8
0
  5
B186
 10
211.898
 20
103.879
 30
0.000000
  70
    32
  0
VERTEX
  8
0
  5
B187
 10
212.146
 20
103.936
 30
0.000000
  70
    32
  0
VERTEX
  8
0
  5
B188
 10
212.387
 20
103.995
 30
0.000000
  70
    32
  0
VERTEX
  8
0
  5
B189
 10
212.620
 20
104.055
 30
0.000000
  70
    32
  0
VERTEX
  8
0
  5
B18A
 10
212.845
 20
104.115
 30
0.000000
  70
    32
  0
VERTEX
  8
0
  5
B18B
 10
213.063
 20
104.177
 30
0.000000
  70
    32
  0
VERTEX
  8
0
  5
B18C
 10
213.273
 20
104.240
 30
0.000000
  70
    32
  0
VERTEX
  8
0
  5
B18D
 10
213.475
 20
104.304
 30
0.000000
  70
    32
  0
VERTEX
  8
0
  5
B18E
 10
213.669
 20
104.369
 30
0.000000
  70
    32
  0
VERTEX
  8
0
  5
B18F
 10
213.855
 20
104.435
 30
0.000000
  70
    32
  0
VERTEX
  8
0
  5
B190
 10
214.032
 20
104.501
 30
0.000000
  70
    32
  0
VERTEX
  8
0
  5
B191
 10
214.201
 20
104.569
 30
0.000000
  70
    32
  0
VERTEX
  8
0
  5
B192
 10
214.361
 20
104.637
 30
0.000000
  70
    32
  0
VERTEX
  8
0
  5
B193
 10
214.513
 20
104.706
 30
0.000000
  70
    32
  0
VERTEX
  8
0
  5
B194
 10
214.655
 20
104.776
 30
0.000000
  70
    32
  0
VERTEX
  8
0
  5
B195
 10
214.789
 20
104.846
 30
0.000000
  70
    32
  0
VERTEX
  8
0
  5
B196
 10
214.914
 20
104.917
 30
0.000000
  70
    32
  0
VERTEX
  8
0
  5
B197
 10
215.030
 20
104.988
 30
0.000000
  70
    32
  0
VERTEX
  8
0
  5
B198
 10
215.137
 20
105.060
 30
0.000000
  70
    32
  0
VERTEX
  8
0
  5
B199
 10
215.235
 20
105.133
 30
0.000000
  70
    32
  0
VERTEX
  8
0
  5
B19A
 10
215.324
 20
105.206
 30
0.000000
  70
    32
  0
VERTEX
  8
0
  5
B19B
 10
215.403
 20
105.279
 30
0.000000
  70
    32
  0
VERTEX
  8
0
  5
B19C
 10
215.473
 20
105.353
 30
0.000000
  70
    32
  0
VERTEX
  8
0
  5
B19D
 10
215.534
 20
105.427
 30
0.000000
  70
    32
  0
VERTEX
  8
0
  5
B19E
 10
215.585
 20
105.501
 30
0.000000
  70
    32
  0
VERTEX
  8
0
  5
B19F
 10
215.627
 20
105.576
 30
0.000000
  70
    32
  0
VERTEX
  8
0
  5
B1A0
 10
215.659
 20
105.651
 30
0.000000
  70
    32
  0
VERTEX
  8
0
  5
B1A1
 10
215.682
 20
105.725
 30
0.000000
  70
    32
  0
VERTEX
  8
0
  5
B1A2
 10
215.696
 20
105.800
 30
0.000000
  70
    32
  0
VERTEX
  8
0
  5
B1A3
 10
215.700
 20
105.875
 30
0.000000
  70
    32
  0
SEQEND
  8
0
  5
B1A4
  0
LINE
  5
92EC
  8
0
 10
177.43500024089309
 20
92.507508974549921
 30
0.0
 11
175.99999979139309
 21
92.507508974549921
 31
0.0
  0
LINE
  5
92EE
  8
0
 10
222.56499975929319
 20
92.507508974549921
 30
0.0
 11
224.00000020869319
 21
92.507508974549921
 31
0.0
  0
LINE
  5
92F0
  8
0
 10
224.00000020869319
 20
55.575305055849917
 30
0.0
 11
224.00000020869319
 21
105.8753034286499
 31
0.0
  0
LINE
  5
92F2
  8
0
 10
175.99999979139309
 20
105.8753034286499
 30
0.0
 11
175.99999979139309
 21
55.575305055849917
 31
0.0
  0
LINE
  5
92F3
  8
0
 10
175.99999979139309
 20
55.575305055849917
 30
0.0
 11
224.00000020869319
 21
55.575305055849917
 31
0.0
  0
LINE
  5
9302
  8
0
 10
175.99999979139309
 20
87.575306575749934
 30
0.0
 11
174.85000081369321
 21
87.575306575749934
 31
0.0
  0
LINE
  5
9304
  8
0
 10
174.85000081369321
 20
63.275305014149971
 30
0.0
 11
175.99999979139309
 21
63.275305014149971
 31
0.0
  0
LINE
  5
9305
  8
0
 10
174.85000081369321
 20
87.575306575749934
 30
0.0
 11
174.85000081369321
 21
63.275305014149971
 31
0.0
  0
LINE
  5
9313
  8
1
 10
329.25000011924328
 20
155.47530323264999
 30
0.0
 11
329.25000011924328
 21
177.97530435025001
 31
0.0
  0
LINE
  5
9316
  8
1
 10
70.74999988089337
 20
155.47530323264991
 30
0.0
 11
70.749999880893427
 21
177.97530435025001
 31
0.0
  0
LINE
  5
9317
  8
1
 10
184.99999986964329
 20
155.47530323264999
 30
0.0
 11
184.9999998696434
 21
177.97530435025001
 31
0.0
  0
LINE
  5
9318
  8
1
 10
215.00000013039329
 20
160.47530591485
 30
0.0
 11
215.00000013039329
 21
177.97530435025001
 31
0.0
  0
LINE
  5
94E5
  8
0
 10
301.77062533794327
 20
225.39177425205
 30
0.0
 11
299.23491336404328
 21
219.95392702525001
 31
0.0
  0
LINE
  5
95C8
  8
0
 10
175.99999996420749
 20
229.9103050128501
 30
0.0
 11
224.000000035862
 21
229.9103050128501
 31
0.0
  0
LINE
  5
95C9
  8
0
 10
98.229374662143343
 20
225.39177425204991
 30
0.0
 11
100.76508663604331
 21
219.95392702525001
 31
0.0
  0
LINE
  5
96C9
  8
0
 10
175.99999979129331
 20
301.40603340165001
 30
0.0
 11
224.00000020859341
 21
301.40603340165001
 31
0.0
  0
LINE
  5
97B7
  8
3
 10
188.3235006109434
 20
162.47530728575001
 30
0.0
 11
188.3235006109434
 21
167.47530624275001
 31
0.0
  0
LINE
  5
97B8
  8
3
 10
181.67650061094321
 20
162.47530728575001
 30
0.0
 11
181.67650061094321
 21
167.47530624275001
 31
0.0
  0
LINE
  5
97B9
  8
3
 10
74.073500622193421
 20
162.47530728575001
 30
0.0
 11
74.073500622193421
 21
167.47530624275001
 31
0.0
  0
LINE
  5
97BA
  8
3
 10
67.426500622193203
 20
162.47530728575001
 30
0.0
 11
67.426500622193203
 21
167.47530624275001
 31
0.0
  0
LINE
  5
97BB
  8
3
 10
332.57350086054339
 20
162.47530728575001
 30
0.0
 11
332.57350086054339
 21
165.47530591485
 31
0.0
  0
LINE
  5
97BC
  8
3
 10
325.92650086054311
 20
162.47530728575001
 30
0.0
 11
325.92650086054311
 21
165.47530591485
 31
0.0
  0
LINE
  5
A6E3
  8
0
 10
195.19999977205009
 20
171.77530452605001
 30
0.0
 11
195.39999989795001
 21
168.91517192124999
 31
0.0
  0
LINE
  5
A6E4
  8
0
 10
204.60000010215001
 20
168.91517192124999
 30
0.0
 11
204.8000002280501
 21
171.77530452605001
 31
0.0
  0
LINE
  5
A6E5
  8
0
 10
204.8000002280501
 20
171.77530452605001
 30
0.0
 11
204.8000002280501
 21
172.97530435025001
 31
0.0
  0
LINE
  5
A6E6
  8
0
 10
195.19999977205009
 20
172.97530435025001
 30
0.0
 11
195.19999977205009
 21
171.77530452605001
 31
0.0
  0
LINE
  5
A6E7
  8
0
 10
204.60000010215001
 20
165.17530456185
 30
0.0
 11
204.60000010215001
 21
168.91517192124999
 31
0.0
  0
LINE
  5
A6E8
  8
0
 10
195.39999989795001
 20
168.91517192124999
 30
0.0
 11
195.39999989795001
 21
165.17530456185
 31
0.0
  0
LINE
  5
A6E9
  8
0
 10
195.19999977205009
 20
171.77530452605001
 30
0.0
 11
204.8000002280501
 21
171.77530452605001
 31
0.0
  0
LINE
  5
A6EA
  8
0
 10
195.39999989795001
 20
168.91517192124999
 30
0.0
 11
204.60000010215001
 21
168.91517192124999
 31
0.0
  0
LINE
  5
A6EB
  8
0
 10
195.39999989795001
 20
165.17530456185
 30
0.0
 11
204.60000010215001
 21
165.17530456185
 31
0.0
  0
LINE
  5
A6EC
  8
0
 10
80.450000166943354
 20
171.77530452604989
 30
0.0
 11
80.649999827143347
 21
168.91517192124991
 31
0.0
  0
LINE
  5
A6ED
  8
0
 10
89.850000962643378
 20
168.91517192124991
 30
0.0
 11
89.987065568643345
 21
170.8753041922499
 31
0.0
  0
LINE
  5
A6EE
  8
0
 10
80.450000166943354
 20
172.9753043502499
 30
0.0
 11
80.450000166943354
 21
171.77530452604989
 31
0.0
  0
LINE
  5
A6EF
  8
0
 10
89.850000962643378
 20
165.17530456184991
 30
0.0
 11
89.850000962643378
 21
168.91517192124991
 31
0.0
  0
LINE
  5
A6F0
  8
0
 10
80.649999827143347
 20
168.91517192124991
 30
0.0
 11
80.649999827143347
 21
165.17530456184991
 31
0.0
  0
LINE
  5
A6F1
  8
0
 10
80.450000166943354
 20
171.77530452604989
 30
0.0
 11
87.650000974543332
 21
171.77530452604989
 31
0.0
  0
LINE
  5
A6F2
  8
0
 10
80.649999827143347
 20
168.91517192124991
 30
0.0
 11
89.850000962643378
 21
168.91517192124991
 31
0.0
  0
LINE
  5
A6F3
  8
0
 10
80.649999827143347
 20
165.17530456184991
 30
0.0
 11
89.850000962643378
 21
165.17530456184991
 31
0.0
  0
LINE
  5
A6F4
  8
0
 10
319.54999983314332
 20
171.77530452605001
 30
0.0
 11
319.54999983314332
 21
172.97530435025001
 31
0.0
  0
LINE
  5
A6F5
  8
0
 10
310.01293443144328
 20
170.87530419225001
 30
0.0
 11
310.14999903744331
 21
168.91517192124999
 31
0.0
  0
LINE
  5
A6F6
  8
0
 10
319.35000017294328
 20
168.91517192124999
 30
0.0
 11
319.54999983314332
 21
171.77530452605001
 31
0.0
  0
LINE
  5
A6F7
  8
0
 10
319.35000017294328
 20
165.17530456185
 30
0.0
 11
319.35000017294328
 21
168.91517192124999
 31
0.0
  0
LINE
  5
A6F8
  8
0
 10
310.14999903744331
 20
168.91517192124999
 30
0.0
 11
310.14999903744331
 21
165.17530456185
 31
0.0
  0
LINE
  5
A6F9
  8
0
 10
312.3499990255433
 20
171.77530452605001
 30
0.0
 11
319.54999983314332
 21
171.77530452605001
 31
0.0
  0
LINE
  5
A6FA
  8
0
 10
310.14999903744331
 20
168.91517192124999
 30
0.0
 11
319.35000017294328
 21
168.91517192124999
 31
0.0
  0
LINE
  5
A6FB
  8
0
 10
310.14999903744331
 20
165.17530456185
 30
0.0
 11
319.35000017294328
 21
165.17530456185
 31
0.0
  0
CIRCLE
  5
A798
  8
0
 10
200.000000000093
 20
88.425305055849947
 30
0.0
 40
3.8000000000124592
  0
CIRCLE
  5
A79A
  8
0
 10
200.000000000093
 20
88.425305055849947
 30
0.0
 40
3.499999999977788
  0
CIRCLE
  5
A79B
  8
0
 10
200.740000000093
 20
86.675305055849947
 30
0.0
 40
0.3999999999999915
  0
CIRCLE
  5
A79C
  8
0
 10
201.90000000009309
 20
88.425305055849947
 30
0.0
 40
0.3999999999999773
  0
CIRCLE
  5
A79D
  8
0
 10
200.740000000093
 20
90.175305055849947
 30
0.0
 40
0.4000000000000057
  0
CIRCLE
  5
A79E
  8
0
 10
198.68000000009309
 20
87.055305055849928
 30
0.0
 40
0.4000000000000199
  0
CIRCLE
  5
A79F
  8
0
 10
198.68000000009309
 20
89.795305055849937
 30
0.0
 40
0.3999999999999915
  0
CIRCLE
  5
A7A0
  8
0
 10
200.000000000093
 20
88.425305055849947
 30
0.0
 40
0.4000000000000057
  0
ARC
  5
A7A1
  8
0
 10
197.500000000093
 20
88.525305055849969
 30
0.0
 40
0.5
 50
0.0
 51
90.0
  0
LINE
  5
A7A2
  8
0
 10
197.26504110739299
 20
89.025305043949928
 30
0.0
 11
197.50000005599301
 21
89.025305043949928
 31
0.0
  0
LINE
  5
A7A3
  8
0
 10
197.50000005599301
 20
87.825303357149934
 30
0.0
 11
197.26504110739299
 21
87.825303357149934
 31
0.0
  0
ARC
  5
A7A4
  8
0
 10
197.500000000093
 20
88.325305055849967
 30
0.0
 40
0.5
 50
270.0
 51
0.0
  0
LINE
  5
A7A5
  8
0
 10
197.99999990509309
 20
88.525304030649934
 30
0.0
 11
197.99999990509309
 21
88.325304370449942
 31
0.0
  0
ARC
  5
A7A6
  8
0
 10
200.000000000093
 20
88.425305055849947
 30
0.0
 40
2.7999999999999781
 50
192.37362511619969
 51
167.6263748838002
  0
CIRCLE
  5
A7A7
  8
0
 10
200.000000000093
 20
88.425305055849947
 30
0.0
 40
4.7999999999999972
  0
LINE
  5
A7A8
  8
1
 10
85.250000394893362
 20
160.17530456184991
 30
0.0
 11
85.250000394893377
 21
177.97530435025001
 31
0.0
  0
LINE
  5
A7AA
  8
1
 10
314.7499996051933
 20
160.17530456185
 30
0.0
 11
314.7499996051933
 21
177.97530435025001
 31
0.0
  0
LINE
  5
A7C5
  8
1
 10
190.20000000009301
 20
88.425305055849947
 30
0.0
 11
209.80000000009301
 21
88.425305055849947
 31
0.0
  0
TEXT
  5
AB03
  8
0
 10
201.19276695616611
 20
319.0468968645622
 30
0.0
 40
7.7850038813175848
  1
4
 41
0.65
  7
SIM065
 72
     4
 11
203.0000000000434
 21
322.93939880522089
 31
0.0
  0
TEXT
  5
AB04
  8
0
 10
184.3975889853175
 20
319.0468968645622
 30
0.0
 40
7.7850038813175848
  1
1
 41
0.65
  7
SIM065
 72
     4
 11
184.9999999999433
 21
322.93939880522089
 31
0.0
  0
TEXT
  5
AB05
  8
0
 10
189.31324915899111
 20
319.0468968645622
 30
0.0
 40
7.7850038813175848
  1
2
 41
0.65
  7
SIM065
 72
     4
 11
190.9999999999433
 21
322.93939880522089
 31
0.0
  0
TEXT
  5
AB06
  8
0
 10
195.3132491589912
 20
319.0468968645622
 30
0.0
 40
7.7850038813175848
  1
3
 41
0.65
  7
SIM065
 72
     4
 11
196.9999999999433
 21
322.93939880522089
 31
0.0
  0
TEXT
  5
AB07
  8
0
 10
207.3132491590913
 20
319.0468968645622
 30
0.0
 40
7.7850038813175848
  1
5
 41
0.65
  7
SIM065
 72
     4
 11
209.0000000000434
 21
322.93939880522089
 31
0.0
  0
TEXT
  5
AB08
  8
0
 10
213.4337313620164
 20
319.0468968645622
 30
0.0
 40
7.7850038813175848
  1
6
 41
0.65
  7
SIM065
 72
     4
 11
215.0000000000434
 21
322.93939880522089
 31
0.0
  0
TEXT
  5
AB09
  8
0
 10
201.19276695616611
 20
309.01205316431469
 30
0.0
 40
7.7850038813175848
  1
4
 41
0.65
  7
SIM065
 72
     4
 11
203.0000000000434
 21
312.90455510497361
 31
0.0
  0
TEXT
  5
AB0A
  8
0
 10
184.3975889853175
 20
309.01205316431469
 30
0.0
 40
7.7850038813175848
  1
1
 41
0.65
  7
SIM065
 72
     4
 11
184.9999999999433
 21
312.90455510497361
 31
0.0
  0
TEXT
  5
AB0B
  8
0
 10
189.31324915899111
 20
309.01205316431469
 30
0.0
 40
7.7850038813175848
  1
2
 41
0.65
  7
SIM065
 72
     4
 11
190.9999999999433
 21
312.90455510497361
 31
0.0
  0
TEXT
  5
AB0C
  8
0
 10
195.3132491589912
 20
309.01205316431469
 30
0.0
 40
7.7850038813175848
  1
3
 41
0.65
  7
SIM065
 72
     4
 11
196.9999999999433
 21
312.90455510497361
 31
0.0
  0
TEXT
  5
AB0D
  8
0
 10
207.3132491590913
 20
309.01205316431469
 30
0.0
 40
7.7850038813175848
  1
5
 41
0.65
  7
SIM065
 72
     4
 11
209.0000000000434
 21
312.90455510497361
 31
0.0
  0
TEXT
  5
AB0E
  8
0
 10
213.4337313620164
 20
309.01205316431469
 30
0.0
 40
7.7850038813175848
  1
6
 41
0.65
  7
SIM065
 72
     4
 11
215.0000000000434
 21
312.90455510497361
 31
0.0
  0
ENDSEC
  0
EOF
