  0
SECTION
  2
HEADER
  9
$ACADVER
  1
AC1009
  9
$INSBASE
 10
0.0
 20
0.0
 30
0.0
  9
$EXTMIN
 10
0.0
 20
-1.4802182810368341
 30
0.0
  9
$EXTMAX
 10
111.8757627102941
 20
53.229324068237361
 30
0.0
  9
$LIMMIN
 10
0.0
 20
0.0
  9
$LIMMAX
 10
375.0
 20
270.0
  9
$ORTHOMODE
 70
     1
  9
$REGENMODE
 70
     1
  9
$FILLMODE
 70
     1
  9
$QTEXTMODE
 70
     0
  9
$MIRRTEXT
 70
     0
  9
$DRAGMODE
 70
     2
  9
$LTSCALE
 40
10.0
  9
$OSMODE
 70
    37
  9
$ATTMODE
 70
     1
  9
$TEXTSIZE
 40
0.2
  9
$TRACEWID
 40
0.05
  9
$TEXTSTYLE
  7
STANDARD
  9
$CLAYER
  8
0
  9
$CELTYPE
  6
BYLAYER
  9
$CECOLOR
 62
   256
  9
$DIMSCALE
 40
1.0
  9
$DIMASZ
 40
3.0
  9
$DIMEXO
 40
2.0
  9
$DIMDLI
 40
0.38
  9
$DIMRND
 40
0.0
  9
$DIMDLE
 40
0.0
  9
$DIMEXE
 40
2.0
  9
$DIMTP
 40
0.0
  9
$DIMTM
 40
0.0
  9
$DIMTXT
 40
3.2000000000000002
  9
$DIMCEN
 40
0.0
  9
$DIMTSZ
 40
0.0
  9
$DIMTOL
 70
     0
  9
$DIMLIM
 70
     0
  9
$DIMTIH
 70
     0
  9
$DIMTOH
 70
     0
  9
$DIMSE1
 70
     0
  9
$DIMSE2
 70
     0
  9
$DIMTAD
 70
     1
  9
$DIMZIN
 70
     0
  9
$DIMBLK
  1

  9
$DIMASO
 70
     0
  9
$DIMSHO
 70
     0
  9
$DIMPOST
  1

  9
$DIMAPOST
  1

  9
$DIMALT
 70
     0
  9
$DIMALTD
 70
     2
  9
$DIMALTF
 40
25.399999999999999
  9
$DIMLFAC
 40
1.0
  9
$DIMTOFL
 70
     1
  9
$DIMTVP
 40
1.6000000000000001
  9
$DIMTIX
 70
     1
  9
$DIMSOXD
 70
     0
  9
$DIMSAH
 70
     0
  9
$DIMBLK1
  1

  9
$DIMBLK2
  1

  9
$DIMSTYLE
  2
STANDARD
  9
$DIMCLRD
 70
     0
  9
$DIMCLRE
 70
     0
  9
$DIMCLRT
 70
     0
  9
$DIMTFAC
 40
1.0
  9
$DIMGAP
 40
0.09
  9
$LUNITS
 70
     2
  9
$LUPREC
 70
     4
  9
$SKETCHINC
 40
0.1
  9
$FILLETRAD
 40
0.0
  9
$AUNITS
 70
     0
  9
$AUPREC
 70
     4
  9
$MENU
  1
E:\r13\win\SUPPORT\ACAD
  9
$ELEVATION
 40
0.0
  9
$PELEVATION
 40
0.0
  9
$THICKNESS
 40
0.0
  9
$LIMCHECK
 70
     0
  9
$BLIPMODE
 70
     0
  9
$CHAMFERA
 40
0.0
  9
$CHAMFERB
 40
0.0
  9
$SKPOLY
 70
     0
  9
$TDCREATE
 40
2449840.6473379629
  9
$TDUPDATE
 40
2457297.4801102779
  9
$TDINDWG
 40
0.021009537
  9
$TDUSRTIMER
 40
0.021009537
  9
$USRTIMER
 70
     1
  9
$ANGBASE
 50
0.0
  9
$ANGDIR
 70
     0
  9
$PDMODE
 70
     0
  9
$PDSIZE
 40
0.0
  9
$PLINEWID
 40
0.0
  9
$COORDS
 70
     1
  9
$SPLFRAME
 70
     0
  9
$SPLINETYPE
 70
     6
  9
$SPLINESEGS
 70
     8
  9
$ATTDIA
 70
     0
  9
$ATTREQ
 70
     1
  9
$HANDLING
 70
     1
  9
$HANDSEED
  5
5BD
  9
$SURFTAB1
 70
     6
  9
$SURFTAB2
 70
     6
  9
$SURFTYPE
 70
     6
  9
$SURFU
 70
     6
  9
$SURFV
 70
     6
  9
$UCSNAME
  2

  9
$UCSORG
 10
0.0
 20
0.0
 30
0.0
  9
$UCSXDIR
 10
1.0
 20
0.0
 30
0.0
  9
$UCSYDIR
 10
0.0
 20
1.0
 30
0.0
  9
$PUCSNAME
  2

  9
$PUCSORG
 10
0.0
 20
0.0
 30
0.0
  9
$PUCSXDIR
 10
1.0
 20
0.0
 30
0.0
  9
$PUCSYDIR
 10
0.0
 20
1.0
 30
0.0
  9
$USERI1
 70
     0
  9
$USERI2
 70
     1
  9
$USERI3
 70
     0
  9
$USERI4
 70
     0
  9
$USERI5
 70
     0
  9
$USERR1
 40
0.0
  9
$USERR2
 40
0.0
  9
$USERR3
 40
0.0
  9
$USERR4
 40
0.0
  9
$USERR5
 40
0.0
  9
$WORLDVIEW
 70
     1
  9
$SHADEDGE
 70
     3
  9
$SHADEDIF
 70
    70
  9
$TILEMODE
 70
     1
  9
$MAXACTVP
 70
    16
  9
$PLIMCHECK
 70
     0
  9
$PEXTMIN
 10
1.0000000000000000E+020
 20
1.0000000000000000E+020
 30
1.0000000000000000E+020
  9
$PEXTMAX
 10
-1.0000000000000000E+020
 20
-1.0000000000000000E+020
 30
-1.0000000000000000E+020
  9
$PLIMMIN
 10
0.0
 20
0.0
  9
$PLIMMAX
 10
12.0
 20
9.0
  9
$UNITMODE
 70
     0
  9
$VISRETAIN
 70
     0
  9
$PLINEGEN
 70
     0
  9
$PSLTSCALE
 70
     0
  0
ENDSEC
  0
SECTION
  2
TABLES
  0
TABLE
  2
VPORT
 70
     1
  0
VPORT
  2
*ACTIVE
 70
     0
 10
0.0
 20
0.0
 11
1.0
 21
1.0
 12
56.181292762834623
 22
25.869595123973401
 13
0.0
 23
0.0
 14
10.0
 24
10.0
 15
10.0
 25
10.0
 16
0.0
 26
0.0
 36
1.0
 17
0.0
 27
0.0
 37
0.0
 40
82.609451170529127
 41
1.368715083798882
 42
50.0
 43
0.0
 44
0.0
 50
0.0
 51
0.0
 71
     0
 72
   500
 73
     1
 74
     0
 75
     0
 76
     0
 77
     0
 78
     2
  0
ENDTAB
  0
TABLE
  2
LTYPE
 70
     4
  0
LTYPE
  2
CONTINUOUS
 70
     0
  3
Solid Line
 72
    65
 73
     0
 40
0.0
  0
LTYPE
  2
CENTER
 70
     0
  3
____ _ ____ _ ____ _ ____ _ ____ _ ____ _ ____
 72
    65
 73
     4
 40
2.0
 49
1.25
 49
-0.25
 49
0.25
 49
-0.25
  0
LTYPE
  2
HIDDEN
 70
     0
  3
_ _ _ _ _ _ _ _ _ _ _ _ _ _ _ _ _ _ _ _ _ _ _
 72
    65
 73
     2
 40
0.375
 49
0.25
 49
-0.125
  0
LTYPE
  2
PHANTOM2
 70
     0
  3
___ _ _ ___ _ _ ___ _ _ ___ _ _
 72
    65
 73
     6
 40
1.25
 49
0.625
 49
-0.125
 49
0.125
 49
-0.125
 49
0.125
 49
-0.125
  0
ENDTAB
  0
TABLE
  2
LAYER
 70
     4
  0
LAYER
  2
0
 70
     0
 62
     7
  6
CONTINUOUS
  0
LAYER
  2
1
 70
     0
 62
     1
  6
CENTER
  0
LAYER
  2
2
 70
     0
 62
     2
  6
HIDDEN
  0
LAYER
  2
DEFPOINTS
 70
     0
 62
     7
  6
CONTINUOUS
  0
ENDTAB
  0
TABLE
  2
STYLE
 70
     2
  0
STYLE
  2
STANDARD
 70
     0
 40
0.0
 41
1.0
 50
0.0
 71
     0
 42
0.2
  3
TXT
  4
BIGFONT
  0
STYLE
  2
STANDARD1
 70
     0
 40
0.0
 41
1.0
 50
0.0
 71
     0
 42
3.0
  3
txt
  4

  0
ENDTAB
  0
TABLE
  2
VIEW
 70
     1
  0
VIEW
  2
ALL
 70
     0
 40
270.0
 10
220.99159663865549
 20
135.0
 41
0.0
 11
0.0
 21
0.0
 31
1.0
 12
0.0
 22
0.0
 32
0.0
 42
0.0
 43
0.0
 44
0.0
 50
0.0
 71
     0
  0
ENDTAB
  0
TABLE
  2
UCS
 70
     0
  0
ENDTAB
  0
TABLE
  2
APPID
 70
    42
  0
APPID
  2
ACAD
 70
     0
  0
APPID
  2
DCO15
 70
     0
  0
APPID
  2
GENIUS_GENOREF_13
 70
     0
  0
APPID
  2
GENIUS_GENOENT_13
 70
     0
  0
APPID
  2
GENIUS_GENBH_13
 70
     0
  0
APPID
  2
GENIUS_GENOBJ_13
 70
     0
  0
APPID
  2
GENIUS_GENODEF_13
 70
     0
  0
APPID
  2
GENIUS_GENOLIS_13
 70
     0
  0
APPID
  2
GENIUS_GENOBJ-NBEHI-BHF_13
 70
     0
  0
APPID
  2
GENIUS_GENOBJ-NBEHI-BHB_13
 70
     0
  0
APPID
  2
GENIUS_GENOBJ-F-PART_13
 70
     0
  0
APPID
  2
GENIUS_GEFSTDP_13
 70
     0
  0
APPID
  2
GENIUS_GENOBJ-N-RSSYM_13
 70
     0
  0
APPID
  2
GENIUS_GENSYMENT_13
 70
     0
  0
APPID
  2
GENIUS_GENOBJ-N-TIT_13
 70
     0
  0
APPID
  2
GENIUS_GENTITLE_13
 70
     0
  0
APPID
  2
GENIUS_GENZVEED_13
 70
     0
  0
APPID
  2
GENIUS_GENOBJ-N-LEADER_13
 70
     0
  0
APPID
  2
GENIUS_GENOBJ-N-FIL_13
 70
     0
  0
APPID
  2
GENIUS_GENOBJ-N-SEC_13
 70
     0
  0
APPID
  2
GENIUS_GENOBJ-N-CRS_13
 70
     0
  0
APPID
  2
GENIUS_GENOBJ-N-ZOO_13
 70
     0
  0
APPID
  2
GENIUS_GENZOO_13
 70
     0
  0
APPID
  2
GENIUS_GENOBJ-F-TOL_13
 70
     0
  0
APPID
  2
GENIUS_GENFIL_13
 70
     0
  0
APPID
  2
GENIUS_GENOBJ-N-CHA_13
 70
     0
  0
APPID
  2
_CALL_MAC$
 70
     0
  0
APPID
  2
ASM_BASE
 70
     0
  0
APPID
  2
ASM_EXPLO_VER_2_00
 70
     0
  0
APPID
  2
ASM_CADM_VER_12_00
 70
     0
  0
APPID
  2
ASM_BASEFORO
 70
     0
  0
APPID
  2
ASM_BASETRAVI
 70
     0
  0
APPID
  2
ASM_BASETRAVI1
 70
     0
  0
APPID
  2
ASM_GRUPPI
 70
     0
  0
APPID
  2
ASM_CADM_ALBERO
 70
     0
  0
APPID
  2
ASM_GOLE
 70
     0
  0
APPID
  2
ACAD_EXEMPT_FROM_CAD_STANDARDS
 70
     0
  0
APPID
  2
GRADIENTCOLOR1ACI
 70
     0
  0
APPID
  2
GRADIENTCOLOR2ACI
 70
     0
  0
APPID
  2
ACAD_PSEXT
 70
     0
  0
APPID
  2
ACAD_MLEADERVER
 70
     0
  0
APPID
  2
ACAD_NAV_VCDISPLAY
 70
     0
  0
ENDTAB
  0
TABLE
  2
DIMSTYLE
 70
     1
  0
DIMSTYLE
  2
STANDARD
 70
     0
  3

  4

  5

  6

  7

 40
1.0
 41
0.18
 42
0.0625
 43
0.38
 44
0.18
 45
0.0
 46
0.0
 47
0.0
 48
0.0
140
0.18
141
0.09
142
0.0
143
25.399999999999999
144
1.0
145
0.0
146
1.0
147
0.09
 71
     0
 72
     0
 73
     1
 74
     1
 75
     0
 76
     0
 77
     0
 78
     0
170
     0
171
     2
172
     0
173
     0
174
     0
175
     0
176
     0
177
     0
178
     0
  0
ENDTAB
  0
ENDSEC
  0
SECTION
  2
BLOCKS
  0
BLOCK
  8
0
  2
$MODEL_SPACE
 70
     0
 10
0.0
 20
0.0
 30
0.0
  3
$MODEL_SPACE
  1

  0
ENDBLK
  5
AA
  8
0
  0
BLOCK
 67
     1
  8
0
  2
$PAPER_SPACE
 70
     0
 10
0.0
 20
0.0
 30
0.0
  3
$PAPER_SPACE
  1

  0
ENDBLK
  5
A8
 67
     1
  8
0
  0
ENDSEC
  0
SECTION
  2
ENTITIES
  0
LINE
  5
35
  8
0
 10
17.875762710294168
 20
28.229324068237361
 30
0.0
 11
35.875762710294111
 21
28.229324068237361
 31
0.0
  0
LINE
  5
36
  8
0
 10
36.875762710294111
 20
28.80667433742699
 30
0.0
 11
36.875762710294111
 21
47.651973799047759
 31
0.0
  0
LINE
  5
37
  8
0
 10
35.875762710294111
 20
48.229324068237361
 30
0.0
 11
17.875762710294111
 21
48.229324068237361
 31
0.0
  0
LINE
  5
38
  8
0
 10
16.87576271029414
 20
47.651973799047731
 30
0.0
 11
16.875762710294111
 21
28.806674337427008
 31
0.0
  0
LINE
  5
39
  8
1
 10
111.8757627102941
 20
38.229324068237361
 30
0.0
 11
81.875762710294126
 21
38.229324068237361
 31
0.0
  0
LINE
  5
3A
  8
2
 10
35.87576271029414
 20
32.229324068237361
 30
0.0
 11
17.875762710294111
 21
32.229324068237361
 31
0.0
  0
LINE
  5
3B
  8
2
 10
35.87576271029414
 20
44.229324068237347
 30
0.0
 11
17.875762710294111
 21
44.229324068237347
 31
0.0
  0
LINE
  5
3D
  8
2
 10
17.875762710294111
 20
44.229324068237347
 30
0.0
 11
17.87576271029414
 21
32.229324068237361
 31
0.0
  0
LINE
  5
3E
  8
2
 10
35.87576271029414
 20
44.229324068237347
 30
0.0
 11
36.87576271029414
 21
44.806674337426948
 31
0.0
  0
LINE
  5
3F
  8
2
 10
35.87576271029414
 20
32.229324068237361
 30
0.0
 11
36.87576271029414
 21
31.651973799047742
 31
0.0
  0
LINE
  5
40
  8
2
 10
17.875762710294111
 20
44.229324068237347
 30
0.0
 11
16.875762710294111
 21
44.806674337426948
 31
0.0
  0
LINE
  5
41
  8
2
 10
17.875762710294111
 20
32.229324068237361
 30
0.0
 11
16.875762710294111
 21
31.651973799047742
 31
0.0
  0
LINE
  5
42
  8
0
 10
17.875762710294111
 20
28.229324068237361
 30
0.0
 11
16.87576271029414
 21
28.806674337427008
 31
0.0
  0
LINE
  5
43
  8
0
 10
17.875762710294111
 20
48.229324068237361
 30
0.0
 11
16.87576271029414
 21
47.651973799047759
 31
0.0
  0
LINE
  5
44
  8
0
 10
35.875762710294168
 20
48.229324068237361
 30
0.0
 11
36.875762710294168
 21
47.651973799047759
 31
0.0
  0
LINE
  5
45
  8
0
 10
35.875762710294168
 20
28.229324068237361
 30
0.0
 11
36.875762710294168
 21
28.806674337427008
 31
0.0
  0
LINE
  5
46
  8
1
 10
33.875762710294111
 20
42.229324068237361
 30
0.0
 11
33.875762710294119
 21
50.229324068237361
 31
0.0
  0
LINE
  5
47
  8
2
 10
35.67576271029413
 20
44.229324068237368
 30
0.0
 11
35.67576271029413
 21
47.729324068237368
 31
0.0
  0
LINE
  5
48
  8
2
 10
32.075762710294129
 20
44.229324068237368
 30
0.0
 11
32.075762710294129
 21
47.729324068237368
 31
0.0
  0
LINE
  5
49
  8
2
 10
32.075762710294129
 20
47.729324068237368
 30
0.0
 11
31.575762710294129
 21
48.229324068237382
 31
0.0
  0
LINE
  5
4A
  8
2
 10
35.67576271029413
 20
47.729324068237368
 30
0.0
 11
36.065955089158798
 21
48.11951644710205
 31
0.0
  0
LINE
  5
4B
  8
2
 10
32.075762710294129
 20
47.729324068237403
 30
0.0
 11
35.67576271029413
 21
47.729324068237368
 31
0.0
  0
CIRCLE
  5
4C
  8
0
 10
96.875762710294126
 20
38.229324068237361
 30
0.0
 40
10.0
  0
LINE
  5
4D
  8
1
 10
96.875762710294126
 20
53.229324068237361
 30
0.0
 11
96.875762710294126
 21
23.229324068237378
 31
0.0
  0
CIRCLE
  5
4E
  8
0
 10
96.875762710294126
 20
38.229324068237361
 30
0.0
 40
9.4226497308104058
  0
CIRCLE
  5
4F
  8
0
 10
96.875762710294126
 20
38.229324068237361
 30
0.0
 40
6.0
  0
CIRCLE
  5
50
  8
0
 10
96.875762710294126
 20
38.229324068237332
 30
0.0
 40
6.5773502691896146
  0
LINE
  5
51
  8
1
 10
41.875762710294111
 20
38.229324068237361
 30
0.0
 11
11.87576271029414
 21
38.229324068237389
 31
0.0
  0
LINE
  5
2FA
  8
0
 10
17.875762710294111
 20
48.229324068237361
 30
0.0
 11
17.875762710294111
 21
28.229324068237361
 31
0.0
  0
LINE
  5
2FB
  8
0
 10
35.875762710294168
 20
48.229324068237361
 30
0.0
 11
35.875762710294111
 21
28.229324068237361
 31
0.0
  0
TEXT
  5
3C7
  8
0
 62
     3
 10
0.0
 20
0.0
 30
0.0
 40
5.0
  1
SNDEP-STS12-SUS
  7
STANDARD1
  0
LINE
  5
3F2
  8
2
 10
35.87576271029414
 20
44.229324068237347
 30
0.0
 11
35.875762710294111
 21
32.229324068237361
 31
0.0
  0
LINE
  5
3F4
  8
2
 10
98.675762710294137
 20
43.952959276739023
 30
0.0
 11
98.675762710294137
 21
47.729324068237368
 31
0.0
  0
LINE
  5
3F5
  8
2
 10
95.075762710294114
 20
43.95295927673903
 30
0.0
 11
95.075762710294114
 21
47.729324068237368
 31
0.0
  0
LINE
  5
3F6
  8
2
 10
95.075762710294114
 20
47.729324068237368
 30
0.0
 11
94.794700410840534
 21
48.010386367690977
 31
0.0
  0
LINE
  5
3F7
  8
2
 10
98.675762710294137
 20
47.729324068237368
 30
0.0
 11
98.956825009747703
 21
48.010386367690977
 31
0.0
  0
LINE
  5
3F8
  8
2
 10
95.075762710294114
 20
47.729324068237403
 30
0.0
 11
98.675762710294137
 21
47.729324068237368
 31
0.0
  0
LINE
  5
3F9
  8
2
 10
100.93257620285161
 20
33.80866073717452
 30
0.0
 11
104.20300404624631
 21
31.920478341425369
 31
0.0
  0
LINE
  5
3FA
  8
2
 10
102.7325762028516
 20
36.926352190798511
 30
0.0
 11
106.0030040462462
 21
35.038169795049342
 31
0.0
  0
LINE
  5
3FB
  8
2
 10
106.0030040462462
 20
35.038169795049342
 30
0.0
 11
106.3869422873459
 21
35.141045736695418
 31
0.0
  0
LINE
  5
3FC
  8
2
 10
104.20300404624631
 20
31.920478341425369
 30
0.0
 11
104.3058799878924
 21
31.536540100325681
 31
0.0
  0
LINE
  5
3FD
  8
2
 10
106.0030040462463
 20
35.038169795049328
 30
0.0
 11
104.20300404624631
 21
31.920478341425369
 31
0.0
  0
LINE
  5
3FE
  8
1
 10
100.3398643254318
 20
36.229324068237361
 30
0.0
 11
107.2680675557073
 21
32.229324068237361
 31
0.0
  0
ENDSEC
  0
EOF
