  0
SECTION
  2
HEADER
  9
$ACADVER
  1
AC1009
  9
$INSBASE
 10
0.0
 20
0.0
 30
0.0
  9
$EXTMIN
 10
0.0
 20
-2.960436562073669
 30
0.0
  9
$EXTMAX
 10
233.39999934732921
 20
73.199999894201753
 30
0.0
  9
$LIMMIN
 10
0.0
 20
0.0
  9
$LIMMAX
 10
420.0
 20
297.0
  9
$ORTHOMODE
 70
     1
  9
$REGENMODE
 70
     1
  9
$FILLMODE
 70
     1
  9
$QTEXTMODE
 70
     0
  9
$MIRRTEXT
 70
     0
  9
$DRAGMODE
 70
     2
  9
$LTSCALE
 40
1.0
  9
$OSMODE
 70
    37
  9
$ATTMODE
 70
     1
  9
$TEXTSIZE
 40
2.5
  9
$TRACEWID
 40
1.0
  9
$TEXTSTYLE
  7
STANDARD
  9
$CLAYER
  8
0
  9
$CELTYPE
  6
BYLAYER
  9
$CECOLOR
 62
   256
  9
$DIMSCALE
 40
1.0
  9
$DIMASZ
 40
2.5
  9
$DIMEXO
 40
0.625
  9
$DIMDLI
 40
3.75
  9
$DIMRND
 40
0.0
  9
$DIMDLE
 40
0.0
  9
$DIMEXE
 40
1.25
  9
$DIMTP
 40
0.0
  9
$DIMTM
 40
0.0
  9
$DIMTXT
 40
2.5
  9
$DIMCEN
 40
2.5
  9
$DIMTSZ
 40
0.0
  9
$DIMTOL
 70
     0
  9
$DIMLIM
 70
     0
  9
$DIMTIH
 70
     0
  9
$DIMTOH
 70
     0
  9
$DIMSE1
 70
     0
  9
$DIMSE2
 70
     0
  9
$DIMTAD
 70
     1
  9
$DIMZIN
 70
     8
  9
$DIMBLK
  1

  9
$DIMASO
 70
     1
  9
$DIMSHO
 70
     1
  9
$DIMPOST
  1

  9
$DIMAPOST
  1

  9
$DIMALT
 70
     0
  9
$DIMALTD
 70
     3
  9
$DIMALTF
 40
0.03937007874016
  9
$DIMLFAC
 40
1.0
  9
$DIMTOFL
 70
     1
  9
$DIMTVP
 40
0.0
  9
$DIMTIX
 70
     0
  9
$DIMSOXD
 70
     0
  9
$DIMSAH
 70
     0
  9
$DIMBLK1
  1

  9
$DIMBLK2
  1

  9
$DIMSTYLE
  2
ISO-25
  9
$DIMCLRD
 70
     0
  9
$DIMCLRE
 70
     0
  9
$DIMCLRT
 70
     0
  9
$DIMTFAC
 40
1.0
  9
$DIMGAP
 40
0.625
  9
$LUNITS
 70
     2
  9
$LUPREC
 70
     4
  9
$SKETCHINC
 40
1.0
  9
$FILLETRAD
 40
0.0
  9
$AUNITS
 70
     0
  9
$AUPREC
 70
     0
  9
$MENU
  1
.
  9
$ELEVATION
 40
0.0
  9
$PELEVATION
 40
0.0
  9
$THICKNESS
 40
0.0
  9
$LIMCHECK
 70
     0
  9
$BLIPMODE
 70
     0
  9
$CHAMFERA
 40
0.0
  9
$CHAMFERB
 40
0.0
  9
$SKPOLY
 70
     0
  9
$TDCREATE
 40
2454946.599777373
  9
$TDUPDATE
 40
2457297.4800859028
  9
$TDINDWG
 40
0.7048832986
  9
$TDUSRTIMER
 40
0.7048831250000001
  9
$USRTIMER
 70
     1
  9
$ANGBASE
 50
0.0
  9
$ANGDIR
 70
     0
  9
$PDMODE
 70
     0
  9
$PDSIZE
 40
0.0
  9
$PLINEWID
 40
0.0
  9
$COORDS
 70
     1
  9
$SPLFRAME
 70
     0
  9
$SPLINETYPE
 70
     6
  9
$SPLINESEGS
 70
     8
  9
$ATTDIA
 70
     0
  9
$ATTREQ
 70
     1
  9
$HANDLING
 70
     1
  9
$HANDSEED
  5
B299
  9
$SURFTAB1
 70
     6
  9
$SURFTAB2
 70
     6
  9
$SURFTYPE
 70
     6
  9
$SURFU
 70
     6
  9
$SURFV
 70
     6
  9
$UCSNAME
  2

  9
$UCSORG
 10
0.0
 20
0.0
 30
0.0
  9
$UCSXDIR
 10
1.0
 20
0.0
 30
0.0
  9
$UCSYDIR
 10
0.0
 20
1.0
 30
0.0
  9
$PUCSNAME
  2

  9
$PUCSORG
 10
0.0
 20
0.0
 30
0.0
  9
$PUCSXDIR
 10
1.0
 20
0.0
 30
0.0
  9
$PUCSYDIR
 10
0.0
 20
1.0
 30
0.0
  9
$USERI1
 70
     0
  9
$USERI2
 70
     0
  9
$USERI3
 70
     0
  9
$USERI4
 70
     0
  9
$USERI5
 70
     0
  9
$USERR1
 40
0.0
  9
$USERR2
 40
0.0
  9
$USERR3
 40
0.0
  9
$USERR4
 40
0.0
  9
$USERR5
 40
0.0
  9
$WORLDVIEW
 70
     1
  9
$SHADEDGE
 70
     3
  9
$SHADEDIF
 70
    70
  9
$TILEMODE
 70
     1
  9
$MAXACTVP
 70
    64
  9
$PLIMCHECK
 70
     0
  9
$PEXTMIN
 10
0.0
 20
0.0
 30
0.0
  9
$PEXTMAX
 10
0.0
 20
0.0
 30
0.0
  9
$PLIMMIN
 10
0.0
 20
0.0
  9
$PLIMMAX
 10
12.0
 20
9.0
  9
$UNITMODE
 70
     0
  9
$VISRETAIN
 70
     1
  9
$PLINEGEN
 70
     0
  9
$PSLTSCALE
 70
     1
  0
ENDSEC
  0
SECTION
  2
TABLES
  0
TABLE
  2
VPORT
 70
     1
  0
VPORT
  2
*ACTIVE
 70
     0
 10
0.0
 20
0.0
 11
1.0
 21
1.0
 12
150.46583850931671
 22
109.9321840537457
 13
0.0
 23
0.0
 14
10.0
 24
10.0
 15
10.0
 25
10.0
 16
0.0
 26
0.0
 36
1.0
 17
0.0
 27
0.0
 37
0.0
 40
219.86436810749149
 41
1.368715083798882
 42
50.0
 43
0.0
 44
0.0
 50
0.0
 51
0.0
 71
     0
 72
  1000
 73
     1
 74
     3
 75
     0
 76
     0
 77
     0
 78
     0
  0
ENDTAB
  0
TABLE
  2
LTYPE
 70
     3
  0
LTYPE
  2
CONTINUOUS
 70
     0
  3
Solid line
 72
    65
 73
     0
 40
0.0
  0
LTYPE
  2
HIDDEN
 70
     0
  3
Hidden __ __ __ __ __ __ __ __ __ __ __ __ __ __
 72
    65
 73
     2
 40
1.905
 49
1.27
 49
-0.635
  0
LTYPE
  2
CENTER
 70
     0
  3
Center ____ _ ____ _ ____ _ ____ _ ____ _ ____
 72
    65
 73
     4
 40
10.16
 49
6.3499999999999988
 49
-1.27
 49
1.27
 49
-1.27
  0
ENDTAB
  0
TABLE
  2
LAYER
 70
     5
  0
LAYER
  2
0
 70
     0
 62
     7
  6
CONTINUOUS
  0
LAYER
  2
DEFPOINTS
 70
     0
 62
     7
  6
CONTINUOUS
  0
LAYER
  2
1
 70
     0
 62
     1
  6
CENTER
  0
LAYER
  2
2
 70
     0
 62
     2
  6
HIDDEN
  0
LAYER
  2
3
 70
     0
 62
     3
  6
CONTINUOUS
  0
ENDTAB
  0
TABLE
  2
STYLE
 70
     2
  0
STYLE
  2
STANDARD
 70
     0
 40
0.0
 41
1.0
 50
0.0
 71
     0
 42
2.5
  3
txt
  4

  0
STYLE
  2
STANDARD1
 70
     0
 40
0.0
 41
1.0
 50
0.0
 71
     0
 42
3.0
  3
txt
  4

  0
ENDTAB
  0
TABLE
  2
VIEW
 70
     0
  0
ENDTAB
  0
TABLE
  2
UCS
 70
     0
  0
ENDTAB
  0
TABLE
  2
APPID
 70
   130
  0
APPID
  2
ACAD
 70
     0
  0
APPID
  2
_FTCNV
 70
     0
  0
APPID
  2
GENIUS_GENODEF_13
 70
     0
  0
APPID
  2
GENIUS_GENOENT_13
 70
     0
  0
APPID
  2
GENIUS_GENOBJ-N-CEN_13
 70
     0
  0
APPID
  2
GENIUS_GENOLIS_13
 70
     0
  0
APPID
  2
GENIUS_GENOREF_13
 70
     0
  0
APPID
  2
GENIUS_GENOBJ-N-CRS_13
 70
     0
  0
APPID
  2
GENIUS_GENOBJ-N-FIL_13
 70
     0
  0
APPID
  2
GENIUS_GENOBJ-N-REC_13
 70
     0
  0
APPID
  2
GENIUS_GENFIL_13
 70
     0
  0
APPID
  2
GENIUS_GENOBJ-N-CHA_13
 70
     0
  0
APPID
  2
ASM_BASE
 70
     0
  0
APPID
  2
_PHO
 70
     0
  0
APPID
  2
_CLP
 70
     0
  0
APPID
  2
MOJIGUMI_PARTS
 70
     0
  0
APPID
  2
_DBL
 70
     0
  0
APPID
  2
_PWH
 70
     0
  0
APPID
  2
_G9P
 70
     0
  0
APPID
  2
AME_SOL
 70
     0
  0
APPID
  2
HAKO_DEF
 70
     0
  0
APPID
  2
HAKO_TXT
 70
     0
  0
APPID
  2
HAKO_OVR
 70
     0
  0
APPID
  2
ASM_EXPLO_VER_2_00
 70
     0
  0
APPID
  2
ASM_CADM_VER_12_00
 70
     0
  0
APPID
  2
ASM_BASEFORO
 70
     0
  0
APPID
  2
ASM_BASETRAVI
 70
     0
  0
APPID
  2
ASM_BASETRAVI1
 70
     0
  0
APPID
  2
ASM_GRUPPI
 70
     0
  0
APPID
  2
ASM_CADM_ALBERO
 70
     0
  0
APPID
  2
ASM_GOLE
 70
     0
  0
APPID
  2
GENIUS_GENCFG_13
 70
     0
  0
APPID
  2
GENIUS_GENCFG0_13
 70
     0
  0
APPID
  2
GENIUS_GENCFG1_13
 70
     0
  0
APPID
  2
GENIUS_GENCFG2_13
 70
     0
  0
APPID
  2
GENIUS_GENCFG3_13
 70
     0
  0
APPID
  2
GENIUS_GENCFG4_13
 70
     0
  0
APPID
  2
GENIUS_GEVCFG0_13
 70
     0
  0
APPID
  2
GENIUS_GENHATCH_13
 70
     0
  0
APPID
  2
GENIUS_GEFCFG0_13
 70
     0
  0
APPID
  2
GENIUS_GENOBJ-N-HTC_13
 70
     0
  0
APPID
  2
DCO15
 70
     0
  0
APPID
  2
AVE_RENDER
 70
     0
  0
APPID
  2
AVE_ENTITY_MATERIAL
 70
     0
  0
APPID
  2
AVE_FINISH
 70
     0
  0
APPID
  2
AVE_MATERIAL
 70
     0
  0
APPID
  2
AVE_GLOBAL
 70
     0
  0
APPID
  2
_NUM
 70
     0
  0
APPID
  2
HAKO_FNM
 70
     0
  0
APPID
  2
_CALL_MAC$
 70
     0
  0
APPID
  2
ACA_CADIMENU
 70
     0
  0
APPID
  2
AUTOCAD_POSTSCRIPT_FIGURE
 70
     0
  0
APPID
  2
GEV_VCCNULL_SWITCH_OFF
 70
     0
  0
APPID
  2
GENIUS_GENDTOL_13
 70
     0
  0
APPID
  2
GENIUS_GEFWELD_13
 70
     0
  0
APPID
  2
GENIUS_GENOBJ-F-WELS_13
 70
     0
  0
APPID
  2
GEVID961514679
 70
     0
  0
APPID
  2
GEVDC
 70
     0
  0
APPID
  2
GEVPT
 70
     0
  0
APPID
  2
GEVIT
 70
     0
  0
APPID
  2
VCC
 70
     0
  0
APPID
  2
GENBH
 70
     0
  0
APPID
  2
GEVMK
 70
     0
  0
APPID
  2
GENIUS_GENBH_13
 70
     0
  0
APPID
  2
GENIUS_GENOBJ-NBEHI-BHF_13
 70
     0
  0
APPID
  2
GENIUS_GENOBJ-NBEHI-BHB_13
 70
     0
  0
APPID
  2
GENIUS_GENOBJ-F-DESC_13
 70
     0
  0
APPID
  2
GENIUS_GEFDESC_14
 70
     0
  0
APPID
  2
GENIUS_GENOBJ-F-PART_13
 70
     0
  0
APPID
  2
GENIUS_GEFSTDP_13
 70
     0
  0
APPID
  2
GENIUS_GEFPARTINS_13
 70
     0
  0
APPID
  2
GEVID961514680
 70
     0
  0
APPID
  2
GENIUS_GENTRA_14
 70
     0
  0
APPID
  2
GENIUS_GENINF13_13
 70
     0
  0
APPID
  2
GENIUS_GENOBJ-N-INFOPT_13
 70
     0
  0
APPID
  2
GENIUS_GENOBJ-N-RSSYM_13
 70
     0
  0
APPID
  2
GENIUS_GENSYMENT_13
 70
     0
  0
APPID
  2
GENIUS_GENSCSYM_13
 70
     0
  0
APPID
  2
GENIUS_GEFINFNAM_13
 70
     0
  0
APPID
  2
GENIUS_GENREC_14
 70
     0
  0
APPID
  2
GEVID962097543
 70
     0
  0
APPID
  2
GEVID962097544
 70
     0
  0
APPID
  2
GEVID962097545
 70
     0
  0
APPID
  2
GENIUS_DUMCFG0_13
 70
     0
  0
APPID
  2
GEVID962352965
 70
     0
  0
APPID
  2
GEVID962352966
 70
     0
  0
APPID
  2
GEVID962352968
 70
     0
  0
APPID
  2
GEVRADREF
 70
     0
  0
APPID
  2
GEVID963230099
 70
     0
  0
APPID
  2
GENIUS_GENOBJ-F-FEAT_13
 70
     0
  0
APPID
  2
GENIUS_GEFFEAT_14
 70
     0
  0
APPID
  2
GEVID963230100
 70
     0
  0
APPID
  2
GEVID963230101
 70
     0
  0
APPID
  2
GENIUS_GENHINW_13
 70
     0
  0
APPID
  2
GENIUS_FIRSTVISTXT_14
 70
     0
  0
APPID
  2
GENIUS_GENOBJ-N-LEADER_13
 70
     0
  0
APPID
  2
GEVID971698136
 70
     0
  0
APPID
  2
GEVID972029070
 70
     0
  0
APPID
  2
MCAD_NO_VIS
 70
     0
  0
APPID
  2
ACAD_TEMP_GRAPHIC
 70
     0
  0
APPID
  2
ACATTRIBSERVICES
 70
     0
  0
APPID
  2
GENIUS_GENDIMSH_14
 70
     0
  0
APPID
  2
CONTENTTABDATA
 70
     0
  0
APPID
  2
CONTENTCURRENTTAB
 70
     0
  0
APPID
  2
GENIUS_GENBLKED_14
 70
     0
  0
APPID
  2
GENIUS_GENOBJ_13
 70
     0
  0
APPID
  2
GENIUS_GENOBJ-N-TIT_13
 70
     0
  0
APPID
  2
GENIUS_GENTITLE_13
 70
     0
  0
APPID
  2
GENIUS_GENZVEED_13
 70
     0
  0
APPID
  2
GENIUS_GEFINERT_13
 70
     0
  0
APPID
  2
GENIUS_GENOBJ-F-INER_13
 70
     0
  0
APPID
  2
GENIUS_GENOBJ-N-ZOO_13
 70
     0
  0
APPID
  2
GENIUS_GENZOO_13
 70
     0
  0
APPID
  2
GENIUS_GENOBJ-F-TOL_13
 70
     0
  0
APPID
  2
GENIUS_GENOBJ-N-REV_13
 70
     0
  0
APPID
  2
GENIUS_GENREC_13
 70
     0
  0
APPID
  2
_KTH
 70
     0
  0
APPID
  2
GENIUS_GENOBJ-N-SEC_13
 70
     0
  0
APPID
  2
ACAD_EXEMPT_FROM_CAD_STANDARDS
 70
     0
  0
APPID
  2
ACAD_MLEADERVER
 70
     0
  0
APPID
  2
ACAD_NAV_VCDISPLAY
 70
     0
  0
APPID
  2
ACAD_PSEXT
 70
     0
  0
APPID
  2
ACAD_DSTYLE_DIMJAG
 70
     0
  0
APPID
  2
ACAD_DSTYLE_DIMTALN
 70
     0
  0
APPID
  2
ACAD_DSTYLE_DIMBREAK
 70
     0
  0
APPID
  2
ACAECLAYERSTANDARD
 70
     0
  0
APPID
  2
ACCMTRANSPARENCY
 70
     0
  0
APPID
  2
ACAD_DSTYLE_DIM_LINETYPE
 70
     0
  0
APPID
  2
GRADIENTCOLOR1ACI
 70
     0
  0
APPID
  2
GRADIENTCOLOR2ACI
 70
     0
  0
ENDTAB
  0
TABLE
  2
DIMSTYLE
 70
     2
  0
DIMSTYLE
  2
ISO-25
 70
     0
  3

  4

  5

  6

  7

 40
1.0
 41
2.5
 42
0.625
 43
3.75
 44
1.25
 45
0.0
 46
0.0
 47
0.0
 48
0.0
140
2.5
141
2.5
142
0.0
143
0.03937007874016
144
1.0
145
0.0
146
1.0
147
0.625
 71
     0
 72
     0
 73
     0
 74
     0
 75
     0
 76
     0
 77
     1
 78
     8
170
     0
171
     3
172
     1
173
     0
174
     0
175
     0
176
     0
177
     0
178
     0
  0
DIMSTYLE
  2
STANDARD
 70
     0
  3

  4

  5

  6

  7

 40
1.0
 41
0.18
 42
0.0625
 43
0.38
 44
0.18
 45
0.0
 46
0.0
 47
0.0
 48
0.0
140
0.18
141
0.09
142
0.0
143
25.399999999999999
144
1.0
145
0.0
146
1.0
147
0.09
 71
     0
 72
     0
 73
     1
 74
     1
 75
     0
 76
     0
 77
     0
 78
     0
170
     0
171
     2
172
     0
173
     0
174
     0
175
     0
176
     0
177
     0
178
     0
  0
ENDTAB
  0
ENDSEC
  0
SECTION
  2
BLOCKS
  0
BLOCK
  8
0
  2
$MODEL_SPACE
 70
     0
 10
0.0
 20
0.0
 30
0.0
  3
$MODEL_SPACE
  1

  0
ENDBLK
  5
21
  8
0
  0
BLOCK
 67
     1
  8
0
  2
$PAPER_SPACE
 70
     0
 10
0.0
 20
0.0
 30
0.0
  3
$PAPER_SPACE
  1

  0
ENDBLK
  5
53
 67
     1
  8
0
  0
ENDSEC
  0
SECTION
  2
ENTITIES
  0
TEXT
  5
80B7
  8
0
 62
     3
 10
0.0
 20
0.0
 30
0.0
 40
10.0
  1
SNDEP-MS-0500
  7
STANDARD1
  0
LINE
  5
AAF1
  8
0
 10
188.60000006258491
 20
41.50000012107192
 30
0.0
 11
184.50000143945221
 21
41.50000012107192
 31
0.0
  0
LINE
  5
AAF2
  8
0
 10
184.50000143945221
 20
31.499999878928111
 30
0.0
 11
188.60000006258491
 21
31.499999878928111
 31
0.0
  0
ARC
  5
AAF3
  8
0
 10
189.30000003876941
 20
31.949998414873381
 30
0.0
 40
0.0999986648427923
 50
270.00039955624368
 51
0.000934476679673
  0
ARC
  5
AAF4
  8
0
 10
189.30000043623409
 20
41.050001749755822
 30
0.0
 40
0.0999982673810663
 50
359.99897119242212
 51
89.999828176526194
  0
LINE
  5
AAF5
  8
0
 10
188.60000006258491
 20
31.849999750033071
 30
0.0
 11
189.3000007361174
 21
31.849999750033071
 31
0.0
  0
LINE
  5
AAF6
  8
0
 10
189.3000007361174
 20
41.150000017136378
 30
0.0
 11
188.60000006258491
 21
41.150000017136378
 31
0.0
  0
LINE
  5
AAF7
  8
0
 10
184.17878828346741
 20
31.849999750033071
 30
0.0
 11
184.50000143945221
 21
31.849999750033071
 31
0.0
  0
LINE
  5
AAF8
  8
0
 10
184.50000143945221
 20
41.150000017136378
 30
0.0
 11
184.17878828346741
 21
41.150000017136378
 31
0.0
  0
ARC
  5
AAF9
  8
0
 10
184.1787875950142
 20
41.050002747637201
 30
0.0
 40
0.0999972695015364
 50
89.999605534591439
 51
173.00148560948961
  0
ARC
  5
AAFA
  8
0
 10
184.1787880338577
 20
31.949997483239251
 30
0.0
 40
0.099997733206492
 50
186.99861505342889
 51
270.00014301897988
  0
LINE
  5
AAFB
  8
0
 10
184.07953537404541
 20
41.062186775729039
 30
0.0
 11
183.91227729022509
 21
39.699999919161243
 31
0.0
  0
LINE
  5
AAFC
  8
0
 10
183.91227729022509
 20
33.300000080838842
 30
0.0
 11
184.07953537404541
 21
31.93781322427099
 31
0.0
  0
LINE
  5
AAFD
  8
0
 10
183.4000014454127
 20
41.000000039115527
 30
0.0
 11
182.25000060498721
 21
41.000000039115527
 31
0.0
  0
LINE
  5
AAFE
  8
0
 10
182.25000060498721
 20
31.999999960884502
 30
0.0
 11
183.4000014454127
 21
31.999999960884502
 31
0.0
  0
LINE
  5
AAFF
  8
0
 10
169.70725364387039
 20
40.873804433271332
 30
0.0
 11
159.74999971091751
 21
40.699999850243309
 31
0.0
  0
LINE
  5
AB00
  8
0
 10
159.74999971091751
 20
32.299999916926069
 30
0.0
 11
169.70725364387039
 21
32.126195566728747
 31
0.0
  0
LINE
  5
AB01
  8
0
 10
159.74999971091751
 20
40.699999850243309
 30
0.0
 11
156.15000023841861
 21
40.257975529879367
 31
0.0
  0
LINE
  5
AB02
  8
0
 10
156.15000023841861
 20
32.742024237290067
 30
0.0
 11
159.74999971091751
 21
32.299999916926069
 31
0.0
  0
LINE
  5
AB03
  8
0
 10
189.39999870359901
 20
32.500000042840881
 30
0.0
 11
192.34579435884959
 21
32.500000042840881
 31
0.0
  0
LINE
  5
AB04
  8
0
 10
192.34579435884959
 20
40.49999995715914
 30
0.0
 11
189.39999870359901
 21
40.49999995715914
 31
0.0
  0
LINE
  5
AB05
  8
0
 10
192.34579435884959
 20
32.500000042840881
 30
0.0
 11
192.8221099764109
 21
33.325000038370533
 31
0.0
  0
LINE
  5
AB06
  8
0
 10
192.8221099764109
 20
39.674999961629489
 30
0.0
 11
192.34579435884959
 21
40.49999995715914
 31
0.0
  0
LINE
  5
AB07
  8
0
 10
193.84999952614311
 20
33.050000039860649
 30
0.0
 11
195.5999993473292
 21
33.300000080838842
 31
0.0
  0
LINE
  5
AB08
  8
0
 10
195.5999993473292
 20
39.699999919161243
 30
0.0
 11
193.84999952614311
 21
39.949999960139444
 31
0.0
  0
LINE
  5
AB09
  8
0
 10
193.84999952614311
 20
39.949999960139444
 30
0.0
 11
193.57499859631071
 21
39.674999961629489
 31
0.0
  0
LINE
  5
AB0A
  8
0
 10
193.57499859631071
 20
33.325000038370533
 30
0.0
 11
193.84999952614311
 21
33.050000039860649
 31
0.0
  0
LINE
  5
AB0B
  8
0
 10
183.4000014454127
 20
33.300000080838842
 30
0.0
 11
183.91227729022509
 21
33.300000080838842
 31
0.0
  0
LINE
  5
AB0C
  8
0
 10
183.91227729022509
 20
39.699999919161243
 30
0.0
 11
183.4000014454127
 21
39.699999919161243
 31
0.0
  0
LINE
  5
AB0D
  8
0
 10
193.57499859631071
 20
39.674999961629489
 30
0.0
 11
192.8221099764109
 21
39.674999961629489
 31
0.0
  0
LINE
  5
AB0E
  8
0
 10
192.8221099764109
 20
33.325000038370533
 30
0.0
 11
193.57499859631071
 21
33.325000038370533
 31
0.0
  0
ARC
  5
AB0F
  8
0
 10
169.69852564882919
 20
41.37373082188013
 30
0.0
 40
0.5000025719182838
 50
271.00020021362383
 51
344.99978004076092
  0
ARC
  5
AB10
  8
0
 10
169.6985257015003
 20
31.62626932685798
 30
0.0
 40
0.5000024222834931
 50
15.000179286972321
 51
88.999805523564859
  0
LINE
  5
AB11
  8
0
 10
170.18149054944519
 20
31.755680987611459
 30
0.0
 11
170.2499986380339
 21
31.499999878928111
 31
0.0
  0
LINE
  5
AB12
  8
0
 10
170.2499986380339
 20
41.50000012107192
 30
0.0
 11
170.18149054944519
 21
41.244318779557993
 31
0.0
  0
LINE
  5
AB13
  8
0
 10
182.25000060498721
 20
41.50000012107192
 30
0.0
 11
170.2499986380339
 21
41.50000012107192
 31
0.0
  0
LINE
  5
AB14
  8
0
 10
170.2499986380339
 20
31.499999878928111
 30
0.0
 11
182.25000060498721
 21
31.499999878928111
 31
0.0
  0
LINE
  5
AB17
  8
0
 10
188.60000006258491
 20
31.499999878928111
 30
0.0
 11
188.60000006258491
 21
41.50000012107192
 31
0.0
  0
LINE
  5
AB18
  8
0
 10
184.50000143945221
 20
31.499999878928111
 30
0.0
 11
184.50000143945221
 21
41.50000012107192
 31
0.0
  0
LINE
  5
AB19
  8
0
 10
173.0500013321639
 20
40.198648419231219
 30
0.0
 11
173.0500013321639
 21
32.801351347938223
 31
0.0
  0
POLYLINE
  5
AB1A
  8
0
 66
     1
 10
0.0
 20
0.0
 30
0.0
 70
   128
  0
VERTEX
  5
B281
  8
0
 10
173.0500013321639
 20
32.801351347938223
 30
0.0
  0
VERTEX
  5
B282
  8
0
 10
173.00789065063009
 20
32.652332285419149
 30
0.0
  0
VERTEX
  5
B283
  8
0
 10
172.96374968588361
 20
32.59750811941926
 30
0.0
  0
SEQEND
  5
B284
  8
0
  0
POLYLINE
  5
AB1B
  8
0
 66
     1
 10
0.0
 20
0.0
 30
0.0
 70
   128
  0
VERTEX
  5
B285
  8
0
 10
172.96374968588361
 20
40.402491880580762
 30
0.0
  0
VERTEX
  5
B286
  8
0
 10
173.04305366575721
 20
40.262291045859499
 30
0.0
  0
VERTEX
  5
B287
  8
0
 10
173.0500013321639
 20
40.198648419231219
 30
0.0
  0
SEQEND
  5
B288
  8
0
  0
LINE
  5
AB1C
  8
0
 10
174.15000132620341
 20
37.799999945331408
 30
0.0
 11
181.1500006109477
 21
37.799999945331408
 31
0.0
  0
ARC
  5
AB1D
  8
0
 10
181.1499981895135
 20
37.299996510612452
 30
0.0
 40
0.5000034347248277
 50
0.0003925332255656
 51
89.999722525991345
  0
ARC
  5
AB1E
  8
0
 10
181.1499979659352
 20
35.700003538342948
 30
0.0
 40
0.5000036583042701
 50
270.00030309388808
 51
359.99959018452171
  0
LINE
  5
AB1F
  8
0
 10
181.1500006109477
 20
35.199999880045702
 30
0.0
 11
174.15000132620341
 21
35.199999880045702
 31
0.0
  0
ARC
  5
AB20
  8
0
 10
174.1499976117554
 20
35.699997178870817
 30
0.0
 40
0.4999972988388929
 50
179.99968107492319
 51
270.00042564666859
  0
ARC
  5
AB21
  8
0
 10
174.1499973881846
 20
37.300002870078103
 30
0.0
 40
0.499997075268812
 50
89.999548733650599
 51
180.00033620712921
  0
LINE
  5
AB23
  8
0
 10
181.6500016242266
 20
37.299999936134583
 30
0.0
 11
181.6500016242266
 21
35.699999962002082
 31
0.0
  0
LINE
  5
AB24
  8
0
 10
173.65000031292439
 20
37.300002870078103
 30
0.0
 11
173.65000031292439
 21
35.699999962002082
 31
0.0
  0
LINE
  5
AB26
  8
0
 10
189.39999870359881
 20
31.95000004582112
 30
0.0
 11
189.39999870359901
 21
41.049999954178972
 31
0.0
  0
LINE
  5
AB27
  8
0
 10
183.4000014454127
 20
31.999999960884502
 30
0.0
 11
183.4000014454127
 21
41.000000039115527
 31
0.0
  0
LINE
  5
AB28
  8
0
 10
159.74999971091751
 20
32.299999916926069
 30
0.0
 11
159.74999971091751
 21
40.699999850243309
 31
0.0
  0
LINE
  5
AB29
  8
0
 10
156.15000023841861
 20
32.742024237290067
 30
0.0
 11
156.15000023841861
 21
40.257975529879367
 31
0.0
  0
LINE
  5
AB2A
  8
0
 10
192.34579435884959
 20
32.500000042840881
 30
0.0
 11
192.34579435884959
 21
40.49999995715914
 31
0.0
  0
LINE
  5
AB2B
  8
0
 10
192.8221099764109
 20
33.325000038370533
 30
0.0
 11
192.8221099764109
 21
39.674999961629489
 31
0.0
  0
LINE
  5
AB2C
  8
0
 10
195.5999993473292
 20
33.300000080838842
 30
0.0
 11
195.5999993473292
 21
39.699999919161243
 31
0.0
  0
LINE
  5
AB2D
  8
0
 10
193.57499859631071
 20
33.325000038370533
 30
0.0
 11
193.57499859631071
 21
39.674999961629489
 31
0.0
  0
LINE
  5
AB2E
  8
0
 10
170.18149054944519
 20
40.592500545084462
 30
0.0
 11
170.11798180043701
 21
40.426149336621208
 31
0.0
  0
ARC
  5
AB2F
  8
0
 10
171.79137850684899
 20
39.506156594517378
 30
0.0
 40
1.4757612023878921
 50
37.399686562225391
 51
59.065716971234899
  0
ARC
  5
AB30
  8
0
 10
170.9714086889478
 20
34.411982461960278
 30
0.0
 40
2.6947615456308549
 50
305.85953477200229
 51
317.67509756736382
  0
LINE
  5
AB31
  8
0
 10
170.11798180043701
 20
32.573850663378877
 30
0.0
 11
170.18149054944519
 21
32.407499222084923
 31
0.0
  0
LINE
  5
AB32
  8
0
 10
170.22320635020739
 20
32.227997971698677
 30
0.0
 11
170.18149054944519
 21
32.407499222084923
 31
0.0
  0
LINE
  5
AB33
  8
0
 10
170.22320635020739
 20
32.227997971698677
 30
0.0
 11
182.25000060498721
 21
32.227997971698677
 31
0.0
  0
LINE
  5
AB34
  8
0
 10
182.25000060498721
 20
40.7720017954707
 30
0.0
 11
170.22320635020739
 21
40.7720017954707
 31
0.0
  0
LINE
  5
AB35
  8
0
 10
170.18149054944519
 20
40.592500545084462
 30
0.0
 11
170.22320635020739
 21
40.7720017954707
 31
0.0
  0
LINE
  5
AB36
  8
0
 10
170.22320635020739
 20
31.639961363747759
 30
0.0
 11
170.22320635020739
 21
32.227997971698677
 31
0.0
  0
LINE
  5
AB37
  8
0
 10
170.22320635020739
 20
40.7720017954707
 30
0.0
 11
170.22320635020739
 21
41.360038636252327
 31
0.0
  0
LINE
  5
AB38
  8
0
 10
182.25000060498721
 20
31.499999878928111
 30
0.0
 11
182.25000060498721
 21
41.50000012107192
 31
0.0
  0
LINE
  5
AB39
  8
0
 10
95.599999347329231
 20
33.899999992921913
 30
0.0
 11
124.89995400498729
 21
33.899999992921927
 31
0.0
  0
LINE
  5
AB3B
  8
0
 10
95.599999347329231
 20
31.99999996088447
 30
0.0
 11
95.599999347329231
 21
41.000000039115498
 31
0.0
  0
LINE
  5
AB3C
  8
0
 10
70.299997621774594
 20
31.99999996088447
 30
0.0
 11
70.299997621774594
 21
30.000000098720211
 31
0.0
  0
LINE
  5
AB3D
  8
0
 10
70.299997621774594
 20
44.999999763444073
 30
0.0
 11
70.299997621774594
 21
41.000000039115498
 31
0.0
  0
LINE
  5
AB3E
  8
0
 10
72.199999982118641
 20
44.999999763444073
 30
0.0
 11
70.299997621774594
 21
44.999999763444073
 31
0.0
  0
LINE
  5
AB3F
  8
0
 10
76.599999958276669
 20
41.199999932199667
 30
0.0
 11
76.599999958276669
 21
44.999999763444073
 31
0.0
  0
LINE
  5
AB40
  8
0
 10
70.299997621774594
 20
30.000000098720211
 30
0.0
 11
94.199999862909181
 21
30.000000098720211
 31
0.0
  0
ARC
  5
AB41
  8
0
 10
90.749997341632707
 20
41.199999954903952
 30
0.0
 40
2.849999815225599
 50
180.0000004564414
 51
359.99999954355849
  0
LINE
  5
AB42
  8
0
 10
70.90000032782558
 20
44.999999763444073
 30
0.0
 11
70.90000032782558
 21
41.199999932199667
 31
0.0
  0
LINE
  5
AB43
  8
0
 10
95.599999347329231
 20
41.000000039115498
 30
0.0
 11
94.199999862909181
 21
41.000000039115498
 31
0.0
  0
LINE
  5
AB44
  8
0
 10
87.899997526407333
 20
44.999999763444073
 30
0.0
 11
87.899997526407333
 21
41.199999932199667
 31
0.0
  0
ARC
  5
AB45
  8
0
 10
73.750000143051068
 20
41.199999563360457
 30
0.0
 40
2.8499998152256278
 50
179.9999925849356
 51
0.0000074150643728
  0
LINE
  5
AB46
  8
0
 10
94.199999862909181
 20
30.000000098720211
 30
0.0
 11
94.199999862909181
 21
31.99999996088447
 31
0.0
  0
LINE
  5
AB47
  8
0
 10
94.199999862909181
 20
41.000000039115498
 30
0.0
 11
94.199999862909181
 21
44.999999763444073
 31
0.0
  0
LINE
  5
AB48
  8
0
 10
70.299997621774594
 20
41.000000039115498
 30
0.0
 11
68.900000000000034
 21
41.000000039115498
 31
0.0
  0
LINE
  5
AB49
  8
0
 10
93.599997156858294
 20
41.199999932199667
 30
0.0
 11
93.599997156858294
 21
44.999999763444073
 31
0.0
  0
LINE
  5
AB4A
  8
0
 10
68.900000000000034
 20
31.99999996088447
 30
0.0
 11
70.299997621774594
 21
31.99999996088447
 31
0.0
  0
LINE
  5
AB4B
  8
0
 10
94.199999862909181
 20
31.99999996088447
 30
0.0
 11
95.599999347329231
 21
31.99999996088447
 31
0.0
  0
LINE
  5
AB4C
  8
0
 10
68.900000000000034
 20
41.000000039115498
 30
0.0
 11
68.900000000000034
 21
31.99999996088447
 31
0.0
  0
LINE
  5
AB4D
  8
0
 10
72.199999982118641
 20
41.199999932199667
 30
0.0
 11
72.199999982118641
 21
44.999999763444073
 31
0.0
  0
ARC
  5
AB4E
  8
0
 10
73.750000143051068
 20
41.200000348906947
 30
0.0
 40
1.550000160932606
 50
180.00001540358849
 51
359.99998459641142
  0
LINE
  5
AB4F
  8
0
 10
75.300000303983609
 20
44.999999763444073
 30
0.0
 11
75.300000303983609
 21
41.199999932199667
 31
0.0
  0
LINE
  5
AB50
  8
0
 10
89.199997180700393
 20
44.999999763444073
 30
0.0
 11
75.300000303983609
 21
44.999999763444073
 31
0.0
  0
ARC
  5
AB51
  8
0
 10
90.749997341632707
 20
41.200000348906947
 30
0.0
 40
1.5500001609325951
 50
180.00001540358849
 51
359.99998459641142
  0
LINE
  5
AB52
  8
0
 10
89.199997180700393
 20
44.999999763444073
 30
0.0
 11
89.199997180700393
 21
41.199999932199667
 31
0.0
  0
LINE
  5
AB53
  8
0
 10
92.299997502565233
 20
41.199999932199667
 30
0.0
 11
92.299997502565233
 21
44.999999763444073
 31
0.0
  0
LINE
  5
AB54
  8
0
 10
94.199999862909181
 20
44.999999763444073
 30
0.0
 11
92.299997502565233
 21
44.999999763444073
 31
0.0
  0
LINE
  5
AB55
  8
3
 10
192.80000037848961
 20
39.699999919161243
 30
0.0
 11
189.39999870359901
 21
39.699999919161243
 31
0.0
  0
LINE
  5
AB56
  8
3
 10
189.39999870359901
 20
33.300000080838842
 30
0.0
 11
192.80000037848961
 21
33.300000080838842
 31
0.0
  0
LINE
  5
AB5B
  8
0
 10
188.60000006258491
 20
71.499999888241305
 30
0.0
 11
184.50000143945221
 21
71.499999888241305
 31
0.0
  0
LINE
  5
AB5C
  8
0
 10
184.50000143945221
 20
61.50000011175873
 30
0.0
 11
188.60000006258491
 21
61.50000011175873
 31
0.0
  0
ARC
  5
AB5D
  8
0
 10
189.3000008336964
 20
61.949997852785501
 30
0.0
 40
0.0999978699218283
 50
269.99994409016648
 51
0.0011231386405907
  0
ARC
  5
AB5E
  8
0
 10
189.3000008336964
 20
71.050002147214641
 30
0.0
 40
0.0999978699218283
 50
359.99887686133661
 51
90.000055909833463
  0
LINE
  5
AB5F
  8
0
 10
188.60000006258491
 20
61.849999982863679
 30
0.0
 11
189.3000007361174
 21
61.849999982863679
 31
0.0
  0
LINE
  5
AB60
  8
0
 10
189.3000007361174
 20
71.15000001713635
 30
0.0
 11
188.60000006258491
 21
71.15000001713635
 31
0.0
  0
LINE
  5
AB61
  8
0
 10
184.17878828346741
 20
61.849999982863679
 30
0.0
 11
184.50000143945221
 21
61.849999982863679
 31
0.0
  0
LINE
  5
AB62
  8
0
 10
184.50000143945221
 20
71.15000001713635
 30
0.0
 11
184.17878828346741
 21
71.15000001713635
 31
0.0
  0
ARC
  5
AB63
  8
0
 10
184.17878715617351
 20
71.050003211342599
 30
0.0
 40
0.0999968058001438
 50
89.999354087586283
 51
173.00158627258659
  0
ARC
  5
AB64
  8
0
 10
184.17878715617351
 20
61.949996788657373
 30
0.0
 40
0.0999968058001175
 50
186.99841372739201
 51
270.00064591242671
  0
LINE
  5
AB65
  8
0
 10
184.07953537404541
 20
71.062187008559718
 30
0.0
 11
183.91227729022509
 21
69.699999919161215
 31
0.0
  0
LINE
  5
AB66
  8
0
 10
183.91227729022509
 20
63.300000080838821
 30
0.0
 11
184.07953537404541
 21
61.93781299144031
 31
0.0
  0
LINE
  5
AB67
  8
0
 10
183.4000014454127
 20
70.999999806284919
 30
0.0
 11
182.25000060498721
 21
70.999999806284919
 31
0.0
  0
LINE
  5
AB68
  8
0
 10
182.25000060498721
 20
62.00000019371511
 30
0.0
 11
183.4000014454127
 21
62.00000019371511
 31
0.0
  0
LINE
  5
AB69
  8
0
 10
172.61192581951619
 20
70.924505867064013
 30
0.0
 11
159.74999971091751
 21
70.699999850243344
 31
0.0
  0
LINE
  5
AB6A
  8
0
 10
159.74999971091751
 20
62.300000149756691
 30
0.0
 11
172.61192581951619
 21
62.075494132936022
 31
0.0
  0
LINE
  5
AB6C
  8
0
 10
159.74999971091751
 20
70.699999850243344
 30
0.0
 11
159.62618409991271
 21
70.684797406196608
 31
0.0
  0
LINE
  5
AB6D
  8
0
 10
156.15000023841861
 20
62.742024470120683
 30
0.0
 11
159.74999971091751
 21
62.300000149756691
 31
0.0
  0
LINE
  5
AB6E
  8
0
 10
189.39999870359901
 20
62.499999810010209
 30
0.0
 11
192.34579435884959
 21
62.499999810010209
 31
0.0
  0
LINE
  5
AB6F
  8
0
 10
192.34579435884959
 20
70.500000189989819
 30
0.0
 11
189.39999870359901
 21
70.500000189989819
 31
0.0
  0
LINE
  5
AB70
  8
0
 10
192.34579435884959
 20
62.499999810010209
 30
0.0
 11
192.8221099764109
 21
63.325000038370511
 31
0.0
  0
LINE
  5
AB71
  8
0
 10
192.8221099764109
 20
69.674999961629524
 30
0.0
 11
192.34579435884959
 21
70.500000189989819
 31
0.0
  0
ARC
  5
AB72
  8
0
 10
172.60319878261751
 20
71.424431948769907
 30
0.0
 40
0.5000022483378271
 50
271.00009104970991
 51
333.32930458806561
  0
ARC
  5
AB73
  8
0
 10
172.60319878261751
 20
61.575568051230121
 30
0.0
 40
0.500002248337786
 50
26.670695411928779
 51
88.999908950290163
  0
LINE
  5
AB74
  8
0
 10
182.25000060498721
 20
71.199999932199731
 30
0.0
 11
173.0500013321639
 21
71.199999932199731
 31
0.0
  0
LINE
  5
AB75
  8
0
 10
173.0500013321639
 20
61.800000067800298
 30
0.0
 11
182.25000060498721
 21
61.800000067800298
 31
0.0
  0
LINE
  5
AB76
  8
0
 10
193.84999952614311
 20
63.05000003986062
 30
0.0
 11
195.5999993473292
 21
63.300000080838821
 31
0.0
  0
LINE
  5
AB77
  8
0
 10
195.5999993473292
 20
69.699999919161215
 30
0.0
 11
193.84999952614311
 21
69.949999960139408
 31
0.0
  0
LINE
  5
AB78
  8
0
 10
193.84999952614311
 20
69.949999960139408
 30
0.0
 11
193.57499859631071
 21
69.674999961629524
 31
0.0
  0
LINE
  5
AB79
  8
0
 10
193.57499859631071
 20
63.325000038370511
 30
0.0
 11
193.84999952614311
 21
63.05000003986062
 31
0.0
  0
LINE
  5
AB7A
  8
0
 10
183.4000014454127
 20
63.300000080838821
 30
0.0
 11
183.91227729022509
 21
63.300000080838821
 31
0.0
  0
LINE
  5
AB7B
  8
0
 10
183.91227729022509
 20
69.699999919161215
 30
0.0
 11
183.4000014454127
 21
69.699999919161215
 31
0.0
  0
LINE
  5
AB7C
  8
0
 10
193.57499859631071
 20
69.674999961629524
 30
0.0
 11
192.8221099764109
 21
69.674999961629524
 31
0.0
  0
LINE
  5
AB7D
  8
0
 10
192.8221099764109
 20
63.325000038370511
 30
0.0
 11
193.57499859631071
 21
63.325000038370511
 31
0.0
  0
LINE
  5
AB80
  8
0
 10
170.22320635020739
 20
67.124518375843778
 30
0.0
 11
170.22320635020739
 21
68.900000113993897
 31
0.0
  0
POLYLINE
  5
AB81
  8
0
 66
     1
 10
0.0
 20
0.0
 30
0.0
 70
   128
  0
VERTEX
  5
B289
  8
0
 10
170.2499986380339
 20
66.849999987520292
 30
0.0
  0
VERTEX
  5
B28A
  8
0
 10
170.22927484810361
 20
66.986242613988011
 30
0.0
  0
VERTEX
  5
B28B
  8
0
 10
170.22320635020739
 20
67.124518375843778
 30
0.0
  0
SEQEND
  5
B28C
  8
0
  0
LINE
  5
AB82
  8
0
 10
170.2499986380339
 20
66.849999987520292
 30
0.0
 11
170.2499986380339
 21
66.150000012479737
 31
0.0
  0
POLYLINE
  5
AB83
  8
0
 66
     1
 10
0.0
 20
0.0
 30
0.0
 70
   128
  0
VERTEX
  5
B28D
  8
0
 10
170.22320635020739
 20
65.875481624156251
 30
0.0
  0
VERTEX
  5
B28E
  8
0
 10
170.2310033828021
 20
66.031381821725532
 30
0.0
  0
VERTEX
  5
B28F
  8
0
 10
170.2499986380339
 20
66.150000012479737
 30
0.0
  0
SEQEND
  5
B290
  8
0
  0
LINE
  5
AB84
  8
0
 10
170.22320635020739
 20
64.099999886006131
 30
0.0
 11
170.22320635020739
 21
65.875481624156251
 31
0.0
  0
LINE
  5
AB85
  8
0
 10
170.2499986380339
 20
66.150000012479737
 30
0.0
 11
182.25000060498721
 21
66.150000012479737
 31
0.0
  0
LINE
  5
AB86
  8
0
 10
182.25000060498721
 20
66.849999987520292
 30
0.0
 11
170.2499986380339
 21
66.849999987520292
 31
0.0
  0
LINE
  5
AB87
  8
0
 10
188.60000006258491
 20
61.50000011175873
 30
0.0
 11
188.60000006258491
 21
71.499999888241305
 31
0.0
  0
LINE
  5
AB88
  8
0
 10
184.50000143945221
 20
61.50000011175873
 30
0.0
 11
184.50000143945221
 21
71.499999888241305
 31
0.0
  0
LINE
  5
AB89
  8
0
 10
182.25000060498721
 20
64.099999886006131
 30
0.0
 11
170.11798180043701
 21
64.099999886006131
 31
0.0
  0
LINE
  5
AB8A
  8
0
 10
170.11798180043701
 20
68.900000113993897
 30
0.0
 11
182.25000060498721
 21
68.900000113993897
 31
0.0
  0
LINE
  5
AB8B
  8
0
 10
189.39999870359901
 20
61.949999812990441
 30
0.0
 11
189.39999870359901
 21
71.050000187009644
 31
0.0
  0
LINE
  5
AB8C
  8
0
 10
183.4000014454127
 20
62.00000019371511
 30
0.0
 11
183.4000014454127
 21
70.999999806284919
 31
0.0
  0
LINE
  5
AB8D
  8
0
 10
159.74999971091751
 20
62.300000149756691
 30
0.0
 11
159.74999971091751
 21
70.699999850243344
 31
0.0
  0
ARC
  5
AB8E
  8
0
 10
172.55000394804301
 20
63.600006973334651
 30
0.0
 40
0.499992912684669
 50
34.156895393264328
 51
90.000415876769964
  0
ARC
  5
AB8F
  8
0
 10
172.550006623097
 20
69.399987978915661
 30
0.0
 40
0.499987864961536
 50
269.99927757298582
 51
325.84341115698152
  0
LINE
  5
AB91
  8
0
 10
156.15000023841861
 20
62.742024470120683
 30
0.0
 11
156.15000023841861
 21
70.257975529879346
 31
0.0
  0
LINE
  5
AB92
  8
0
 10
192.34579435884959
 20
62.499999810010209
 30
0.0
 11
192.34579435884959
 21
70.500000189989819
 31
0.0
  0
LINE
  5
AB93
  8
0
 10
192.8221099764109
 20
63.325000038370511
 30
0.0
 11
192.8221099764109
 21
69.674999961629524
 31
0.0
  0
LINE
  5
AB94
  8
0
 10
173.0500013321639
 20
71.199999932199731
 30
0.0
 11
173.0500013321639
 21
69.39999996311964
 31
0.0
  0
LINE
  5
AB95
  8
0
 10
173.0500013321639
 20
63.600000036880388
 30
0.0
 11
173.0500013321639
 21
61.800000067800298
 31
0.0
  0
LINE
  5
AB96
  8
0
 10
181.1500006109477
 20
71.016636021435275
 30
0.0
 11
174.15000132620341
 21
71.016636021435275
 31
0.0
  0
ARC
  5
AB97
  8
0
 10
181.23551643076459
 20
71.790557507995246
 30
0.0
 40
0.7786317632861888
 50
263.6945808317264
 51
302.1626842052197
  0
ARC
  5
AB98
  8
0
 10
174.03009616919761
 20
71.640749834220173
 30
0.0
 40
0.6355275745280289
 50
233.2675423095292
 51
280.8751926535308
  0
POLYLINE
  5
AB99
  8
0
 66
     1
 10
0.0
 20
0.0
 30
0.0
 70
   128
  0
VERTEX
  5
B291
  8
0
 10
173.0500013321639
 20
69.39999996311964
 30
0.0
  0
VERTEX
  5
B292
  8
0
 10
173.00789065063009
 20
69.199157921597376
 30
0.0
  0
VERTEX
  5
B293
  8
0
 10
172.96374968588361
 20
69.11926651000978
 30
0.0
  0
SEQEND
  5
B294
  8
0
  0
LINE
  5
AB9A
  8
0
 10
182.25000060498721
 20
61.800000067800298
 30
0.0
 11
182.25000060498721
 21
71.199999932199731
 31
0.0
  0
ARC
  5
AB9B
  8
0
 10
181.2699057679533
 20
61.359250165779962
 30
0.0
 40
0.6355275745279112
 50
53.267542309521097
 51
100.8751926535307
  0
LINE
  5
AB9C
  8
0
 10
174.15000132620341
 20
61.983363978564761
 30
0.0
 11
181.1500006109477
 21
61.983363978564761
 31
0.0
  0
ARC
  5
AB9D
  8
0
 10
174.06448550638649
 20
61.209442492004669
 30
0.0
 40
0.7786317632862734
 50
83.694580831726327
 51
122.1626842052158
  0
POLYLINE
  5
AB9E
  8
0
 66
     1
 10
0.0
 20
0.0
 30
0.0
 70
   128
  0
VERTEX
  5
B295
  8
0
 10
172.96374968588361
 20
63.880733489990249
 30
0.0
  0
VERTEX
  5
B296
  8
0
 10
173.04305366575721
 20
63.683057246729753
 30
0.0
  0
VERTEX
  5
B297
  8
0
 10
173.0500013321639
 20
63.600000036880388
 30
0.0
  0
SEQEND
  5
B298
  8
0
  0
LINE
  5
AB9F
  8
0
 10
195.5999993473292
 20
63.300000080838821
 30
0.0
 11
195.5999993473292
 21
69.699999919161215
 31
0.0
  0
LINE
  5
ABA0
  8
0
 10
193.57499859631071
 20
63.325000038370511
 30
0.0
 11
193.57499859631071
 21
69.674999961629524
 31
0.0
  0
LINE
  5
ABA1
  8
0
 10
181.6500016242266
 20
71.131414543837323
 30
0.0
 11
181.6500016242266
 21
71.199999932199731
 31
0.0
  0
LINE
  5
ABA2
  8
0
 10
173.65000031292439
 20
71.131414543837323
 30
0.0
 11
173.65000031292439
 21
71.199999932199731
 31
0.0
  0
LINE
  5
ABA3
  8
0
 10
181.6500016242266
 20
61.868585456162712
 30
0.0
 11
181.6500016242266
 21
61.800000067800298
 31
0.0
  0
LINE
  5
ABA4
  8
0
 10
173.65000031292439
 20
61.800000067800298
 30
0.0
 11
173.65000031292439
 21
61.868585456162712
 31
0.0
  0
LINE
  5
ABA5
  8
0
 10
94.199999862909294
 20
63.899999992921927
 30
0.0
 11
124.89995400498729
 21
63.899999992921963
 31
0.0
  0
LINE
  5
ABA7
  8
0
 10
94.199999862909294
 20
62.60000010579823
 30
0.0
 11
94.199999862909294
 21
70.399999894201741
 31
0.0
  0
LINE
  5
ABA8
  8
0
 10
93.599997156858436
 20
63.799999929964521
 30
0.0
 11
93.599997156858436
 21
62.60000010579823
 31
0.0
  0
LINE
  5
ABA9
  8
0
 10
92.299997502565375
 20
69.200000070035443
 30
0.0
 11
92.299997502565375
 21
63.799999929964521
 31
0.0
  0
LINE
  5
ABAA
  8
0
 10
93.599997156858436
 20
69.200000070035443
 30
0.0
 11
93.599997156858436
 21
70.399999894201741
 31
0.0
  0
LINE
  5
ABAB
  8
0
 10
89.199997180700294
 20
69.200000070035443
 30
0.0
 11
89.199997180700294
 21
63.799999929964521
 31
0.0
  0
LINE
  5
ABAC
  8
0
 10
87.899997526407219
 20
63.799999929964521
 30
0.0
 11
87.899997526407219
 21
62.60000010579823
 31
0.0
  0
LINE
  5
ABAD
  8
0
 10
76.599999958276783
 20
63.799999929964521
 30
0.0
 11
76.599999958276783
 21
62.60000010579823
 31
0.0
  0
LINE
  5
ABAE
  8
0
 10
75.300000303983722
 20
69.200000070035443
 30
0.0
 11
75.300000303983722
 21
63.799999929964521
 31
0.0
  0
LINE
  5
ABAF
  8
0
 10
76.599999958276783
 20
69.200000070035443
 30
0.0
 11
76.599999958276783
 21
70.399999894201741
 31
0.0
  0
LINE
  5
ABB0
  8
0
 10
87.899997526407219
 20
69.200000070035443
 30
0.0
 11
87.899997526407219
 21
70.399999894201741
 31
0.0
  0
LINE
  5
ABB1
  8
0
 10
76.599999958276783
 20
69.200000070035443
 30
0.0
 11
70.90000032782558
 21
69.200000070035443
 31
0.0
  0
LINE
  5
ABB2
  8
0
 10
72.199999982118641
 20
69.200000070035443
 30
0.0
 11
72.199999982118641
 21
63.799999929964521
 31
0.0
  0
LINE
  5
ABB3
  8
0
 10
76.599999958276783
 20
63.799999929964521
 30
0.0
 11
70.90000032782558
 21
63.799999929964521
 31
0.0
  0
LINE
  5
ABB4
  8
0
 10
70.90000032782558
 20
63.799999929964521
 30
0.0
 11
70.90000032782558
 21
62.60000010579823
 31
0.0
  0
LINE
  5
ABB5
  8
0
 10
70.299997621774708
 20
62.60000010579823
 30
0.0
 11
70.299997621774708
 21
70.399999894201741
 31
0.0
  0
LINE
  5
ABB6
  8
0
 10
70.90000032782558
 20
69.200000070035443
 30
0.0
 11
70.90000032782558
 21
70.399999894201741
 31
0.0
  0
LINE
  5
ABB7
  8
0
 10
94.999998503923393
 20
69.200000070035443
 30
0.0
 11
94.999998503923393
 21
69.900000045075984
 31
0.0
  0
LINE
  5
ABB8
  8
0
 10
94.999998503923393
 20
69.900000045075984
 30
0.0
 11
94.199999862909294
 21
69.900000045075984
 31
0.0
  0
LINE
  5
ABB9
  8
0
 10
95.599999347329117
 20
69.200000070035443
 30
0.0
 11
94.999998503923393
 21
69.200000070035443
 31
0.0
  0
LINE
  5
ABBA
  8
0
 10
95.599999347329117
 20
69.200000070035443
 30
0.0
 11
95.599999347329117
 21
70.399999894201741
 31
0.0
  0
LINE
  5
ABBB
  8
0
 10
69.499998980760608
 20
69.900000045075984
 30
0.0
 11
69.499998980760608
 21
69.200000070035443
 31
0.0
  0
LINE
  5
ABBC
  8
0
 10
69.499998980760608
 20
69.200000070035443
 30
0.0
 11
68.900000000000034
 21
69.200000070035443
 31
0.0
  0
LINE
  5
ABBD
  8
0
 10
70.299997621774708
 20
69.900000045075984
 30
0.0
 11
69.499998980760608
 21
69.900000045075984
 31
0.0
  0
LINE
  5
ABBE
  8
0
 10
68.900000000000034
 20
69.200000070035443
 30
0.0
 11
68.900000000000034
 21
70.399999894201741
 31
0.0
  0
LINE
  5
ABBF
  8
0
 10
95.599999347329117
 20
70.399999894201741
 30
0.0
 11
68.900000000000034
 21
70.399999894201741
 31
0.0
  0
LINE
  5
ABC0
  8
0
 10
69.499998980760608
 20
63.099999954923973
 30
0.0
 11
70.299997621774708
 21
63.099999954923973
 31
0.0
  0
LINE
  5
ABC1
  8
0
 10
68.900000000000034
 20
62.60000010579823
 30
0.0
 11
68.900000000000034
 21
63.799999929964521
 31
0.0
  0
LINE
  5
ABC2
  8
0
 10
69.499998980760608
 20
63.799999929964521
 30
0.0
 11
69.499998980760608
 21
63.099999954923973
 31
0.0
  0
LINE
  5
ABC3
  8
0
 10
68.900000000000034
 20
63.799999929964521
 30
0.0
 11
69.499998980760608
 21
63.799999929964521
 31
0.0
  0
LINE
  5
ABC4
  8
0
 10
94.999998503923393
 20
63.799999929964521
 30
0.0
 11
95.599999347329117
 21
63.799999929964521
 31
0.0
  0
LINE
  5
ABC5
  8
0
 10
94.199999862909294
 20
63.099999954923973
 30
0.0
 11
94.999998503923393
 21
63.099999954923973
 31
0.0
  0
LINE
  5
ABC6
  8
0
 10
95.599999347329117
 20
62.60000010579823
 30
0.0
 11
95.599999347329117
 21
63.799999929964521
 31
0.0
  0
LINE
  5
ABC7
  8
0
 10
94.999998503923393
 20
63.099999954923973
 30
0.0
 11
94.999998503923393
 21
63.799999929964521
 31
0.0
  0
LINE
  5
ABC8
  8
3
 10
192.80000037848961
 20
69.699999919161215
 30
0.0
 11
189.39999870359901
 21
69.699999919161215
 31
0.0
  0
LINE
  5
ABC9
  8
3
 10
189.39999870359901
 20
63.300000080838821
 30
0.0
 11
192.80000037848961
 21
63.300000080838821
 31
0.0
  0
LINE
  5
ABCE
  8
0
 10
93.599997156858436
 20
69.200000070035443
 30
0.0
 11
87.899997526407219
 21
69.200000070035443
 31
0.0
  0
LINE
  5
ABCF
  8
0
 10
93.599997156858436
 20
63.799999929964521
 30
0.0
 11
87.899997526407219
 21
63.799999929964521
 31
0.0
  0
LINE
  5
ABD0
  8
0
 10
95.599999347329117
 20
62.60000010579823
 30
0.0
 11
68.900000000000034
 21
62.60000010579823
 31
0.0
  0
LINE
  5
ABD1
  8
1
 10
92.799999347329276
 20
36.500000000000021
 30
0.0
 11
198.39999934732921
 21
36.499999999999993
 31
0.0
  0
LINE
  5
ABD2
  8
1
 10
73.750000143051182
 20
59.800000105798212
 30
0.0
 11
73.750000143051182
 21
73.199999894201753
 31
0.0
  0
LINE
  5
ABD3
  8
1
 10
90.749997341632834
 20
59.800000105798212
 30
0.0
 11
90.749997341632834
 21
73.199999894201753
 31
0.0
  0
LINE
  5
ABD4
  8
1
 10
69.399999982118629
 20
41.199999179438308
 30
0.0
 11
78.100000303983506
 21
41.199999179438421
 31
0.0
  0
LINE
  5
ABD5
  8
1
 10
73.750000143051125
 20
36.849999018505933
 30
0.0
 11
73.750000143051011
 21
45.549999340370803
 31
0.0
  0
LINE
  5
ABD6
  8
1
 10
86.399997180700268
 20
41.199999954903902
 30
0.0
 11
95.099997502565145
 21
41.199999954904023
 31
0.0
  0
LINE
  5
ABD7
  8
1
 10
90.749997341632749
 20
36.84999979397152
 30
0.0
 11
90.74999734163265
 21
45.55000011583639
 31
0.0
  0
LINE
  5
ABD8
  8
1
 10
93.136989484937985
 20
66.499999999999986
 30
0.0
 11
198.39999934732921
 21
66.500000000000014
 31
0.0
  0
LINE
  5
ABD9
  8
0
 10
159.74999971091751
 20
70.699999850243273
 30
0.0
 11
156.15000023841861
 21
70.257975529879346
 31
0.0
  0
ARC
  5
AD80
  8
3
 10
130.6749997928739
 20
39.124999941792197
 30
0.0
 40
6.82499999999997
 50
157.3801350519588
 51
202.6198649480412
  0
ARC
  5
AD81
  8
3
 10
118.074999792874
 20
33.874999941792261
 30
0.0
 40
6.82499999999997
 50
337.3801350519588
 51
22.619864948041169
  0
ARC
  5
AD82
  8
3
 10
133.6749997928739
 20
39.124999941792197
 30
0.0
 40
6.8249999999999842
 50
157.3801350519588
 51
202.6198649480412
  0
ARC
  5
AD83
  8
3
 10
121.074999792874
 20
33.874999941792261
 30
0.0
 40
6.82499999999997
 50
337.3801350519588
 51
22.619864948041169
  0
LINE
  5
AD87
  8
0
 10
156.15000023841861
 20
39.099999890662758
 30
0.0
 11
126.85004558076059
 21
39.099999890662758
 31
0.0
  0
ARC
  5
AD88
  8
3
 10
130.6749997928739
 20
69.124999941792183
 30
0.0
 40
6.82499999999997
 50
157.3801350519586
 51
202.6198649480414
  0
ARC
  5
AD89
  8
3
 10
118.074999792874
 20
63.87499994179224
 30
0.0
 40
6.82499999999997
 50
337.38013505195852
 51
22.619864948041371
  0
ARC
  5
AD8A
  8
3
 10
133.6749997928739
 20
69.124999941792183
 30
0.0
 40
6.8249999999999842
 50
157.3801350519586
 51
202.6198649480414
  0
ARC
  5
AD8B
  8
3
 10
121.074999792874
 20
63.87499994179224
 30
0.0
 40
6.82499999999997
 50
337.38013505195852
 51
22.619864948041371
  0
LINE
  5
AD8D
  8
0
 10
156.15000023841861
 20
69.10000000707808
 30
0.0
 11
126.8500455803342
 21
69.100000007078094
 31
0.0
  0
LINE
  5
AD8E
  8
0
 10
123.8500455803342
 20
69.100000007078094
 30
0.0
 11
94.199999862909294
 21
69.100000007078023
 31
0.0
  0
LINE
  5
AD8F
  8
0
 10
127.89995400498729
 20
63.899999992921963
 30
0.0
 11
156.15000023841861
 21
63.899999992921991
 31
0.0
  0
LINE
  5
AD90
  8
0
 10
123.85004558076059
 20
39.099999890662758
 30
0.0
 11
95.599999347329231
 21
39.099999890662751
 31
0.0
  0
LINE
  5
AD91
  8
0
 10
127.89995400498729
 20
33.899999992921927
 30
0.0
 11
156.15000023841861
 21
33.899999992921963
 31
0.0
  0
ARC
  5
AF8D
  8
0
 10
33.900000000000041
 20
36.5
 30
0.0
 40
4.199999999999104
 50
158.2132107017992
 51
201.78678929820069
  0
ARC
  5
AF8E
  8
0
 10
33.900000000000041
 20
36.5
 30
0.0
 40
4.1999999999991058
 50
338.21321070180028
 51
21.786789298200389
  0
ARC
  5
AF90
  8
0
 10
33.900000000000041
 20
36.5
 30
0.0
 40
4.3736778960337306
 50
153.08740327039951
 51
206.9125967295997
  0
ARC
  5
AF91
  8
0
 10
33.900000000000041
 20
36.5
 30
0.0
 40
4.3736778960337164
 50
333.08740327039988
 51
26.912596729580098
  0
ARC
  5
AF92
  8
0
 10
33.900000000000041
 20
36.5
 30
0.0
 40
5.0000000000000133
 50
141.26057540210019
 51
218.73942459789981
  0
ARC
  5
AF93
  8
0
 10
33.900000000000041
 20
36.5
 30
0.0
 40
5.0000000000000044
 50
321.26057540210019
 51
38.739424597899799
  0
LINE
  5
AF95
  8
0
 10
37.800000000000068
 20
41.0
 30
0.0
 11
36.600000000000072
 21
41.0
 31
0.0
  0
LINE
  5
AF97
  8
0
 10
30.0
 20
32.0
 30
0.0
 11
31.199999999999999
 21
32.0
 31
0.0
  0
LINE
  5
AF98
  8
0
 10
37.800000000000068
 20
45.0
 30
0.0
 11
30.0
 21
45.0
 31
0.0
  0
LINE
  5
AF9B
  8
0
 10
37.800000000000068
 20
30.0
 30
0.0
 11
30.0
 21
30.0
 31
0.0
  0
LINE
  5
AF9C
  8
0
 10
37.800000000000068
 20
45.0
 30
0.0
 11
37.800000000000068
 21
30.0
 31
0.0
  0
LINE
  5
AF9D
  8
0
 10
30.0
 20
45.0
 30
0.0
 11
30.0
 21
30.0
 31
0.0
  0
CIRCLE
  5
AF9E
  8
0
 10
225.5999993473292
 20
36.499999999999993
 30
0.0
 40
3.4499999999866291
  0
CIRCLE
  5
AF9F
  8
0
 10
225.5999993473292
 20
36.499999999999993
 30
0.0
 40
3.1999999999986382
  0
LINE
  5
AFA0
  8
0
 10
226.0999993473292
 20
39.305797569299997
 30
0.0
 11
226.0999993473292
 21
39.049999999999969
 31
0.0
  0
ARC
  5
AFA1
  8
0
 10
225.5999993473292
 20
36.499999999999993
 30
0.0
 40
2.8499999999999819
 50
100.1041827160988
 51
79.895817283901195
  0
ARC
  5
AFA2
  8
0
 10
225.6999993473292
 20
39.049999999999969
 30
0.0
 40
0.4000000000000057
 50
270.0
 51
0.0
  0
ARC
  5
AFA3
  8
0
 10
225.49999934732921
 20
39.049999999999969
 30
0.0
 40
0.4000000000000057
 50
180.0
 51
270.0
  0
LINE
  5
AFA4
  8
0
 10
225.0999993473292
 20
39.049999999999969
 30
0.0
 11
225.0999993473292
 21
39.305797569299997
 31
0.0
  0
LINE
  5
AFA5
  8
0
 10
225.6999993473292
 20
38.649999999999991
 30
0.0
 11
225.49999934732921
 21
38.649999999999991
 31
0.0
  0
CIRCLE
  5
AFA6
  8
0
 10
225.5999993473292
 20
36.499999999999993
 30
0.0
 40
0.3500000000000085
  0
CIRCLE
  5
AFA7
  8
0
 10
225.5999993473292
 20
34.59999999999998
 30
0.0
 40
0.3499999999999943
  0
CIRCLE
  5
AFA8
  8
0
 10
227.34912369962919
 20
35.758000000000003
 30
0.0
 40
0.3499999999999943
  0
CIRCLE
  5
AFA9
  8
0
 10
226.96660097182919
 20
37.820000000000007
 30
0.0
 40
0.3499999999999943
  0
CIRCLE
  5
AFAA
  8
0
 10
224.23339772282921
 20
37.820000000000007
 30
0.0
 40
0.3499999999999943
  0
CIRCLE
  5
AFAB
  8
0
 10
223.8508749949292
 20
35.758000000000003
 30
0.0
 40
0.3500000000000085
  0
CIRCLE
  5
AFAC
  8
0
 10
225.5999993473292
 20
36.499999999999993
 30
0.0
 40
4.0
  0
CIRCLE
  5
AFAD
  8
0
 10
225.5999993473292
 20
36.499999999999993
 30
0.0
 40
4.9999999999999858
  0
LINE
  5
AFAE
  8
0
 10
221.6999993473292
 20
31.999999999999989
 30
0.0
 11
222.89999934732921
 21
31.999999999999989
 31
0.0
  0
LINE
  5
AFAF
  8
0
 10
228.29999934732919
 20
31.999999999999989
 30
0.0
 11
229.49999934732921
 21
31.999999999999989
 31
0.0
  0
LINE
  5
AFB4
  8
0
 10
229.49999934732921
 20
40.999999999999979
 30
0.0
 11
228.29999934732919
 21
41.0
 31
0.0
  0
LINE
  5
AFB5
  8
0
 10
222.89999934732921
 20
41.0
 30
0.0
 11
221.6999993473292
 21
40.999999999999979
 31
0.0
  0
LINE
  5
AFB6
  8
0
 10
229.49999934732921
 20
44.999999999999993
 30
0.0
 11
221.6999993473292
 21
44.999999999999993
 31
0.0
  0
LINE
  5
AFB7
  8
0
 10
229.49999934732921
 20
39.628897569432397
 30
0.0
 11
229.49999934732921
 21
44.999999999999993
 31
0.0
  0
LINE
  5
AFB8
  8
0
 10
221.6999993473292
 20
39.628897569432333
 30
0.0
 11
221.6999993473292
 21
44.999999999999993
 31
0.0
  0
LINE
  5
AFB9
  8
0
 10
221.6999993473292
 20
29.999999999999989
 30
0.0
 11
229.49999934732921
 21
29.999999999999989
 31
0.0
  0
LINE
  5
AFBA
  8
0
 10
229.49999934732921
 20
29.999999999999989
 30
0.0
 11
229.49999934732921
 21
33.371102430567582
 31
0.0
  0
LINE
  5
AFBB
  8
0
 10
221.6999993473292
 20
29.999999999999989
 30
0.0
 11
221.6999993473292
 21
33.371102430567653
 31
0.0
  0
LINE
  5
AFC2
  8
0
 10
222.89999934732921
 20
40.999999999999979
 30
0.0
 11
222.89999934732921
 21
40.708325082500117
 31
0.0
  0
LINE
  5
AFC3
  8
0
 10
228.29999934732919
 20
40.999999999999979
 30
0.0
 11
228.2999993473293
 21
40.708325082500117
 31
0.0
  0
LINE
  5
AFC4
  8
0
 10
31.199999999999999
 20
41.0
 30
0.0
 11
30.0
 21
41.0
 31
0.0
  0
LINE
  5
AFC5
  8
0
 10
36.600000000000072
 20
32.0
 30
0.0
 11
37.800000000000068
 21
32.0
 31
0.0
  0
LINE
  5
AFC7
  8
1
 10
40.599999894201787
 20
41.199999415994242
 30
0.0
 11
27.20000010579826
 21
41.199999415994249
 31
0.0
  0
LINE
  5
B012
  8
1
 10
217.79999934732919
 20
36.499999999999993
 30
0.0
 11
233.39999934732921
 21
36.499999999999993
 31
0.0
  0
LINE
  5
B013
  8
1
 10
225.5999993473292
 20
44.299999999999969
 30
0.0
 11
225.5999993473292
 21
28.699999999999999
 31
0.0
  0
LINE
  5
B016
  8
0
 10
222.89999934732921
 20
32.291674917499847
 30
0.0
 11
222.89999934732921
 21
31.999999999999989
 31
0.0
  0
LINE
  5
B017
  8
0
 10
228.2999993473293
 20
32.291674917499883
 30
0.0
 11
228.29999934732919
 21
31.999999999999989
 31
0.0
  0
LINE
  5
B020
  8
0
 10
31.199999999999999
 20
32.0
 30
0.0
 11
31.199999999999999
 21
41.0
 31
0.0
  0
LINE
  5
B021
  8
0
 10
36.600000000000072
 20
41.0
 30
0.0
 11
36.600000000000072
 21
32.0
 31
0.0
  0
LINE
  5
B022
  8
2
 10
37.800000000000068
 20
38.349999649414642
 30
0.0
 11
36.600000000000072
 21
38.349999649414627
 31
0.0
  0
LINE
  5
B023
  8
2
 10
36.600000000000072
 20
39.650000089254149
 30
0.0
 11
31.199999999999999
 21
39.650000089254142
 31
0.0
  0
LINE
  5
B024
  8
2
 10
31.199999999999999
 20
38.349999649414627
 30
0.0
 11
31.199999999999999
 21
45.0
 31
0.0
  0
LINE
  5
B025
  8
2
 10
36.600000000000072
 20
38.349999649414627
 30
0.0
 11
36.600000000000072
 21
45.0
 31
0.0
  0
LINE
  5
B026
  8
2
 10
31.199999999999989
 20
38.349999649414627
 30
0.0
 11
30.0
 21
38.349999649414627
 31
0.0
  0
ENDSEC
  0
EOF
