  0
SECTION
  2
HEADER
  9
$ACADVER
  1
AC1009
  9
$INSBASE
 10
0.0
 20
0.0
 30
0.0
  9
$EXTMIN
 10
0.0
 20
-2.960436562073669
 30
0.0
  9
$EXTMAX
 10
283.50000000000011
 20
208.5
 30
0.0
  9
$LIMMIN
 10
0.0
 20
0.0
  9
$LIMMAX
 10
375.0
 20
270.0
  9
$ORTHOMODE
 70
     1
  9
$REGENMODE
 70
     1
  9
$FILLMODE
 70
     1
  9
$QTEXTMODE
 70
     0
  9
$MIRRTEXT
 70
     0
  9
$DRAGMODE
 70
     2
  9
$LTSCALE
 40
10.0
  9
$OSMODE
 70
    55
  9
$ATTMODE
 70
     1
  9
$TEXTSIZE
 40
5.0
  9
$TRACEWID
 40
0.05
  9
$TEXTSTYLE
  7
STANDARD
  9
$CLAYER
  8
0
  9
$CELTYPE
  6
BYLAYER
  9
$CECOLOR
 62
   256
  9
$DIMSCALE
 40
1.0
  9
$DIMASZ
 40
3.0
  9
$DIMEXO
 40
2.0
  9
$DIMDLI
 40
0.38
  9
$DIMRND
 40
0.0
  9
$DIMDLE
 40
0.0
  9
$DIMEXE
 40
2.0
  9
$DIMTP
 40
0.0
  9
$DIMTM
 40
0.0
  9
$DIMTXT
 40
3.2000000000000002
  9
$DIMCEN
 40
0.0
  9
$DIMTSZ
 40
0.0
  9
$DIMTOL
 70
     0
  9
$DIMLIM
 70
     0
  9
$DIMTIH
 70
     0
  9
$DIMTOH
 70
     0
  9
$DIMSE1
 70
     0
  9
$DIMSE2
 70
     0
  9
$DIMTAD
 70
     1
  9
$DIMZIN
 70
     0
  9
$DIMBLK
  1

  9
$DIMASO
 70
     1
  9
$DIMSHO
 70
     0
  9
$DIMPOST
  1

  9
$DIMAPOST
  1

  9
$DIMALT
 70
     0
  9
$DIMALTD
 70
     2
  9
$DIMALTF
 40
25.399999999999999
  9
$DIMLFAC
 40
1.0
  9
$DIMTOFL
 70
     1
  9
$DIMTVP
 40
1.6000000000000001
  9
$DIMTIX
 70
     1
  9
$DIMSOXD
 70
     0
  9
$DIMSAH
 70
     0
  9
$DIMBLK1
  1

  9
$DIMBLK2
  1

  9
$DIMSTYLE
  2
STANDARD
  9
$DIMCLRD
 70
     0
  9
$DIMCLRE
 70
     0
  9
$DIMCLRT
 70
     0
  9
$DIMTFAC
 40
1.0
  9
$DIMGAP
 40
0.09
  9
$LUNITS
 70
     2
  9
$LUPREC
 70
     4
  9
$SKETCHINC
 40
0.1
  9
$FILLETRAD
 40
0.0
  9
$AUNITS
 70
     0
  9
$AUPREC
 70
     4
  9
$MENU
  1
E:\r13\win\SUPPORT\ACAD
  9
$ELEVATION
 40
0.0
  9
$PELEVATION
 40
0.0
  9
$THICKNESS
 40
0.0
  9
$LIMCHECK
 70
     0
  9
$BLIPMODE
 70
     0
  9
$CHAMFERA
 40
0.0
  9
$CHAMFERB
 40
0.0
  9
$SKPOLY
 70
     0
  9
$TDCREATE
 40
2449839.7850231491
  9
$TDUPDATE
 40
2456598.5028848732
  9
$TDINDWG
 40
0.0001405093
  9
$TDUSRTIMER
 40
0.0001405093
  9
$USRTIMER
 70
     1
  9
$ANGBASE
 50
0.0
  9
$ANGDIR
 70
     0
  9
$PDMODE
 70
     0
  9
$PDSIZE
 40
0.0
  9
$PLINEWID
 40
0.0
  9
$COORDS
 70
     1
  9
$SPLFRAME
 70
     0
  9
$SPLINETYPE
 70
     6
  9
$SPLINESEGS
 70
     8
  9
$ATTDIA
 70
     0
  9
$ATTREQ
 70
     1
  9
$HANDLING
 70
     1
  9
$HANDSEED
  5
2B4
  9
$SURFTAB1
 70
     6
  9
$SURFTAB2
 70
     6
  9
$SURFTYPE
 70
     6
  9
$SURFU
 70
     6
  9
$SURFV
 70
     6
  9
$UCSNAME
  2

  9
$UCSORG
 10
0.0
 20
0.0
 30
0.0
  9
$UCSXDIR
 10
1.0
 20
0.0
 30
0.0
  9
$UCSYDIR
 10
0.0
 20
1.0
 30
0.0
  9
$PUCSNAME
  2

  9
$PUCSORG
 10
0.0
 20
0.0
 30
0.0
  9
$PUCSXDIR
 10
1.0
 20
0.0
 30
0.0
  9
$PUCSYDIR
 10
0.0
 20
1.0
 30
0.0
  9
$USERI1
 70
     0
  9
$USERI2
 70
     1
  9
$USERI3
 70
     1
  9
$USERI4
 70
     0
  9
$USERI5
 70
     0
  9
$USERR1
 40
0.0
  9
$USERR2
 40
0.0
  9
$USERR3
 40
0.0
  9
$USERR4
 40
0.0
  9
$USERR5
 40
0.0
  9
$WORLDVIEW
 70
     1
  9
$SHADEDGE
 70
     3
  9
$SHADEDIF
 70
    70
  9
$TILEMODE
 70
     1
  9
$MAXACTVP
 70
    16
  9
$PLIMCHECK
 70
     0
  9
$PEXTMIN
 10
1.0000000000000000E+020
 20
1.0000000000000000E+020
 30
1.0000000000000000E+020
  9
$PEXTMAX
 10
-1.0000000000000000E+020
 20
-1.0000000000000000E+020
 30
-1.0000000000000000E+020
  9
$PLIMMIN
 10
0.0
 20
0.0
  9
$PLIMMAX
 10
12.0
 20
9.0
  9
$UNITMODE
 70
     0
  9
$VISRETAIN
 70
     0
  9
$PLINEGEN
 70
     0
  9
$PSLTSCALE
 70
     0
  0
ENDSEC
  0
SECTION
  2
TABLES
  0
TABLE
  2
VPORT
 70
     1
  0
VPORT
  2
*ACTIVE
 70
     0
 10
0.0
 20
0.0
 11
1.0
 21
1.0
 12
187.49427839065231
 22
174.91677254346851
 13
0.0
 23
0.0
 14
10.0
 24
10.0
 15
10.0
 25
10.0
 16
0.0
 26
0.0
 36
1.0
 17
0.0
 27
0.0
 37
0.0
 40
358.92027899574339
 41
1.7807262569832401
 42
50.0
 43
0.0
 44
0.0
 50
0.0
 51
0.0
 71
     0
 72
   500
 73
     1
 74
     0
 75
     0
 76
     0
 77
     0
 78
     2
  0
ENDTAB
  0
TABLE
  2
LTYPE
 70
     4
  0
LTYPE
  2
CONTINUOUS
 70
     0
  3
Solid Line
 72
    65
 73
     0
 40
0.0
  0
LTYPE
  2
CENTER
 70
     0
  3
____ _ ____ _ ____ _ ____ _ ____ _ ____ _ ____
 72
    65
 73
     4
 40
2.0
 49
1.25
 49
-0.25
 49
0.25
 49
-0.25
  0
LTYPE
  2
HIDDEN
 70
     0
  3
_ _ _ _ _ _ _ _ _ _ _ _ _ _ _ _ _ _ _ _ _ _ _
 72
    65
 73
     2
 40
0.375
 49
0.25
 49
-0.125
  0
LTYPE
  2
PHANTOM2
 70
     0
  3
___ _ _ ___ _ _ ___ _ _ ___ _ _
 72
    65
 73
     6
 40
1.25
 49
0.625
 49
-0.125
 49
0.125
 49
-0.125
 49
0.125
 49
-0.125
  0
ENDTAB
  0
TABLE
  2
LAYER
 70
     4
  0
LAYER
  2
0
 70
     0
 62
     7
  6
CONTINUOUS
  0
LAYER
  2
1
 70
     0
 62
     1
  6
CENTER
  0
LAYER
  2
2
 70
     0
 62
     2
  6
HIDDEN
  0
LAYER
  2
3
 70
     0
 62
     3
  6
CONTINUOUS
  0
ENDTAB
  0
TABLE
  2
STYLE
 70
     2
  0
STYLE
  2
STANDARD
 70
     0
 40
0.0
 41
1.0
 50
0.0
 71
     0
 42
5.0
  3
TXT
  4
BIGFONT
  0
STYLE
  2
STANDARD1
 70
     0
 40
0.0
 41
1.0
 50
0.0
 71
     0
 42
3.0
  3
txt
  4

  0
ENDTAB
  0
TABLE
  2
VIEW
 70
     1
  0
VIEW
  2
ALL
 70
     0
 40
270.0
 10
220.99159663865549
 20
135.0
 41
0.0
 11
0.0
 21
0.0
 31
1.0
 12
0.0
 22
0.0
 32
0.0
 42
0.0
 43
0.0
 44
0.0
 50
0.0
 71
     0
  0
ENDTAB
  0
TABLE
  2
UCS
 70
     0
  0
ENDTAB
  0
TABLE
  2
APPID
 70
     3
  0
APPID
  2
ACAD
 70
     0
  0
APPID
  2
ACAD_MLEADERVER
 70
     0
  0
APPID
  2
ACAD_NAV_VCDISPLAY
 70
     0
  0
ENDTAB
  0
TABLE
  2
DIMSTYLE
 70
     1
  0
DIMSTYLE
  2
STANDARD
 70
     0
  3

  4

  5

  6

  7

 40
1.0
 41
0.18
 42
0.0625
 43
0.38
 44
0.18
 45
0.0
 46
0.0
 47
0.0
 48
0.0
140
0.18
141
0.09
142
0.0
143
25.399999999999999
144
1.0
145
0.0
146
1.0
147
0.09
 71
     0
 72
     0
 73
     1
 74
     1
 75
     0
 76
     0
 77
     0
 78
     0
170
     0
171
     2
172
     0
173
     0
174
     0
175
     0
176
     0
177
     0
178
     0
  0
ENDTAB
  0
ENDSEC
  0
SECTION
  2
BLOCKS
  0
BLOCK
  8
0
  2
$MODEL_SPACE
 70
     0
 10
0.0
 20
0.0
 30
0.0
  3
$MODEL_SPACE
  1

  0
ENDBLK
  5
133
  8
0
  0
BLOCK
 67
     1
  8
0
  2
$PAPER_SPACE
 70
     0
 10
0.0
 20
0.0
 30
0.0
  3
$PAPER_SPACE
  1

  0
ENDBLK
  5
131
 67
     1
  8
0
  0
ENDSEC
  0
SECTION
  2
ENTITIES
  0
LINE
  5
36
  8
3
 10
171.1879999999999
 20
122.812
 30
0.0
 11
174.90000000000001
 21
122.812
 31
0.0
  0
LINE
  5
37
  8
3
 10
171.1879999999999
 20
137.1879999999999
 30
0.0
 11
174.90000000000001
 21
137.1879999999999
 31
0.0
  0
ARC
  5
38
  8
0
 10
196.0
 20
129.99999999999901
 30
0.0
 40
21.09615911265287
 50
162.47973560808151
 51
197.520264391913
  0
ARC
  5
39
  8
0
 10
158.48248037223661
 20
130.0
 30
0.0
 40
21.017519627763441
 50
342.4120462260156
 51
17.58795377398431
  0
ARC
  5
3A
  8
0
 10
173.877189953466
 20
120.4737205583712
 30
0.0
 40
5.6228100465339557
 50
334.3842474680506
 51
34.384247468020639
  0
ARC
  5
3B
  8
0
 10
180.522810046534
 20
120.4737205583712
 30
0.0
 40
5.6228100465339557
 50
145.61575253197941
 51
205.6157525319494
  0
ARC
  5
3C
  8
0
 10
173.877189953466
 20
139.52627944162879
 30
0.0
 40
5.6228100465339557
 50
325.6157525319793
 51
25.615752531949379
  0
ARC
  5
3D
  8
0
 10
180.522810046534
 20
139.52627944162879
 30
0.0
 40
5.6228100465339557
 50
154.3842474680506
 51
214.38424746802059
  0
LINE
  5
3E
  8
0
 10
178.51751962775319
 20
123.64914703891409
 30
0.0
 11
175.88248037224679
 21
123.64914703891409
 31
0.0
  0
LINE
  5
3F
  8
0
 10
178.51751962775319
 20
136.35085296108579
 30
0.0
 11
175.88248037224679
 21
136.35085296108579
 31
0.0
  0
LINE
  5
40
  8
0
 10
174.90000000000001
 20
141.00000000000111
 30
0.0
 11
174.90000000000001
 21
118.99999999999891
 31
0.0
  0
LINE
  5
41
  8
0
 10
179.5
 20
141.00000000000099
 30
0.0
 11
179.5
 21
118.99999999999891
 31
0.0
  0
LINE
  5
42
  8
0
 10
179.5
 20
118.99999999999891
 30
0.0
 11
178.51751962775319
 21
117.2982940778282
 31
0.0
  0
LINE
  5
43
  8
0
 10
178.51751962775319
 20
117.2982940778282
 30
0.0
 11
175.88248037224679
 21
117.2982940778282
 31
0.0
  0
LINE
  5
44
  8
0
 10
175.88248037224679
 20
117.2982940778282
 30
0.0
 11
174.90000000000001
 21
118.99999999999891
 31
0.0
  0
LINE
  5
45
  8
0
 10
175.88248037224679
 20
142.7017059221717
 30
0.0
 11
174.90000000000001
 21
141.00000000000111
 31
0.0
  0
LINE
  5
46
  8
0
 10
178.51751962775319
 20
142.7017059221717
 30
0.0
 11
175.88248037224679
 21
142.7017059221717
 31
0.0
  0
LINE
  5
47
  8
0
 10
179.5
 20
141.00000000000099
 30
0.0
 11
178.51751962775319
 21
142.7017059221717
 31
0.0
  0
LINE
  5
48
  8
0
 10
172.0
 20
138.0
 30
0.0
 11
172.0
 21
122.0
 31
0.0
  0
LINE
  5
49
  8
0
 10
171.0
 20
123.0
 30
0.0
 11
172.0
 21
122.0
 31
0.0
  0
LINE
  5
4A
  8
0
 10
172.0
 20
138.0
 30
0.0
 11
171.0
 21
137.0
 31
0.0
  0
LINE
  5
4B
  8
0
 10
172.0
 20
122.0
 30
0.0
 11
174.90000000000001
 21
122.0
 31
0.0
  0
LINE
  5
4C
  8
0
 10
171.0
 20
137.0
 30
0.0
 11
171.0
 21
123.0
 31
0.0
  0
LINE
  5
4D
  8
0
 10
174.90000000000001
 20
138.0
 30
0.0
 11
172.0
 21
138.0
 31
0.0
  0
LINE
  5
4E
  8
0
 10
181.5
 20
119.0
 30
0.0
 11
182.5
 21
122.0
 31
0.0
  0
LINE
  5
4F
  8
0
 10
180.5
 20
119.0
 30
0.0
 11
179.5
 21
122.0
 31
0.0
  0
LINE
  5
50
  8
0
 10
181.5
 20
141.0
 30
0.0
 11
182.5
 21
138.0
 31
0.0
  0
LINE
  5
51
  8
0
 10
180.5
 20
141.0
 30
0.0
 11
179.5
 21
138.0
 31
0.0
  0
LINE
  5
52
  8
0
 10
180.5
 20
143.0
 30
0.0
 11
180.5
 21
117.0
 31
0.0
  0
LINE
  5
53
  8
0
 10
181.5
 20
143.0
 30
0.0
 11
181.5
 21
117.0
 31
0.0
  0
LINE
  5
54
  8
0
 10
180.5
 20
117.0
 30
0.0
 11
181.5
 21
117.0
 31
0.0
  0
LINE
  5
55
  8
0
 10
180.5
 20
143.0
 30
0.0
 11
181.5
 21
143.0
 31
0.0
  0
LINE
  5
56
  8
0
 10
185.0
 20
116.5
 30
0.0
 11
185.0
 21
143.5
 31
0.0
  0
LINE
  5
57
  8
0
 10
182.5
 20
116.5
 30
0.0
 11
185.0
 21
116.5
 31
0.0
  0
LINE
  5
58
  8
0
 10
182.5
 20
143.5
 30
0.0
 11
182.5
 21
116.5
 31
0.0
  0
LINE
  5
59
  8
0
 10
185.0
 20
143.5
 30
0.0
 11
182.5
 21
143.5
 31
0.0
  0
LINE
  5
5A
  8
1
 10
166.0
 20
130.0
 30
0.0
 11
190.0
 21
130.0
 31
0.0
  0
LINE
  5
5B
  8
0
 10
259.08392021690031
 20
131.0
 30
0.0
 11
252.99999999999989
 21
131.0
 31
0.0
  0
LINE
  5
5C
  8
0
 10
252.99999999999989
 20
131.0
 30
0.0
 11
252.99999999999989
 21
129.0
 31
0.0
  0
LINE
  5
5D
  8
0
 10
252.99999999999989
 20
129.0
 30
0.0
 11
259.08392021690031
 21
129.0
 31
0.0
  0
ARC
  5
5E
  8
0
 10
264.99999999999989
 20
130.0
 30
0.0
 40
7.0
 50
188.21321070173821
 51
351.78678929826179
  0
ARC
  5
5F
  8
0
 10
264.99999999999989
 20
130.0
 30
0.0
 40
7.0
 50
8.2132107017382001
 51
171.78678929826179
  0
LINE
  5
60
  8
0
 10
277.0
 20
129.0
 30
0.0
 11
270.91607978309958
 21
129.0
 31
0.0
  0
LINE
  5
61
  8
0
 10
277.0
 20
131.0
 30
0.0
 11
277.0
 21
129.0
 31
0.0
  0
LINE
  5
62
  8
0
 10
270.91607978309958
 20
131.0
 30
0.0
 11
277.0
 21
131.0
 31
0.0
  0
CIRCLE
  5
63
  8
0
 10
264.99999999999989
 20
130.0
 30
0.0
 40
6.0
  0
LINE
  5
64
  8
1
 10
264.99999999999989
 20
148.50000000000011
 30
0.0
 11
264.99999999999989
 21
111.4999999999999
 31
0.0
  0
LINE
  5
65
  8
1
 10
246.4999999999998
 20
130.0
 30
0.0
 11
283.50000000000011
 21
130.0
 31
0.0
  0
CIRCLE
  5
66
  8
0
 10
264.99999999999989
 20
130.0
 30
0.0
 40
13.5
  0
LINE
  5
67
  8
2
 10
184.0
 20
136.0
 30
0.0
 11
171.0
 21
136.0
 31
0.0
  0
LINE
  5
68
  8
2
 10
185.0
 20
136.99999999999989
 30
0.0
 11
184.0
 21
136.0
 31
0.0
  0
LINE
  5
69
  8
2
 10
185.0
 20
123.0
 30
0.0
 11
184.0
 21
124.0
 31
0.0
  0
LINE
  5
6A
  8
2
 10
184.0
 20
124.0
 30
0.0
 11
171.0
 21
124.0
 31
0.0
  0
LINE
  5
6B
  8
2
 10
184.0
 20
124.0
 30
0.0
 11
184.0
 21
136.0
 31
0.0
  0
LINE
  5
6C
  8
2
 10
184.0
 20
189.0
 30
0.0
 11
184.0
 21
201.0
 31
0.0
  0
LINE
  5
6D
  8
2
 10
184.0
 20
189.0
 30
0.0
 11
171.0
 21
189.0
 31
0.0
  0
LINE
  5
6E
  8
2
 10
185.0
 20
188.0
 30
0.0
 11
184.0
 21
189.0
 31
0.0
  0
LINE
  5
6F
  8
2
 10
185.0
 20
202.0
 30
0.0
 11
184.0
 21
201.0
 31
0.0
  0
LINE
  5
70
  8
2
 10
184.0
 20
201.0
 30
0.0
 11
171.0
 21
201.0
 31
0.0
  0
LINE
  5
71
  8
1
 10
166.0
 20
195.0
 30
0.0
 11
190.0
 21
195.0
 31
0.0
  0
LINE
  5
72
  8
0
 10
185.0
 20
208.5
 30
0.0
 11
182.5
 21
208.5
 31
0.0
  0
LINE
  5
73
  8
0
 10
182.5
 20
208.5
 30
0.0
 11
182.5
 21
181.5
 31
0.0
  0
LINE
  5
74
  8
0
 10
182.5
 20
181.5
 30
0.0
 11
185.0
 21
181.5
 31
0.0
  0
LINE
  5
75
  8
0
 10
185.0
 20
181.5
 30
0.0
 11
185.0
 21
208.5
 31
0.0
  0
LINE
  5
76
  8
0
 10
180.5
 20
208.0
 30
0.0
 11
181.5
 21
208.0
 31
0.0
  0
LINE
  5
77
  8
0
 10
180.5
 20
182.0
 30
0.0
 11
181.5
 21
182.0
 31
0.0
  0
LINE
  5
78
  8
0
 10
181.5
 20
208.0
 30
0.0
 11
181.5
 21
182.0
 31
0.0
  0
LINE
  5
79
  8
0
 10
180.5
 20
208.0
 30
0.0
 11
180.5
 21
182.0
 31
0.0
  0
LINE
  5
7A
  8
0
 10
180.5
 20
206.0
 30
0.0
 11
179.5
 21
203.0
 31
0.0
  0
LINE
  5
7B
  8
0
 10
181.5
 20
206.0
 30
0.0
 11
182.5
 21
203.0
 31
0.0
  0
LINE
  5
7C
  8
0
 10
180.5
 20
184.0
 30
0.0
 11
179.5
 21
187.0
 31
0.0
  0
LINE
  5
7D
  8
0
 10
181.5
 20
184.0
 30
0.0
 11
182.5
 21
187.0
 31
0.0
  0
LINE
  5
7E
  8
0
 10
174.90000000000001
 20
203.0
 30
0.0
 11
172.0
 21
203.0
 31
0.0
  0
LINE
  5
7F
  8
0
 10
171.0
 20
202.0
 30
0.0
 11
171.0
 21
188.0
 31
0.0
  0
LINE
  5
80
  8
0
 10
172.0
 20
187.0
 30
0.0
 11
174.90000000000001
 21
187.0
 31
0.0
  0
LINE
  5
81
  8
0
 10
172.0
 20
203.0
 30
0.0
 11
171.0
 21
202.0
 31
0.0
  0
LINE
  5
82
  8
0
 10
171.0
 20
188.0
 30
0.0
 11
172.0
 21
187.0
 31
0.0
  0
LINE
  5
83
  8
0
 10
172.0
 20
203.0
 30
0.0
 11
172.0
 21
187.0
 31
0.0
  0
LINE
  5
84
  8
0
 10
179.5
 20
204.29829407782941
 30
0.0
 11
178.51751962775319
 21
206.0
 31
0.0
  0
LINE
  5
85
  8
0
 10
175.88248037224659
 20
206.0
 30
0.0
 11
174.89999999999981
 21
204.29829407782941
 31
0.0
  0
LINE
  5
86
  8
0
 10
179.5
 20
204.29829407782941
 30
0.0
 11
179.5
 21
185.70170592217059
 31
0.0
  0
LINE
  5
87
  8
0
 10
174.90000000000001
 20
204.29829407782981
 30
0.0
 11
174.90000000000001
 21
185.70170592217019
 31
0.0
  0
LINE
  5
88
  8
3
 10
171.1879999999999
 20
202.1879999999999
 30
0.0
 11
174.90000000000001
 21
202.1879999999999
 31
0.0
  0
LINE
  5
89
  8
3
 10
171.1879999999999
 20
187.81200000000001
 30
0.0
 11
174.90000000000001
 21
187.81200000000001
 31
0.0
  0
POLYLINE
  5
8A
  8
0
 66
     1
 10
0.0
 20
0.0
 30
0.0
 70
     1
  0
VERTEX
  5
8B
  8
0
 10
79.0
 20
123.6491470389139
 30
0.0
 50
90.0
  0
VERTEX
  5
8C
  8
0
 10
90.0
 20
117.2982940778281
 30
0.0
 50
90.0
  0
VERTEX
  5
8D
  8
0
 10
101.0
 20
123.6491470389139
 30
0.0
 50
90.0
  0
VERTEX
  5
8E
  8
0
 10
101.0
 20
136.35085296108579
 30
0.0
 50
90.0
  0
VERTEX
  5
8F
  8
0
 10
90.0
 20
142.70170592217161
 30
0.0
 50
90.0
  0
VERTEX
  5
90
  8
0
 10
79.0
 20
136.35085296108579
 30
0.0
 50
90.0
  0
SEQEND
  5
91
  8
0
  0
LINE
  5
92
  8
0
 10
178.5175196277533
 20
195.0
 30
0.0
 11
175.8824803722467
 21
195.0
 31
0.0
  0
LINE
  5
93
  8
0
 10
175.88248037224659
 20
206.0
 30
0.0
 11
178.51751962775319
 21
206.0
 31
0.0
  0
ARC
  5
94
  8
0
 10
190.78594976735539
 20
200.49999999999969
 30
0.0
 40
15.885949767355379
 50
159.7438419995961
 51
200.25615800040191
  0
ARC
  5
95
  8
0
 10
163.61405023264479
 20
200.4999999999998
 30
0.0
 40
15.88594976735518
 50
339.74384199959752
 51
20.256158000403971
  0
ARC
  5
96
  8
0
 10
190.78594976735539
 20
189.50000000000031
 30
0.0
 40
15.885949767355379
 50
159.74384199959809
 51
200.2561580004039
  0
ARC
  5
97
  8
0
 10
163.61405023264479
 20
189.5000000000002
 30
0.0
 40
15.88594976735518
 50
339.74384199959599
 51
20.256158000402529
  0
LINE
  5
98
  8
0
 10
179.5
 20
185.70170592217059
 30
0.0
 11
178.51751962775319
 21
184.0
 31
0.0
  0
LINE
  5
99
  8
0
 10
175.88248037224659
 20
184.0
 30
0.0
 11
174.89999999999981
 21
185.70170592217059
 31
0.0
  0
LINE
  5
9A
  8
0
 10
175.88248037224659
 20
184.0
 30
0.0
 11
178.51751962775319
 21
184.0
 31
0.0
  0
CIRCLE
  5
9B
  8
0
 10
90.0
 20
129.99999999999989
 30
0.0
 40
11.00000000000119
  0
CIRCLE
  5
9C
  8
0
 10
90.0
 20
129.99999999999989
 30
0.0
 40
8.0
  0
CIRCLE
  5
9D
  8
3
 10
90.0
 20
129.99999999999989
 30
0.0
 40
6.9175000000000004
  0
CIRCLE
  5
9E
  8
0
 10
90.0
 20
129.99999999999989
 30
0.0
 40
6.0000000000000853
  0
CIRCLE
  5
9F
  8
0
 10
90.0
 20
129.99999999999989
 30
0.0
 40
13.00000000000013
  0
CIRCLE
  5
A0
  8
0
 10
90.0
 20
129.99999999999989
 30
0.0
 40
13.50000000000011
  0
LINE
  5
A1
  8
1
 10
108.5000000000001
 20
129.99999999999989
 30
0.0
 11
71.499999999999886
 21
129.99999999999989
 31
0.0
  0
LINE
  5
A2
  8
1
 10
90.0
 20
148.5
 30
0.0
 11
90.0
 21
111.4999999999997
 31
0.0
  0
LINE
  5
A3
  8
0
 10
175.88248037224659
 20
48.99121089123102
 30
0.0
 11
178.51751962775319
 21
48.99121089123102
 31
0.0
  0
LINE
  5
A4
  8
0
 10
175.88248037224659
 20
48.99121089123102
 30
0.0
 11
174.89999999999981
 21
50.692916813401638
 31
0.0
  0
LINE
  5
A5
  8
0
 10
179.5
 20
50.692916813401688
 30
0.0
 11
178.51751962775319
 21
48.991210891231049
 31
0.0
  0
ARC
  5
A6
  8
0
 10
163.61405023264479
 20
54.491210891231219
 30
0.0
 40
15.88594976735518
 50
339.74384199959599
 51
20.256158000402529
  0
ARC
  5
A7
  8
0
 10
190.78594976735539
 20
54.491210891231333
 30
0.0
 40
15.885949767355379
 50
159.74384199959809
 51
200.2561580004039
  0
ARC
  5
A8
  8
0
 10
163.61405023264479
 20
65.491210891230864
 30
0.0
 40
15.88594976735518
 50
339.74384199959752
 51
20.256158000403971
  0
ARC
  5
A9
  8
0
 10
190.78594976735539
 20
65.491210891230764
 30
0.0
 40
15.885949767355379
 50
159.7438419995961
 51
200.25615800040191
  0
LINE
  5
AA
  8
0
 10
175.88248037224659
 20
70.991210891231077
 30
0.0
 11
178.51751962775319
 21
70.991210891231077
 31
0.0
  0
LINE
  5
AB
  8
0
 10
178.5175196277533
 20
59.991210891231049
 30
0.0
 11
175.8824803722467
 21
59.991210891231049
 31
0.0
  0
LINE
  5
AC
  8
3
 10
171.1879999999999
 20
52.803210891231089
 30
0.0
 11
174.90000000000001
 21
52.803210891231089
 31
0.0
  0
LINE
  5
AD
  8
3
 10
171.1879999999999
 20
67.179210891231008
 30
0.0
 11
174.90000000000001
 21
67.179210891231008
 31
0.0
  0
LINE
  5
AE
  8
0
 10
174.90000000000001
 20
69.289504969060857
 30
0.0
 11
174.90000000000001
 21
50.69291681340129
 31
0.0
  0
LINE
  5
AF
  8
0
 10
179.5
 20
69.289504969060459
 30
0.0
 11
179.5
 21
50.692916813401688
 31
0.0
  0
LINE
  5
B0
  8
0
 10
175.88248037224659
 20
70.991210891231077
 30
0.0
 11
174.89999999999981
 21
69.289504969060459
 31
0.0
  0
LINE
  5
B1
  8
0
 10
179.5
 20
69.289504969060403
 30
0.0
 11
178.51751962775319
 21
70.991210891231049
 31
0.0
  0
LINE
  5
B2
  8
0
 10
172.0
 20
67.991210891231034
 30
0.0
 11
172.0
 21
51.991210891231049
 31
0.0
  0
LINE
  5
B3
  8
0
 10
171.0
 20
52.991210891231042
 30
0.0
 11
172.0
 21
51.991210891231049
 31
0.0
  0
LINE
  5
B4
  8
0
 10
172.0
 20
67.991210891231034
 30
0.0
 11
171.0
 21
66.991210891231049
 31
0.0
  0
LINE
  5
B5
  8
0
 10
172.0
 20
51.991210891231049
 30
0.0
 11
174.90000000000001
 21
51.991210891231049
 31
0.0
  0
LINE
  5
B6
  8
0
 10
171.0
 20
66.991210891231049
 30
0.0
 11
171.0
 21
52.991210891231042
 31
0.0
  0
LINE
  5
B7
  8
0
 10
174.90000000000001
 20
67.991210891231034
 30
0.0
 11
172.0
 21
67.991210891231034
 31
0.0
  0
LINE
  5
B8
  8
0
 10
181.5
 20
48.991210891231049
 30
0.0
 11
182.5
 21
51.991210891231049
 31
0.0
  0
LINE
  5
B9
  8
0
 10
180.5
 20
48.991210891231049
 30
0.0
 11
179.5
 21
51.991210891231049
 31
0.0
  0
LINE
  5
BA
  8
0
 10
181.5
 20
70.991210891231049
 30
0.0
 11
182.5
 21
67.991210891231034
 31
0.0
  0
LINE
  5
BB
  8
0
 10
180.5
 20
70.991210891231049
 30
0.0
 11
179.5
 21
67.991210891231034
 31
0.0
  0
LINE
  5
BC
  8
0
 10
180.5
 20
72.991210891231034
 30
0.0
 11
180.5
 21
46.991210891231049
 31
0.0
  0
LINE
  5
BD
  8
0
 10
181.5
 20
72.991210891231034
 30
0.0
 11
181.5
 21
46.991210891231049
 31
0.0
  0
LINE
  5
BE
  8
0
 10
180.5
 20
46.991210891231049
 30
0.0
 11
181.5
 21
46.991210891231049
 31
0.0
  0
LINE
  5
BF
  8
0
 10
180.5
 20
72.991210891231034
 30
0.0
 11
181.5
 21
72.991210891231034
 31
0.0
  0
LINE
  5
C0
  8
0
 10
185.0
 20
46.491210891231049
 30
0.0
 11
185.0
 21
73.491210891231049
 31
0.0
  0
LINE
  5
C1
  8
0
 10
182.5
 20
46.491210891231049
 30
0.0
 11
185.0
 21
46.491210891231049
 31
0.0
  0
LINE
  5
C2
  8
0
 10
182.5
 20
73.491210891231049
 30
0.0
 11
182.5
 21
46.491210891231049
 31
0.0
  0
LINE
  5
C3
  8
0
 10
185.0
 20
73.491210891231049
 30
0.0
 11
182.5
 21
73.491210891231049
 31
0.0
  0
LINE
  5
C4
  8
1
 10
166.0
 20
59.991210891231049
 30
0.0
 11
190.0
 21
59.991210891231049
 31
0.0
  0
LINE
  5
C5
  8
2
 10
184.0
 20
65.991210891231049
 30
0.0
 11
171.0
 21
65.991210891231049
 31
0.0
  0
LINE
  5
C6
  8
2
 10
185.0
 20
66.99121089123102
 30
0.0
 11
184.0
 21
65.991210891231049
 31
0.0
  0
LINE
  5
C7
  8
2
 10
185.0
 20
52.991210891231077
 30
0.0
 11
184.0
 21
53.991210891231049
 31
0.0
  0
LINE
  5
C8
  8
2
 10
184.0
 20
53.991210891231049
 30
0.0
 11
171.0
 21
53.991210891231049
 31
0.0
  0
LINE
  5
C9
  8
2
 10
184.0
 20
53.991210891231077
 30
0.0
 11
184.0
 21
65.991210891231049
 31
0.0
  0
TEXT
  5
21D
  8
0
 62
     3
 10
0.0
 20
0.0
 30
0.0
 40
10.0
  1
SL16G-SUS
  7
STANDARD1
  0
ENDSEC
  0
EOF
