  0
SECTION
  2
HEADER
  9
$ACADVER
  1
AC1009
  9
$INSBASE
 10
0.0
 20
0.0
 30
0.0
  9
$EXTMIN
 10
0.0
 20
-2.960436562073669
 30
0.0
  9
$EXTMAX
 10
241.68902549703381
 20
213.88029099499991
 30
0.0
  9
$LIMMIN
 10
0.0
 20
0.0
  9
$LIMMAX
 10
375.0
 20
270.0
  9
$ORTHOMODE
 70
     1
  9
$REGENMODE
 70
     1
  9
$FILLMODE
 70
     1
  9
$QTEXTMODE
 70
     0
  9
$MIRRTEXT
 70
     0
  9
$DRAGMODE
 70
     2
  9
$LTSCALE
 40
10.0
  9
$OSMODE
 70
    55
  9
$ATTMODE
 70
     1
  9
$TEXTSIZE
 40
4.000000000000048
  9
$TRACEWID
 40
0.05
  9
$TEXTSTYLE
  7
STANDARD
  9
$CLAYER
  8
0
  9
$CELTYPE
  6
BYLAYER
  9
$CECOLOR
 62
   256
  9
$DIMSCALE
 40
1.0
  9
$DIMASZ
 40
3.0
  9
$DIMEXO
 40
2.0
  9
$DIMDLI
 40
0.38
  9
$DIMRND
 40
0.0
  9
$DIMDLE
 40
0.0
  9
$DIMEXE
 40
2.0
  9
$DIMTP
 40
0.0
  9
$DIMTM
 40
0.0
  9
$DIMTXT
 40
3.2000000000000002
  9
$DIMCEN
 40
0.0
  9
$DIMTSZ
 40
0.0
  9
$DIMTOL
 70
     0
  9
$DIMLIM
 70
     0
  9
$DIMTIH
 70
     0
  9
$DIMTOH
 70
     0
  9
$DIMSE1
 70
     0
  9
$DIMSE2
 70
     0
  9
$DIMTAD
 70
     1
  9
$DIMZIN
 70
     0
  9
$DIMBLK
  1

  9
$DIMASO
 70
     0
  9
$DIMSHO
 70
     0
  9
$DIMPOST
  1

  9
$DIMAPOST
  1

  9
$DIMALT
 70
     0
  9
$DIMALTD
 70
     2
  9
$DIMALTF
 40
25.399999999999999
  9
$DIMLFAC
 40
1.0
  9
$DIMTOFL
 70
     0
  9
$DIMTVP
 40
1.6000000000000001
  9
$DIMTIX
 70
     1
  9
$DIMSOXD
 70
     0
  9
$DIMSAH
 70
     0
  9
$DIMBLK1
  1

  9
$DIMBLK2
  1

  9
$DIMSTYLE
  2
STANDARD
  9
$DIMCLRD
 70
     4
  9
$DIMCLRE
 70
     4
  9
$DIMCLRT
 70
     4
  9
$DIMTFAC
 40
1.0
  9
$DIMGAP
 40
0.09
  9
$LUNITS
 70
     2
  9
$LUPREC
 70
     1
  9
$SKETCHINC
 40
0.1
  9
$FILLETRAD
 40
22.0
  9
$AUNITS
 70
     0
  9
$AUPREC
 70
     0
  9
$MENU
  1
E:\r13\win\SUPPORT\ACAD
  9
$ELEVATION
 40
0.0
  9
$PELEVATION
 40
0.0
  9
$THICKNESS
 40
0.0
  9
$LIMCHECK
 70
     0
  9
$BLIPMODE
 70
     0
  9
$CHAMFERA
 40
1.1999999999999991
  9
$CHAMFERB
 40
1.1999999999999991
  9
$SKPOLY
 70
     0
  9
$TDCREATE
 40
2449954.6020138888
  9
$TDUPDATE
 40
2456598.5027480088
  9
$TDINDWG
 40
0.7868780556
  9
$TDUSRTIMER
 40
0.7868780556
  9
$USRTIMER
 70
     1
  9
$ANGBASE
 50
0.0
  9
$ANGDIR
 70
     0
  9
$PDMODE
 70
     0
  9
$PDSIZE
 40
0.0
  9
$PLINEWID
 40
0.0
  9
$COORDS
 70
     1
  9
$SPLFRAME
 70
     0
  9
$SPLINETYPE
 70
     6
  9
$SPLINESEGS
 70
     8
  9
$ATTDIA
 70
     0
  9
$ATTREQ
 70
     1
  9
$HANDLING
 70
     1
  9
$HANDSEED
  5
536A
  9
$SURFTAB1
 70
     6
  9
$SURFTAB2
 70
     6
  9
$SURFTYPE
 70
     6
  9
$SURFU
 70
     6
  9
$SURFV
 70
     6
  9
$UCSNAME
  2

  9
$UCSORG
 10
0.0
 20
0.0
 30
0.0
  9
$UCSXDIR
 10
1.0
 20
0.0
 30
0.0
  9
$UCSYDIR
 10
0.0
 20
1.0
 30
0.0
  9
$PUCSNAME
  2

  9
$PUCSORG
 10
0.0
 20
0.0
 30
0.0
  9
$PUCSXDIR
 10
1.0
 20
0.0
 30
0.0
  9
$PUCSYDIR
 10
0.0
 20
1.0
 30
0.0
  9
$USERI1
 70
     0
  9
$USERI2
 70
     1
  9
$USERI3
 70
     0
  9
$USERI4
 70
     0
  9
$USERI5
 70
     0
  9
$USERR1
 40
0.0
  9
$USERR2
 40
0.0
  9
$USERR3
 40
0.0
  9
$USERR4
 40
0.0
  9
$USERR5
 40
0.0
  9
$WORLDVIEW
 70
     1
  9
$SHADEDGE
 70
     3
  9
$SHADEDIF
 70
    70
  9
$TILEMODE
 70
     1
  9
$MAXACTVP
 70
    16
  9
$PLIMCHECK
 70
     0
  9
$PEXTMIN
 10
1.0000000000000000E+020
 20
1.0000000000000000E+020
 30
1.0000000000000000E+020
  9
$PEXTMAX
 10
-1.0000000000000000E+020
 20
-1.0000000000000000E+020
 30
-1.0000000000000000E+020
  9
$PLIMMIN
 10
0.0
 20
0.0
  9
$PLIMMAX
 10
12.0
 20
9.0
  9
$UNITMODE
 70
     0
  9
$VISRETAIN
 70
     0
  9
$PLINEGEN
 70
     0
  9
$PSLTSCALE
 70
     0
  0
ENDSEC
  0
SECTION
  2
TABLES
  0
TABLE
  2
VPORT
 70
     1
  0
VPORT
  2
*ACTIVE
 70
     0
 10
0.0
 20
0.0
 11
1.0
 21
1.0
 12
187.49427839065231
 22
174.91677254346851
 13
0.0
 23
0.0
 14
10.0
 24
10.0
 15
10.0
 25
10.0
 16
0.0
 26
0.0
 36
1.0
 17
0.0
 27
0.0
 37
0.0
 40
358.92027899574339
 41
1.7807262569832401
 42
50.0
 43
0.0
 44
0.0
 50
0.0
 51
0.0
 71
     0
 72
   500
 73
     1
 74
     0
 75
     0
 76
     0
 77
     0
 78
     2
  0
ENDTAB
  0
TABLE
  2
LTYPE
 70
     4
  0
LTYPE
  2
CONTINUOUS
 70
     0
  3
Solid Line
 72
    65
 73
     0
 40
0.0
  0
LTYPE
  2
CENTER
 70
     0
  3
____ _ ____ _ ____ _ ____ _ ____ _ ____ _ ____
 72
    65
 73
     4
 40
2.0
 49
1.25
 49
-0.25
 49
0.25
 49
-0.25
  0
LTYPE
  2
HIDDEN
 70
     0
  3
_ _ _ _ _ _ _ _ _ _ _ _ _ _ _ _ _ _ _ _ _ _ _
 72
    65
 73
     2
 40
0.375
 49
0.25
 49
-0.125
  0
LTYPE
  2
PHANTOM2
 70
     0
  3
___ _ _ ___ _ _ ___ _ _ ___ _ _
 72
    65
 73
     6
 40
1.25
 49
0.625
 49
-0.125
 49
0.125
 49
-0.125
 49
0.125
 49
-0.125
  0
ENDTAB
  0
TABLE
  2
LAYER
 70
     5
  0
LAYER
  2
0
 70
     0
 62
     7
  6
CONTINUOUS
  0
LAYER
  2
1
 70
     0
 62
     1
  6
CENTER
  0
LAYER
  2
3
 70
     0
 62
     3
  6
CONTINUOUS
  0
LAYER
  2
2
 70
     0
 62
     2
  6
HIDDEN
  0
LAYER
  2
DEFPOINTS
 70
     0
 62
     7
  6
CONTINUOUS
  0
ENDTAB
  0
TABLE
  2
STYLE
 70
     2
  0
STYLE
  2
STANDARD
 70
     0
 40
0.0
 41
1.0
 50
0.0
 71
     0
 42
4.000000000000048
  3
SIMPLEX
  4
BIGFONT
  0
STYLE
  2
STANDARD1
 70
     0
 40
0.0
 41
1.0
 50
0.0
 71
     0
 42
3.0
  3
txt
  4

  0
ENDTAB
  0
TABLE
  2
VIEW
 70
     1
  0
VIEW
  2
ALL
 70
     0
 40
270.0
 10
220.78595317725751
 20
135.0
 41
441.57190635451502
 11
0.0
 21
0.0
 31
1.0
 12
0.0
 22
0.0
 32
0.0
 42
50.0
 43
0.0
 44
0.0
 50
0.0
 71
     0
  0
ENDTAB
  0
TABLE
  2
UCS
 70
     0
  0
ENDTAB
  0
TABLE
  2
APPID
 70
     4
  0
APPID
  2
ACAD
 70
     0
  0
APPID
  2
ACAD_EXEMPT_FROM_CAD_STANDARDS
 70
     0
  0
APPID
  2
ACAD_MLEADERVER
 70
     0
  0
APPID
  2
ACAD_NAV_VCDISPLAY
 70
     0
  0
ENDTAB
  0
TABLE
  2
DIMSTYLE
 70
     1
  0
DIMSTYLE
  2
STANDARD
 70
     0
  3

  4

  5

  6

  7

 40
1.0
 41
0.18
 42
0.0625
 43
0.38
 44
0.18
 45
0.0
 46
0.0
 47
0.0
 48
0.0
140
0.18
141
0.09
142
0.0
143
25.399999999999999
144
1.0
145
0.0
146
1.0
147
0.09
 71
     0
 72
     0
 73
     1
 74
     1
 75
     0
 76
     0
 77
     0
 78
     0
170
     0
171
     2
172
     0
173
     0
174
     0
175
     0
176
     0
177
     0
178
     0
  0
ENDTAB
  0
ENDSEC
  0
SECTION
  2
BLOCKS
  0
BLOCK
  8
0
  2
$MODEL_SPACE
 70
     0
 10
0.0
 20
0.0
 30
0.0
  3
$MODEL_SPACE
  1

  0
ENDBLK
  5
F3C
  8
0
  0
BLOCK
 67
     1
  8
0
  2
$PAPER_SPACE
 70
     0
 10
0.0
 20
0.0
 30
0.0
  3
$PAPER_SPACE
  1

  0
ENDBLK
  5
F3A
 67
     1
  8
0
  0
ENDSEC
  0
SECTION
  2
ENTITIES
  0
ARC
  5
3362
  8
0
 10
114.32198407801749
 20
119.18029099499999
 30
0.0
 40
7.0
 50
270.0
 51
0.0
  0
LINE
  5
3363
  8
0
 10
131.57198407801749
 20
119.18029099499999
 30
0.0
 11
121.32198407801749
 21
119.18029099499999
 31
0.0
  0
ARC
  5
3364
  8
0
 10
131.57198407801749
 20
120.93029099499999
 30
0.0
 40
1.75
 50
270.0
 51
90.0
  0
LINE
  5
3365
  8
0
 10
120.3841619045086
 20
122.68029099499999
 30
0.0
 11
131.57198407801749
 21
122.68029099499999
 31
0.0
  0
ARC
  5
3366
  8
0
 10
114.32198407801749
 20
119.18029099499999
 30
0.0
 40
7.0000000000000071
 50
30.00000000000065
 51
253.39845040098371
  0
LINE
  5
42EC
  8
0
 10
138.32198407801749
 20
99.180290994999979
 30
0.0
 11
139.1219840780175
 21
99.180290994999979
 31
0.0
  0
LINE
  5
42ED
  8
0
 10
139.1219840780175
 20
108.18029099499989
 30
0.0
 11
138.32198407801749
 21
108.18029099499989
 31
0.0
  0
LINE
  5
42EE
  8
0
 10
114.32198407801749
 20
105.68029099499999
 30
0.0
 11
112.3219840780079
 21
105.68029099499999
 31
0.0
  0
LINE
  5
42EF
  8
0
 10
112.3219840780079
 20
101.68029099499999
 30
0.0
 11
114.32198407801749
 21
101.68029099499999
 31
0.0
  0
CIRCLE
  5
42F0
  8
0
 10
97.321984078017536
 20
136.18029099499989
 30
0.0
 40
5.0000000000000142
  0
LINE
  5
42F1
  8
0
 10
90.997428757680836
 20
139.18029099500001
 30
0.0
 11
90.321984078017522
 21
139.18029099500001
 31
0.0
  0
ARC
  5
42F2
  8
0
 10
97.321984078017536
 20
136.18029099499989
 30
0.0
 40
7.000000000000016
 50
205.37693352515501
 51
154.6230664748449
  0
LINE
  5
42F3
  8
0
 10
90.321984078017522
 20
133.18029099499989
 30
0.0
 11
90.997428757680836
 21
133.18029099499989
 31
0.0
  0
CIRCLE
  5
42F4
  8
0
 10
131.32198407801749
 20
136.18029099499989
 30
0.0
 40
5.0000000000000284
  0
LINE
  5
42F5
  8
0
 10
137.64653939835441
 20
133.18029099499989
 30
0.0
 11
138.32198407801749
 21
133.18029099499989
 31
0.0
  0
ARC
  5
42F6
  8
0
 10
131.32198407801749
 20
136.18029099499989
 30
0.0
 40
7.000000000000016
 50
25.37693352515506
 51
334.6230664748449
  0
LINE
  5
42F7
  8
0
 10
138.32198407801749
 20
139.18029099500001
 30
0.0
 11
137.64653939835441
 21
139.18029099500001
 31
0.0
  0
CIRCLE
  5
42F8
  8
0
 10
114.32198407801749
 20
149.18029099500001
 30
0.0
 40
3.0
  0
ARC
  5
42F9
  8
0
 10
134.32198407801749
 20
154.5015021142934
 30
0.0
 40
4.0000000000000071
 50
0.0
 51
74.742476709541492
  0
ARC
  5
42FA
  8
0
 10
134.32198407801749
 20
100.3590798757065
 30
0.0
 40
4.0000000000000284
 50
285.25752329045849
 51
0.0
  0
ARC
  5
42FB
  8
0
 10
114.32198407801749
 20
173.68029099499989
 30
0.0
 40
80.0
 50
271.46928358135852
 51
285.25752329045849
  0
ARC
  5
42FC
  8
0
 10
116.32198407801749
 20
95.705936236528288
 30
0.0
 40
2.0000000000000102
 50
180.0
 51
271.46928358135852
  0
LINE
  5
42FD
  8
0
 10
114.32198407801749
 20
112.18029099499999
 30
0.0
 11
114.32198407801749
 21
95.705936236528288
 31
0.0
  0
LINE
  5
4303
  8
0
 10
112.32198407801749
 20
95.782922618398203
 30
0.0
 11
112.32198407801749
 21
112.47208706250061
 31
0.0
  0
ARC
  5
4304
  8
0
 10
110.32198407801749
 20
95.782922618398203
 30
0.0
 40
2.0
 50
267.0604655135694
 51
0.0
  0
ARC
  5
4305
  8
0
 10
114.32198407801749
 20
173.68029099499989
 30
0.0
 40
80.0
 50
254.74247670954151
 51
267.0604655135694
  0
ARC
  5
4306
  8
0
 10
94.321984078017522
 20
100.3590798757065
 30
0.0
 40
4.0000000000000151
 50
180.0
 51
254.74247670954151
  0
ARC
  5
4307
  8
0
 10
94.321984078017522
 20
154.5015021142934
 30
0.0
 40
4.0000000000000178
 50
105.25752329045849
 51
180.0
  0
ARC
  5
4308
  8
0
 10
114.32198407801749
 20
81.180290994999964
 30
0.0
 40
80.000000000000014
 50
74.742476709541492
 51
105.25752329045849
  0
LINE
  5
4309
  8
0
 10
138.32198407801749
 20
100.3590798757065
 30
0.0
 11
138.32198407801749
 21
154.5015021142934
 31
0.0
  0
LINE
  5
430A
  8
0
 10
90.321984078017522
 20
154.5015021142934
 30
0.0
 11
90.321984078017522
 21
100.3590798757065
 31
0.0
  0
LINE
  5
430B
  8
0
 10
138.32198407801749
 20
100.3590798757065
 30
0.0
 11
138.32198407801749
 21
99.180290994999979
 31
0.0
  0
CIRCLE
  5
430C
  8
0
 10
97.321984078017536
 20
136.18029099499989
 30
0.0
 40
2.75
  0
CIRCLE
  5
430D
  8
0
 10
131.32198407801749
 20
136.18029099499989
 30
0.0
 40
2.75
  0
LINE
  5
430E
  8
0
 10
124.32198407801749
 20
211.18029099500001
 30
0.0
 11
124.32198407801749
 21
210.880290995
 31
0.0
  0
LINE
  5
430F
  8
0
 10
104.32198407801749
 20
210.880290995
 30
0.0
 11
104.32198407801749
 21
211.18029099500001
 31
0.0
  0
LINE
  5
4310
  8
0
 10
104.32198407801749
 20
191.18029099499989
 30
0.0
 11
104.32198407801749
 21
191.48029099499999
 31
0.0
  0
LINE
  5
4311
  8
0
 10
124.32198407801749
 20
191.48029099499999
 30
0.0
 11
124.32198407801749
 21
191.18029099499989
 31
0.0
  0
LINE
  5
4312
  8
0
 10
138.32198407801749
 20
196.68029099500009
 30
0.0
 11
139.1219840780175
 21
196.68029099500009
 31
0.0
  0
LINE
  5
4313
  8
0
 10
139.1219840780175
 20
205.68029099500009
 30
0.0
 11
138.32198407801749
 21
205.68029099500009
 31
0.0
  0
LINE
  5
4314
  8
0
 10
90.321984078017522
 20
191.4802909949999
 30
0.0
 11
138.32198407801749
 21
191.4802909949999
 31
0.0
  0
LINE
  5
4315
  8
0
 10
90.321984078017522
 20
210.88029099499991
 30
0.0
 11
138.32198407801729
 21
210.88029099499991
 31
0.0
  0
LINE
  5
4316
  8
0
 10
137.64653939835441
 20
210.880290995
 30
0.0
 11
137.64653939835441
 21
211.18029099500001
 31
0.0
  0
LINE
  5
4317
  8
0
 10
138.32198407801749
 20
211.18029099500001
 30
0.0
 11
124.32198407801749
 21
211.18029099500001
 31
0.0
  0
LINE
  5
4318
  8
0
 10
90.997428757680836
 20
211.18029099500001
 30
0.0
 11
90.997428757680836
 21
210.880290995
 31
0.0
  0
LINE
  5
4319
  8
0
 10
104.32198407801749
 20
211.18029099500001
 30
0.0
 11
90.321984078017294
 21
211.18029099500001
 31
0.0
  0
LINE
  5
431A
  8
0
 10
104.32198407801749
 20
191.18029099499989
 30
0.0
 11
90.321984078017522
 21
191.18029099499989
 31
0.0
  0
LINE
  5
431B
  8
0
 10
90.997428757680836
 20
191.48029099499999
 30
0.0
 11
90.997428757680836
 21
191.18029099499989
 31
0.0
  0
LINE
  5
431C
  8
0
 10
137.64653939835441
 20
191.18029099499989
 30
0.0
 11
137.64653939835441
 21
191.48029099499999
 31
0.0
  0
LINE
  5
431D
  8
0
 10
138.32198407801769
 20
191.18029099499989
 30
0.0
 11
124.32198407801749
 21
191.18029099499989
 31
0.0
  0
LINE
  5
431E
  8
0
 10
138.32198407801749
 20
191.18029099499989
 30
0.0
 11
138.32198407801729
 21
211.18029099500001
 31
0.0
  0
LINE
  5
431F
  8
0
 10
90.321984078017294
 20
211.18029099500001
 30
0.0
 11
90.321984078017522
 21
191.18029099499989
 31
0.0
  0
LINE
  5
4320
  8
2
 10
126.32198407801749
 20
205.68029099500001
 30
0.0
 11
136.32198407801749
 21
205.68029099500001
 31
0.0
  0
LINE
  5
4321
  8
2
 10
92.321984078017508
 20
205.68029099500001
 30
0.0
 11
102.32198407801749
 21
205.68029099500001
 31
0.0
  0
LINE
  5
4322
  8
2
 10
136.32198407801749
 20
196.68029099500001
 30
0.0
 11
126.32198407801749
 21
196.68029099500001
 31
0.0
  0
LINE
  5
4323
  8
2
 10
102.32198407801749
 20
196.68029099500001
 30
0.0
 11
92.321984078017508
 21
196.68029099500001
 31
0.0
  0
LINE
  5
4324
  8
2
 10
121.32198407801749
 20
191.4802909949999
 30
0.0
 11
121.32198407801749
 21
210.88029099499991
 31
0.0
  0
LINE
  5
4325
  8
2
 10
117.32198407801749
 20
191.48029099499999
 30
0.0
 11
117.32198407801749
 21
210.880290995
 31
0.0
  0
LINE
  5
4326
  8
2
 10
126.32198407801749
 20
211.18029099500001
 30
0.0
 11
126.32198407801749
 21
205.68029099500001
 31
0.0
  0
LINE
  5
4327
  8
2
 10
136.32198407801749
 20
205.68029099500001
 30
0.0
 11
136.32198407801749
 21
211.18029099500001
 31
0.0
  0
LINE
  5
4328
  8
2
 10
92.321984078017508
 20
211.18029099500001
 30
0.0
 11
92.321984078017508
 21
205.68029099500001
 31
0.0
  0
LINE
  5
4329
  8
2
 10
102.32198407801749
 20
205.68029099500001
 30
0.0
 11
102.32198407801749
 21
211.18029099500001
 31
0.0
  0
LINE
  5
432A
  8
2
 10
136.32198407801749
 20
191.18029099500001
 30
0.0
 11
136.32198407801749
 21
196.68029099500001
 31
0.0
  0
LINE
  5
432B
  8
2
 10
126.32198407801749
 20
196.68029099500001
 30
0.0
 11
126.32198407801749
 21
191.18029099500001
 31
0.0
  0
LINE
  5
432C
  8
2
 10
102.32198407801749
 20
191.18029099500001
 30
0.0
 11
102.32198407801749
 21
196.68029099500001
 31
0.0
  0
LINE
  5
432D
  8
2
 10
92.321984078017508
 20
196.68029099500001
 30
0.0
 11
92.321984078017508
 21
191.18029099500001
 31
0.0
  0
LINE
  5
432E
  8
2
 10
128.57198407801749
 20
205.68029099500001
 30
0.0
 11
128.57198407801749
 21
196.68029099500001
 31
0.0
  0
LINE
  5
432F
  8
2
 10
134.07198407801749
 20
196.68029099500001
 30
0.0
 11
134.07198407801749
 21
205.68029099500001
 31
0.0
  0
LINE
  5
4330
  8
2
 10
94.571984078017536
 20
205.68029099500001
 30
0.0
 11
94.571984078017536
 21
196.68029099500001
 31
0.0
  0
LINE
  5
4331
  8
2
 10
100.07198407801749
 20
196.68029099500001
 30
0.0
 11
100.07198407801749
 21
205.68029099500001
 31
0.0
  0
LINE
  5
4332
  8
2
 10
107.32198407801749
 20
210.88029099499991
 30
0.0
 11
107.32198407801749
 21
191.4802909949999
 31
0.0
  0
LINE
  5
4333
  8
0
 10
138.32198407801749
 20
29.20593623652838
 30
0.0
 11
139.1219840780175
 21
29.20593623652838
 31
0.0
  0
LINE
  5
4334
  8
0
 10
139.1219840780175
 20
38.20593623652838
 30
0.0
 11
138.32198407801749
 21
38.20593623652838
 31
0.0
  0
LINE
  5
4335
  8
0
 10
114.32198407801749
 20
35.705936236528373
 30
0.0
 11
112.3219840780079
 21
35.705936236528373
 31
0.0
  0
LINE
  5
4336
  8
0
 10
112.3219840780079
 20
31.70593623652838
 30
0.0
 11
114.32198407801749
 21
31.70593623652838
 31
0.0
  0
LINE
  5
4337
  8
0
 10
124.32198407801749
 20
24.005936236528271
 30
0.0
 11
124.32198407801749
 21
23.705936236528199
 31
0.0
  0
LINE
  5
4338
  8
0
 10
104.32198407801749
 20
23.705936236528199
 30
0.0
 11
104.32198407801749
 21
24.005936236528271
 31
0.0
  0
LINE
  5
4339
  8
0
 10
104.32198407801749
 20
43.405936236528241
 30
0.0
 11
104.32198407801749
 21
43.705936236528252
 31
0.0
  0
LINE
  5
433A
  8
0
 10
124.32198407801749
 20
43.705936236528252
 30
0.0
 11
124.32198407801749
 21
43.405936236528241
 31
0.0
  0
LINE
  5
433B
  8
0
 10
114.32198407801749
 20
43.405936236528383
 30
0.0
 11
114.32198407801749
 21
24.005936236528381
 31
0.0
  0
LINE
  5
433C
  8
0
 10
112.32198407801749
 20
24.005936236528381
 30
0.0
 11
112.32198407801749
 21
43.405936236528383
 31
0.0
  0
LINE
  5
433D
  8
0
 10
138.32198407801749
 20
43.405936236528362
 30
0.0
 11
90.321984078017522
 21
43.405936236528362
 31
0.0
  0
LINE
  5
433E
  8
0
 10
138.32198407801749
 20
24.005936236528381
 30
0.0
 11
90.321984078017522
 21
24.005936236528381
 31
0.0
  0
LINE
  5
433F
  8
0
 10
137.64653939835441
 20
23.70593623652826
 30
0.0
 11
137.64653939835441
 21
24.005936236528271
 31
0.0
  0
LINE
  5
4340
  8
0
 10
124.32198407801749
 20
23.705936236528199
 30
0.0
 11
138.32198407801749
 21
23.705936236528199
 31
0.0
  0
LINE
  5
4341
  8
0
 10
90.997428757680836
 20
24.005936236528271
 30
0.0
 11
90.997428757680836
 21
23.70593623652826
 31
0.0
  0
LINE
  5
4342
  8
0
 10
90.321984078017294
 20
23.70593623652826
 30
0.0
 11
104.32198407801749
 21
23.705936236528199
 31
0.0
  0
LINE
  5
4343
  8
0
 10
90.997428757680836
 20
43.705936236528252
 30
0.0
 11
90.997428757680836
 21
43.405936236528241
 31
0.0
  0
LINE
  5
4344
  8
0
 10
90.321984078017294
 20
43.705936236528252
 30
0.0
 11
104.32198407801749
 21
43.705936236528252
 31
0.0
  0
LINE
  5
4345
  8
0
 10
137.64653939835441
 20
43.405936236528241
 30
0.0
 11
137.64653939835441
 21
43.705936236528252
 31
0.0
  0
LINE
  5
4346
  8
0
 10
124.32198407801749
 20
43.705936236528252
 30
0.0
 11
138.32198407801749
 21
43.705936236528252
 31
0.0
  0
LINE
  5
4347
  8
0
 10
138.32198407801749
 20
23.70593623652826
 30
0.0
 11
138.32198407801749
 21
43.705936236528252
 31
0.0
  0
LINE
  5
4348
  8
0
 10
90.321984078017522
 20
43.705936236528288
 30
0.0
 11
90.321984078017522
 21
23.70593623652826
 31
0.0
  0
LINE
  5
4349
  8
0
 10
20.62198407801748
 20
129.18029099500001
 30
0.0
 11
20.921984078017658
 21
129.18029099500001
 31
0.0
  0
LINE
  5
434A
  8
0
 10
20.921984078017658
 20
143.18029099500001
 30
0.0
 11
20.62198407801748
 21
143.18029099500001
 31
0.0
  0
LINE
  5
434B
  8
0
 10
40.621984078017697
 20
143.18029099500001
 30
0.0
 11
40.321984078017522
 21
143.18029099500001
 31
0.0
  0
LINE
  5
434C
  8
0
 10
40.321984078017522
 20
129.18029099500001
 30
0.0
 11
40.621984078017697
 21
129.18029099500001
 31
0.0
  0
LINE
  5
434D
  8
0
 10
40.321984078017522
 20
161.18029099500001
 30
0.0
 11
20.921984078017431
 21
161.18029099500001
 31
0.0
  0
LINE
  5
434E
  8
0
 10
20.921984078017431
 20
93.705936236528274
 30
0.0
 11
40.321984078017522
 21
93.705936236528274
 31
0.0
  0
LINE
  5
434F
  8
0
 10
40.321984078017522
 20
139.18029099500001
 30
0.0
 11
40.621984078017697
 21
139.18029099500001
 31
0.0
  0
LINE
  5
4350
  8
0
 10
40.621984078017697
 20
133.18029099499989
 30
0.0
 11
40.321984078017522
 21
133.18029099499989
 31
0.0
  0
LINE
  5
4351
  8
0
 10
40.321984078017522
 20
133.18029099499989
 30
0.0
 11
40.321984078017522
 21
93.705936236528316
 31
0.0
  0
LINE
  5
4352
  8
0
 10
40.321984078017522
 20
100.3590798757065
 30
0.0
 11
20.921984078017658
 21
100.3590798757065
 31
0.0
  0
LINE
  5
4353
  8
0
 10
20.921984078017658
 20
93.705936236528316
 30
0.0
 11
20.921984078017658
 21
133.18029099499989
 31
0.0
  0
LINE
  5
4354
  8
0
 10
20.921984078017658
 20
133.18029099499989
 30
0.0
 11
20.6219840780177
 21
133.18029099499989
 31
0.0
  0
LINE
  5
4355
  8
0
 10
20.6219840780177
 20
139.18029099500001
 30
0.0
 11
20.921984078017658
 21
139.18029099500001
 31
0.0
  0
LINE
  5
4356
  8
0
 10
20.921984078017658
 20
139.18029099500001
 30
0.0
 11
20.921984078017658
 21
161.18029099500001
 31
0.0
  0
LINE
  5
4357
  8
0
 10
20.921984078017658
 20
154.5015021142934
 30
0.0
 11
40.321984078017522
 21
154.5015021142934
 31
0.0
  0
LINE
  5
4358
  8
0
 10
40.321984078017522
 20
161.18029099500001
 30
0.0
 11
40.321984078017522
 21
139.18029099500001
 31
0.0
  0
LINE
  5
4359
  8
0
 10
20.921984078017658
 20
158.36051322583521
 30
0.0
 11
40.321984078017522
 21
158.36051322583521
 31
0.0
  0
LINE
  5
435A
  8
0
 10
20.921984078017658
 20
96.50006876416478
 30
0.0
 11
40.321984078017522
 21
96.50006876416478
 31
0.0
  0
LINE
  5
435B
  8
0
 10
20.621984078018379
 20
143.18029099499989
 30
0.0
 11
20.62198407801748
 21
129.18029099500001
 31
0.0
  0
LINE
  5
435C
  8
0
 10
40.621984078017697
 20
143.18029099499989
 30
0.0
 11
40.621984078017697
 21
129.18029099500001
 31
0.0
  0
LINE
  5
435D
  8
0
 10
239.68902549703381
 20
143.18029099500001
 30
0.0
 11
239.3890254970336
 21
143.18029099500001
 31
0.0
  0
LINE
  5
435E
  8
0
 10
239.3890254970336
 20
129.18029099500001
 30
0.0
 11
239.68902549703381
 21
129.18029099500001
 31
0.0
  0
LINE
  5
435F
  8
0
 10
219.6890254970337
 20
129.18029099500001
 30
0.0
 11
219.98902549703371
 21
129.18029099500001
 31
0.0
  0
LINE
  5
4360
  8
0
 10
219.98902549703371
 20
143.18029099500001
 30
0.0
 11
219.6890254970337
 21
143.18029099500001
 31
0.0
  0
LINE
  5
4361
  8
0
 10
239.3890254970338
 20
161.18029099500001
 30
0.0
 11
219.98902549703371
 21
161.18029099500001
 31
0.0
  0
LINE
  5
4362
  8
0
 10
219.98902549703371
 20
93.705936236528274
 30
0.0
 11
225.6955391635102
 21
93.705936236528274
 31
0.0
  0
LINE
  5
4363
  8
0
 10
233.68251183055759
 20
93.705936236528274
 30
0.0
 11
239.3890254970338
 21
93.705936236528274
 31
0.0
  0
LINE
  5
4364
  8
0
 10
223.52722906321401
 20
100.3590798757065
 30
0.0
 11
219.98902549703371
 21
100.3590798757065
 31
0.0
  0
LINE
  5
4365
  8
0
 10
219.98902549703371
 20
93.705936236528316
 30
0.0
 11
219.98902549703371
 21
133.18029099499989
 31
0.0
  0
LINE
  5
4366
  8
0
 10
219.98902549703371
 20
133.18029099499989
 30
0.0
 11
219.6890254970337
 21
133.18029099499989
 31
0.0
  0
LINE
  5
4367
  8
0
 10
219.6890254970337
 20
139.18029099500001
 30
0.0
 11
219.98902549703371
 21
139.18029099500001
 31
0.0
  0
LINE
  5
4368
  8
0
 10
219.98902549703371
 20
139.18029099500001
 30
0.0
 11
219.98902549703391
 21
161.18029099500001
 31
0.0
  0
LINE
  5
4369
  8
0
 10
219.98902549703371
 20
154.5015021142934
 30
0.0
 11
239.3890254970336
 21
154.5015021142934
 31
0.0
  0
LINE
  5
436A
  8
0
 10
239.3890254970336
 20
161.18029099500001
 30
0.0
 11
239.3890254970336
 21
139.18029099500001
 31
0.0
  0
LINE
  5
436B
  8
0
 10
239.3890254970336
 20
139.18029099500001
 30
0.0
 11
239.68902549703381
 21
139.18029099500001
 31
0.0
  0
LINE
  5
436C
  8
0
 10
239.68902549703381
 20
133.18029099499989
 30
0.0
 11
239.3890254970336
 21
133.18029099499989
 31
0.0
  0
LINE
  5
436D
  8
0
 10
239.3890254970336
 20
133.18029099499989
 30
0.0
 11
239.3890254970336
 21
93.705936236528316
 31
0.0
  0
LINE
  5
436E
  8
0
 10
239.3890254970336
 20
100.3590798757065
 30
0.0
 11
235.8508219308535
 21
100.3590798757065
 31
0.0
  0
LINE
  5
436F
  8
0
 10
239.3890254970336
 20
158.36051322583521
 30
0.0
 11
219.98902549703371
 21
158.36051322583521
 31
0.0
  0
LINE
  5
4370
  8
0
 10
239.3890254970336
 20
96.50006876416478
 30
0.0
 11
234.27312230149619
 21
96.50006876416478
 31
0.0
  0
LINE
  5
4371
  8
0
 10
225.10492869257129
 20
96.50006876416478
 30
0.0
 11
219.98902549703371
 21
96.50006876416478
 31
0.0
  0
LINE
  5
4372
  8
0
 10
239.68902549703381
 20
129.18029099500001
 30
0.0
 11
239.68902549703381
 21
143.18029099500001
 31
0.0
  0
LINE
  5
4373
  8
0
 10
219.6890254970337
 20
129.18029099500001
 30
0.0
 11
219.6890254970337
 21
143.18029099500001
 31
0.0
  0
ARC
  5
4374
  8
0
 10
114.32198407801749
 20
173.68029099495001
 30
0.0
 40
78.000000000000057
 50
271.46928358139758
 51
285.25752329049902
  0
LINE
  5
4375
  8
0
 10
136.32198407791751
 20
100.3590798757499
 30
0.0
 11
136.32198407791751
 21
105.9302909950499
 31
0.0
  0
ARC
  5
4376
  8
0
 10
94.321984077917477
 20
100.3590798757499
 30
0.0
 40
2.000000000000008
 50
180.0
 51
254.74247670950101
  0
ARC
  5
4377
  8
0
 10
114.32198407801749
 20
173.68029099495001
 30
0.0
 40
78.000000000000014
 50
254.74247670950101
 51
267.06046551359537
  0
LINE
  5
4378
  8
0
 10
92.321984077967485
 20
105.9302909950499
 30
0.0
 11
110.3219840779675
 21
105.9302909950499
 31
0.0
  0
LINE
  5
4379
  8
0
 10
92.321984077967485
 20
105.9302909950499
 30
0.0
 11
92.321984077967485
 21
100.3590798757499
 31
0.0
  0
ARC
  5
437A
  8
0
 10
134.3219840779675
 20
100.3590798757499
 30
0.0
 40
2.0000000000000142
 50
285.25752329049902
 51
0.0
  0
LINE
  5
437B
  8
0
 10
116.3219840779675
 20
105.9302909950499
 30
0.0
 11
116.3219840779675
 21
95.705936236499895
 31
0.0
  0
LINE
  5
437C
  8
0
 10
136.32198407791751
 20
105.9302909950499
 30
0.0
 11
116.3219840779675
 21
105.9302909950499
 31
0.0
  0
LINE
  5
437D
  8
0
 10
110.3219840779675
 20
95.782922618399937
 30
0.0
 11
110.3219840779675
 21
105.9302909950499
 31
0.0
  0
LINE
  5
437E
  8
0
 10
96.8219840779675
 20
97.668778709099854
 30
0.0
 11
96.821984077761726
 21
105.9302909950499
 31
0.0
  0
LINE
  5
437F
  8
0
 10
97.821984078017522
 20
103.6802909950499
 30
0.0
 11
92.321984077967485
 21
103.6802909950499
 31
0.0
  0
LINE
  5
4380
  8
0
 10
97.821984078017522
 20
105.9302909950499
 30
0.0
 11
97.821984078017522
 21
97.445456437500013
 31
0.0
  0
LINE
  5
4381
  8
0
 10
136.1508535413175
 20
99.549613084499981
 30
0.0
 11
116.3219840779675
 21
99.549613084499981
 31
0.0
  0
LINE
  5
4382
  8
0
 10
97.821984078017522
 20
99.549613084499981
 30
0.0
 11
110.3219840779675
 21
99.549613084499981
 31
0.0
  0
LINE
  5
4383
  8
1
 10
18.921984078017658
 20
149.18029099500001
 30
0.0
 11
42.321984078017522
 21
149.18029099500001
 31
0.0
  0
LINE
  5
4384
  8
1
 10
109.32198407801749
 20
149.18029099500001
 30
0.0
 11
119.32198407801749
 21
149.18029099500001
 31
0.0
  0
LINE
  5
4385
  8
1
 10
217.98902549703371
 20
149.18029099500001
 30
0.0
 11
241.3890254970336
 21
149.18029099500001
 31
0.0
  0
LINE
  5
4386
  8
1
 10
18.621984078017931
 20
136.18029099499989
 30
0.0
 11
42.621984078017697
 21
136.18029099499989
 31
0.0
  0
LINE
  5
4387
  8
1
 10
90.321984078017522
 20
136.18029099499989
 30
0.0
 11
104.32198407801749
 21
136.18029099499989
 31
0.0
  0
LINE
  5
4388
  8
1
 10
124.32198407801749
 20
136.18029099499989
 30
0.0
 11
138.32198407801749
 21
136.18029099499989
 31
0.0
  0
LINE
  5
4389
  8
1
 10
217.6890254970337
 20
136.18029099499989
 30
0.0
 11
241.68902549703381
 21
136.18029099499989
 31
0.0
  0
LINE
  5
438A
  8
1
 10
18.921984078017658
 20
119.18029099499999
 30
0.0
 11
42.321984078017522
 21
119.18029099499999
 31
0.0
  0
LINE
  5
438B
  8
1
 10
104.32198407801749
 20
119.18029099499999
 30
0.0
 11
124.32198407801749
 21
119.18029099499999
 31
0.0
  0
LINE
  5
438C
  8
1
 10
217.98902549703371
 20
119.18029099499999
 30
0.0
 11
241.3890254970336
 21
119.18029099499999
 31
0.0
  0
LINE
  5
438D
  8
1
 10
18.921984078017658
 20
103.68029099499999
 30
0.0
 11
42.321984078017522
 21
103.68029099499999
 31
0.0
  0
LINE
  5
438E
  8
1
 10
219.68963556807759
 20
103.68029099499999
 30
0.0
 11
239.68841542599009
 21
103.68029099499999
 31
0.0
  0
LINE
  5
438F
  8
1
 10
30.62198407801748
 20
113.190290995
 30
0.0
 11
30.6219840780177
 21
60.679866428120476
 31
0.0
  0
POLYLINE
  5
4390
  8
0
 66
     1
 10
0.0
 20
0.0
 30
0.0
  0
VERTEX
  5
474C
  8
0
 10
34.121984078017711
 20
67.180290994999993
 30
0.0
  0
VERTEX
  5
474D
  8
0
 10
34.127776155836273
 20
67.3367580479499
 30
0.0
  0
VERTEX
  5
474E
  8
0
 10
34.139572240818318
 20
67.655417208152642
 30
0.0
  0
VERTEX
  5
474F
  8
0
 10
34.15161990943966
 20
67.980872642818497
 30
0.0
  0
VERTEX
  5
4750
  8
0
 10
34.157726281434407
 20
68.145830031194748
 30
0.0
  0
SEQEND
  5
4751
  8
0
  0
LINE
  5
4391
  8
0
 10
34.157726281434407
 20
68.145830031194748
 30
0.0
 11
34.528780732303858
 21
78.169486174910446
 31
0.0
  0
POLYLINE
  5
4392
  8
0
 66
     1
 10
0.0
 20
0.0
 30
0.0
  0
VERTEX
  5
4752
  8
0
 10
34.528780732303858
 20
78.169486174910446
 30
0.0
  0
VERTEX
  5
4753
  8
0
 10
34.531252636735189
 20
78.236262142650219
 30
0.0
  0
VERTEX
  5
4754
  8
0
 10
34.536211921933948
 20
78.370232155498513
 30
0.0
  0
VERTEX
  5
4755
  8
0
 10
34.541190871787883
 20
78.504733388871216
 30
0.0
  0
VERTEX
  5
4756
  8
0
 10
34.543687355956081
 20
78.572173353044775
 30
0.0
  0
VERTEX
  5
4757
  8
0
 10
34.546188317730639
 20
78.639734275160833
 30
0.0
  0
VERTEX
  5
4758
  8
0
 10
34.551203086856049
 20
78.775203129490293
 30
0.0
  0
VERTEX
  5
4759
  8
0
 10
34.556234002191331
 20
78.911108157149954
 30
0.0
  0
VERTEX
  5
475A
  8
0
 10
34.561279882974297
 20
79.047417461059965
 30
0.0
  0
VERTEX
  5
475B
  8
0
 10
34.566339544930543
 20
79.184099049255963
 30
0.0
  0
VERTEX
  5
475C
  8
0
 10
34.571411800550777
 20
79.321120842398443
 30
0.0
  0
VERTEX
  5
475D
  8
0
 10
34.573952279072728
 20
79.389749268991466
 30
0.0
  0
VERTEX
  5
475E
  8
0
 10
34.576495459370562
 20
79.458450681300917
 30
0.0
  0
VERTEX
  5
475F
  8
0
 10
34.58158932824881
 20
79.596056334478419
 30
0.0
  0
VERTEX
  5
4760
  8
0
 10
34.586692211647922
 20
79.73390550571213
 30
0.0
  0
VERTEX
  5
4761
  8
0
 10
34.591802911915238
 20
79.871965841628992
 30
0.0
  0
VERTEX
  5
4762
  8
0
 10
34.596920229562329
 20
80.010204939295534
 30
0.0
  0
VERTEX
  5
4763
  8
0
 10
34.602042963548691
 20
80.148590353822485
 30
0.0
  0
VERTEX
  5
4764
  8
0
 10
34.604605985988663
 20
80.217827781282324
 30
0.0
  0
VERTEX
  5
4765
  8
0
 10
34.607169911562323
 20
80.287089605979929
 30
0.0
  0
VERTEX
  5
4766
  8
0
 10
34.612299870301968
 20
80.42567018982021
 30
0.0
  0
VERTEX
  5
4767
  8
0
 10
34.61743163576012
 20
80.564299580306894
 30
0.0
  0
VERTEX
  5
4768
  8
0
 10
34.619997819632317
 20
80.633622410627652
 30
0.0
  0
SEQEND
  5
4769
  8
0
  0
LINE
  5
4393
  8
0
 10
34.619997819632317
 20
80.633622410627652
 30
0.0
 11
34.703497109145253
 21
82.889270239026871
 31
0.0
  0
POLYLINE
  5
4394
  8
0
 66
     1
 10
0.0
 20
0.0
 30
0.0
  0
VERTEX
  5
476A
  8
0
 10
27.1219840780177
 20
67.180290994999993
 30
0.0
  0
VERTEX
  5
476B
  8
0
 10
27.12210005146153
 20
67.151798879290425
 30
0.0
  0
VERTEX
  5
476C
  8
0
 10
27.123025064732701
 20
67.094933960425735
 30
0.0
  0
VERTEX
  5
476D
  8
0
 10
27.124867804992849
 20
67.038242506994891
 30
0.0
  0
VERTEX
  5
476E
  8
0
 10
27.126130846958858
 20
67.009967224214108
 30
0.0
  0
VERTEX
  5
476F
  8
0
 10
27.127620300754192
 20
66.981741776544425
 30
0.0
  0
VERTEX
  5
4770
  8
0
 10
27.13127418688714
 20
66.925448973418327
 30
0.0
  0
VERTEX
  5
4771
  8
0
 10
27.135820700442771
 20
66.86938119320115
 30
0.0
  0
VERTEX
  5
4772
  8
0
 10
27.141250680959281
 20
66.813555370057713
 30
0.0
  0
VERTEX
  5
4773
  8
0
 10
27.14755457487945
 20
66.757988227163594
 30
0.0
  0
VERTEX
  5
4774
  8
0
 10
27.154722443702209
 20
66.702696230367167
 30
0.0
  0
VERTEX
  5
4775
  8
0
 10
27.15862716043512
 20
66.67515847631347
 30
0.0
  0
VERTEX
  5
4776
  8
0
 10
27.16274397550751
 20
66.647695545165163
 30
0.0
  0
VERTEX
  5
4777
  8
0
 10
27.171608499495051
 20
66.593001997031308
 30
0.0
  0
VERTEX
  5
4778
  8
0
 10
27.18130500320558
 20
66.538631035090987
 30
0.0
  0
VERTEX
  5
4779
  8
0
 10
27.191822152095479
 20
66.484597699103517
 30
0.0
  0
VERTEX
  5
477A
  8
0
 10
27.203148311172981
 20
66.430916589683363
 30
0.0
  0
VERTEX
  5
477B
  8
0
 10
27.215271568409889
 20
66.377601841664784
 30
0.0
  0
VERTEX
  5
477C
  8
0
 10
27.22162831666947
 20
66.351086137160166
 30
0.0
  0
VERTEX
  5
477D
  8
0
 10
27.22817975800627
 20
66.324667107142147
 30
0.0
  0
VERTEX
  5
477E
  8
0
 10
27.241860446578809
 20
66.272125681750765
 30
0.0
  0
VERTEX
  5
477F
  8
0
 10
27.256300886911049
 20
66.219990699725983
 30
0.0
  0
VERTEX
  5
4780
  8
0
 10
27.263801943415281
 20
66.194079683547614
 30
0.0
  0
VERTEX
  5
4781
  8
0
 10
27.271488013911501
 20
66.168275123380283
 30
0.0
  0
VERTEX
  5
4782
  8
0
 10
27.287408450640669
 20
66.116991702560483
 30
0.0
  0
VERTEX
  5
4783
  8
0
 10
27.30404851670346
 20
66.066152937590743
 30
0.0
  0
VERTEX
  5
4784
  8
0
 10
27.312634055177121
 20
66.040904130794331
 30
0.0
  0
VERTEX
  5
4785
  8
0
 10
27.32139423873036
 20
66.015771045495683
 30
0.0
  0
VERTEX
  5
4786
  8
0
 10
27.339431362651339
 20
65.965857929392143
 30
0.0
  0
VERTEX
  5
4787
  8
0
 10
27.358145367517409
 20
65.916425150916496
 30
0.0
  0
VERTEX
  5
4788
  8
0
 10
27.377521480628729
 20
65.867483905536858
 30
0.0
  0
VERTEX
  5
4789
  8
0
 10
27.39754469376749
 20
65.819045000590165
 30
0.0
  0
VERTEX
  5
478A
  8
0
 10
27.418199780354371
 20
65.771118835877175
 30
0.0
  0
VERTEX
  5
478B
  8
0
 10
27.42875946257368
 20
65.74735116537596
 30
0.0
  0
VERTEX
  5
478C
  8
0
 10
27.439471313370628
 20
65.723715386643505
 30
0.0
  0
VERTEX
  5
478D
  8
0
 10
27.46134368391154
 20
65.676844188776101
 30
0.0
  0
VERTEX
  5
478E
  8
0
 10
27.483801120259159
 20
65.630514326045784
 30
0.0
  0
VERTEX
  5
478F
  8
0
 10
27.506829050218808
 20
65.584731797483471
 30
0.0
  0
VERTEX
  5
4790
  8
0
 10
27.530413818549281
 20
65.539500535870218
 30
0.0
  0
VERTEX
  5
4791
  8
0
 10
27.55453946816079
 20
65.494828576118763
 30
0.0
  0
VERTEX
  5
4792
  8
0
 10
27.566800062516901
 20
65.472704794707795
 30
0.0
  0
VERTEX
  5
4793
  8
0
 10
27.579189775955459
 20
65.450723755677416
 30
0.0
  0
VERTEX
  5
4794
  8
0
 10
27.604348297255001
 20
65.407193621852855
 30
0.0
  0
VERTEX
  5
4795
  8
0
 10
27.629998377413362
 20
65.364245409840066
 30
0.0
  0
VERTEX
  5
4796
  8
0
 10
27.723399746457741
 20
65.218605782526822
 30
0.0
  0
VERTEX
  5
4797
  8
0
 10
27.89490185502336
 20
64.986430801407934
 30
0.0
  0
VERTEX
  5
4798
  8
0
 10
28.077452489041889
 20
64.777093335067605
 30
0.0
  0
VERTEX
  5
4799
  8
0
 10
28.17162203858652
 20
64.681145966051929
 30
0.0
  0
VERTEX
  5
479A
  8
0
 10
28.267035339465561
 20
64.591040825782727
 30
0.0
  0
VERTEX
  5
479B
  8
0
 10
28.461295921236339
 20
64.426851929186967
 30
0.0
  0
VERTEX
  5
479C
  8
0
 10
28.663443055247619
 20
64.279581243555114
 30
0.0
  0
VERTEX
  5
479D
  8
0
 10
28.87104107630012
 20
64.149746719669963
 30
0.0
  0
VERTEX
  5
479E
  8
0
 10
29.080856410336771
 20
64.037851574436957
 30
0.0
  0
VERTEX
  5
479F
  8
0
 10
29.289562375768359
 20
63.943834227580567
 30
0.0
  0
VERTEX
  5
47A0
  8
0
 10
29.39243388073055
 20
63.903370746908593
 30
0.0
  0
VERTEX
  5
47A1
  8
0
 10
29.49374447908804
 20
63.867124019520638
 30
0.0
  0
VERTEX
  5
47A2
  8
0
 10
29.69081513812398
 20
63.80643201671154
 30
0.0
  0
VERTEX
  5
47A3
  8
0
 10
29.880352763267179
 20
63.759767205727201
 30
0.0
  0
VERTEX
  5
47A4
  8
0
 10
29.971204890368881
 20
63.74132509680868
 30
0.0
  0
SEQEND
  5
47A5
  8
0
  0
POLYLINE
  5
4395
  8
0
 66
     1
 10
0.0
 20
0.0
 30
0.0
  0
VERTEX
  5
47A6
  8
0
 10
29.971204890368881
 20
63.74132509680868
 30
0.0
  0
VERTEX
  5
47A7
  8
0
 10
30.006971246813009
 20
63.734749061217542
 30
0.0
  0
VERTEX
  5
47A8
  8
0
 10
30.078699276605221
 20
63.722713573660883
 30
0.0
  0
VERTEX
  5
47A9
  8
0
 10
30.120650957801899
 20
63.716382061067911
 30
0.0
  0
VERTEX
  5
47AA
  8
0
 10
30.13265095288352
 20
63.714666506881542
 30
0.0
  0
VERTEX
  5
47AB
  8
0
 10
30.144656817686379
 20
63.712992524065548
 30
0.0
  0
VERTEX
  5
47AC
  8
0
 10
30.150661906231111
 20
63.712171128215857
 30
0.0
  0
VERTEX
  5
47AD
  8
0
 10
30.156668408195401
 20
63.711360132699888
 30
0.0
  0
VERTEX
  5
47AE
  8
0
 10
30.16868558032775
 20
63.709769352365868
 30
0.0
  0
VERTEX
  5
47AF
  8
0
 10
30.180708189933281
 20
63.708220202145242
 30
0.0
  0
VERTEX
  5
47B0
  8
0
 10
30.186721488723379
 20
63.70746124415399
 30
0.0
  0
VERTEX
  5
47B1
  8
0
 10
30.192736092796171
 20
63.706712700620699
 30
0.0
  0
VERTEX
  5
47B2
  8
0
 10
30.204769144638249
 20
63.705246865875147
 30
0.0
  0
VERTEX
  5
47B3
  8
0
 10
30.216807201118169
 20
63.70382271549186
 30
0.0
  0
VERTEX
  5
47B4
  8
0
 10
30.222828060974511
 20
63.703126277294182
 30
0.0
  0
VERTEX
  5
47B5
  8
0
 10
30.228850117835471
 20
63.702440266554099
 30
0.0
  0
VERTEX
  5
47B6
  8
0
 10
30.240897750331438
 20
63.701099535644687
 30
0.0
  0
VERTEX
  5
47B7
  8
0
 10
30.252949954090582
 20
63.699800538846212
 30
0.0
  0
VERTEX
  5
47B8
  8
0
 10
30.26500658454211
 20
63.698543291740691
 30
0.0
  0
VERTEX
  5
47B9
  8
0
 10
30.27706749706272
 20
63.697327809408932
 30
0.0
  0
VERTEX
  5
47BA
  8
0
 10
30.289132546977729
 20
63.696154106431379
 30
0.0
  0
VERTEX
  5
47BB
  8
0
 10
30.29516657823342
 20
63.695582926619693
 30
0.0
  0
VERTEX
  5
47BC
  8
0
 10
30.301201589562421
 20
63.695022196886903
 30
0.0
  0
VERTEX
  5
47BD
  8
0
 10
30.31327448004458
 20
63.693932094353222
 30
0.0
  0
VERTEX
  5
47BE
  8
0
 10
30.32535107360582
 20
63.692883811906249
 30
0.0
  0
VERTEX
  5
47BF
  8
0
 10
30.337431225382939
 20
63.691877362120799
 30
0.0
  0
VERTEX
  5
47C0
  8
0
 10
30.34951479047049
 20
63.690912757069391
 30
0.0
  0
VERTEX
  5
47C1
  8
0
 10
30.361601623921839
 20
63.689990008322923
 30
0.0
  0
VERTEX
  5
47C2
  8
0
 10
30.367646220977349
 20
63.689544333542528
 30
0.0
  0
VERTEX
  5
47C3
  8
0
 10
30.37369158075126
 20
63.689109126949973
 30
0.0
  0
VERTEX
  5
47C4
  8
0
 10
30.385784515935491
 20
63.68827012351715
 30
0.0
  0
VERTEX
  5
47C5
  8
0
 10
30.397880284415351
 20
63.687473008088382
 30
0.0
  0
VERTEX
  5
47C6
  8
0
 10
30.409978741098261
 20
63.6867177902256
 30
0.0
  0
VERTEX
  5
47C7
  8
0
 10
30.42207974085909
 20
63.686004478987741
 30
0.0
  0
VERTEX
  5
47C8
  8
0
 10
30.434183138541808
 20
63.685333082931209
 30
0.0
  0
VERTEX
  5
47C9
  8
0
 10
30.440235691234651
 20
63.685013105632429
 30
0.0
  0
VERTEX
  5
47CA
  8
0
 10
30.446288788961969
 20
63.684703610109807
 30
0.0
  0
VERTEX
  5
47CB
  8
0
 10
30.458396546908261
 20
63.684116068074047
 30
0.0
  0
VERTEX
  5
47CC
  8
0
 10
30.470506267143719
 20
63.683570463871831
 30
0.0
  0
VERTEX
  5
47CD
  8
0
 10
30.482617804408619
 20
63.683066804047989
 30
0.0
  0
VERTEX
  5
47CE
  8
0
 10
30.49473101341983
 20
63.682605094643861
 30
0.0
  0
VERTEX
  5
47CF
  8
0
 10
30.50684574887601
 20
63.682185341197901
 30
0.0
  0
VERTEX
  5
47D0
  8
0
 10
30.51290364360921
 20
63.681991199552328
 30
0.0
  0
VERTEX
  5
47D1
  8
0
 10
30.518961865456731
 20
63.681807548745212
 30
0.0
  0
VERTEX
  5
47D2
  8
0
 10
30.531079217824299
 20
63.681471721817559
 30
0.0
  0
VERTEX
  5
47D3
  8
0
 10
30.543197660627591
 20
63.681177864443207
 30
0.0
  0
VERTEX
  5
47D4
  8
0
 10
30.555317048501141
 20
63.680925980147258
 30
0.0
  0
VERTEX
  5
47D5
  8
0
 10
30.56743723606905
 20
63.680716071951053
 30
0.0
  0
VERTEX
  5
47D6
  8
0
 10
30.57955807794497
 20
63.680548142372402
 30
0.0
  0
VERTEX
  5
47D7
  8
0
 10
30.585618698813509
 20
63.680479920213941
 30
0.0
  0
VERTEX
  5
47D8
  8
0
 10
30.591679428735919
 20
63.680422193425841
 30
0.0
  0
VERTEX
  5
47D9
  8
0
 10
30.603801143041441
 20
63.680338226622162
 30
0.0
  0
VERTEX
  5
47DA
  8
0
 10
30.615923075457431
 20
63.680296242968488
 30
0.0
  0
VERTEX
  5
47DB
  8
0
 10
30.6219840780177
 20
63.680290995000007
 30
0.0
  0
VERTEX
  5
47DC
  8
0
 10
30.628045080577522
 20
63.680296242968488
 30
0.0
  0
VERTEX
  5
47DD
  8
0
 10
30.64016701299397
 20
63.680338226622162
 30
0.0
  0
VERTEX
  5
47DE
  8
0
 10
30.652288727299489
 20
63.680422193425841
 30
0.0
  0
VERTEX
  5
47DF
  8
0
 10
30.658349457221679
 20
63.680479920213941
 30
0.0
  0
VERTEX
  5
47E0
  8
0
 10
30.66441007808999
 20
63.680548142372402
 30
0.0
  0
VERTEX
  5
47E1
  8
0
 10
30.67653091996636
 20
63.680716071951053
 30
0.0
  0
VERTEX
  5
47E2
  8
0
 10
30.688651107534039
 20
63.680925980147258
 30
0.0
  0
VERTEX
  5
47E3
  8
0
 10
30.7007704954076
 20
63.681177864443207
 30
0.0
  0
VERTEX
  5
47E4
  8
0
 10
30.712888938210661
 20
63.681471721817559
 30
0.0
  0
VERTEX
  5
47E5
  8
0
 10
30.72500629057868
 20
63.681807548745212
 30
0.0
  0
VERTEX
  5
47E6
  8
0
 10
30.731064512426201
 20
63.681991199552328
 30
0.0
  0
VERTEX
  5
47E7
  8
0
 10
30.737122407158949
 20
63.682185341197901
 30
0.0
  0
VERTEX
  5
47E8
  8
0
 10
30.749237142615129
 20
63.682605094643861
 30
0.0
  0
VERTEX
  5
47E9
  8
0
 10
30.761350351626788
 20
63.683066804047989
 30
0.0
  0
VERTEX
  5
47EA
  8
0
 10
30.77346188889123
 20
63.683570463871952
 30
0.0
  0
VERTEX
  5
47EB
  8
0
 10
30.785571609126919
 20
63.684116068074047
 30
0.0
  0
VERTEX
  5
47EC
  8
0
 10
30.797679367073219
 20
63.684703610109807
 30
0.0
  0
VERTEX
  5
47ED
  8
0
 10
30.803732464800309
 20
63.685013105632429
 30
0.0
  0
VERTEX
  5
47EE
  8
0
 10
30.809785017493599
 20
63.685333082931209
 30
0.0
  0
VERTEX
  5
47EF
  8
0
 10
30.82188841517609
 20
63.686004478987741
 30
0.0
  0
VERTEX
  5
47F0
  8
0
 10
30.833989414936688
 20
63.6867177902256
 30
0.0
  0
VERTEX
  5
47F1
  8
0
 10
30.846087871619599
 20
63.687473008088382
 30
0.0
  0
VERTEX
  5
47F2
  8
0
 10
30.85818364009992
 20
63.68827012351715
 30
0.0
  0
VERTEX
  5
47F3
  8
0
 10
30.870276575284151
 20
63.689109126949973
 30
0.0
  0
VERTEX
  5
47F4
  8
0
 10
30.876321935058058
 20
63.689544333542528
 30
0.0
  0
VERTEX
  5
47F5
  8
0
 10
30.882366532113341
 20
63.689990008322923
 30
0.0
  0
VERTEX
  5
47F6
  8
0
 10
30.894453365564921
 20
63.690912757069391
 30
0.0
  0
VERTEX
  5
47F7
  8
0
 10
30.906536930652241
 20
63.691877362120799
 30
0.0
  0
VERTEX
  5
47F8
  8
0
 10
30.918617082429591
 20
63.692883811906249
 30
0.0
  0
VERTEX
  5
47F9
  8
0
 10
30.9306936759906
 20
63.693932094353222
 30
0.0
  0
VERTEX
  5
47FA
  8
0
 10
30.942766566472759
 20
63.695022196886903
 30
0.0
  0
VERTEX
  5
47FB
  8
0
 10
30.94880157780176
 20
63.695582926619693
 30
0.0
  0
VERTEX
  5
47FC
  8
0
 10
30.954835609057682
 20
63.696154106431379
 30
0.0
  0
VERTEX
  5
47FD
  8
0
 10
30.96690065897246
 20
63.697327809408932
 30
0.0
  0
VERTEX
  5
47FE
  8
0
 10
30.97896157149307
 20
63.698543291740691
 30
0.0
  0
VERTEX
  5
47FF
  8
0
 10
30.991018201944829
 20
63.699800538846212
 30
0.0
  0
VERTEX
  5
4800
  8
0
 10
31.003070405703511
 20
63.701099535644687
 30
0.0
  0
VERTEX
  5
4801
  8
0
 10
31.015118038199489
 20
63.702440266554099
 30
0.0
  0
VERTEX
  5
4802
  8
0
 10
31.021140095060669
 20
63.703126277294182
 30
0.0
  0
VERTEX
  5
4803
  8
0
 10
31.027160954917239
 20
63.70382271549186
 30
0.0
  0
VERTEX
  5
4804
  8
0
 10
31.039199011397159
 20
63.705246865875147
 30
0.0
  0
VERTEX
  5
4805
  8
0
 10
31.051232063238789
 20
63.706712700620699
 30
0.0
  0
VERTEX
  5
4806
  8
0
 10
31.057246667311581
 20
63.70746124415399
 30
0.0
  0
VERTEX
  5
4807
  8
0
 10
31.06325996610213
 20
63.708220202145242
 30
0.0
  0
VERTEX
  5
4808
  8
0
 10
31.07528257570744
 20
63.709769352365868
 30
0.0
  0
VERTEX
  5
4809
  8
0
 10
31.087299747839779
 20
63.711360132699888
 30
0.0
  0
VERTEX
  5
480A
  8
0
 10
31.093306249803849
 20
63.712171128215857
 30
0.0
  0
VERTEX
  5
480B
  8
0
 10
31.099311338348802
 20
63.712992524065548
 30
0.0
  0
VERTEX
  5
480C
  8
0
 10
31.11131720315143
 20
63.714666506881542
 30
0.0
  0
VERTEX
  5
480D
  8
0
 10
31.123317198233512
 20
63.716382061067911
 30
0.0
  0
VERTEX
  5
480E
  8
0
 10
31.165268879429728
 20
63.722713573660883
 30
0.0
  0
VERTEX
  5
480F
  8
0
 10
31.236996909222398
 20
63.734749061217542
 30
0.0
  0
VERTEX
  5
4810
  8
0
 10
31.27276326566653
 20
63.74132509680868
 30
0.0
  0
SEQEND
  5
4811
  8
0
  0
POLYLINE
  5
4396
  8
0
 66
     1
 10
0.0
 20
0.0
 30
0.0
  0
VERTEX
  5
4812
  8
0
 10
31.27276326566653
 20
63.74132509680868
 30
0.0
  0
VERTEX
  5
4813
  8
0
 10
31.363615392768001
 20
63.759767205727201
 30
0.0
  0
VERTEX
  5
4814
  8
0
 10
31.5531530179112
 20
63.80643201671154
 30
0.0
  0
VERTEX
  5
4815
  8
0
 10
31.75022367694692
 20
63.867124019520638
 30
0.0
  0
VERTEX
  5
4816
  8
0
 10
31.85153427530463
 20
63.903370746908593
 30
0.0
  0
VERTEX
  5
4817
  8
0
 10
31.954405780266828
 20
63.943834227580567
 30
0.0
  0
VERTEX
  5
4818
  8
0
 10
32.163111745698188
 20
64.037851574436957
 30
0.0
  0
VERTEX
  5
4819
  8
0
 10
32.372927079735291
 20
64.149746719669963
 30
0.0
  0
VERTEX
  5
481A
  8
0
 10
32.580525100787547
 20
64.279581243555114
 30
0.0
  0
VERTEX
  5
481B
  8
0
 10
32.782672234798838
 20
64.426851929186967
 30
0.0
  0
VERTEX
  5
481C
  8
0
 10
32.97693281656985
 20
64.591040825782727
 30
0.0
  0
VERTEX
  5
481D
  8
0
 10
33.072346117448433
 20
64.681145966051929
 30
0.0
  0
VERTEX
  5
481E
  8
0
 10
33.166515666993291
 20
64.777093335067605
 30
0.0
  0
VERTEX
  5
481F
  8
0
 10
33.349066301012051
 20
64.986430801407934
 30
0.0
  0
VERTEX
  5
4820
  8
0
 10
33.520568409577443
 20
65.218605782526822
 30
0.0
  0
VERTEX
  5
4821
  8
0
 10
33.613969778622049
 20
65.364245409840066
 30
0.0
  0
VERTEX
  5
4822
  8
0
 10
33.639619858780407
 20
65.407193621852855
 30
0.0
  0
VERTEX
  5
4823
  8
0
 10
33.664778380079952
 20
65.450723755677416
 30
0.0
  0
VERTEX
  5
4824
  8
0
 10
33.67716809351851
 20
65.472704794707795
 30
0.0
  0
VERTEX
  5
4825
  8
0
 10
33.68942868787417
 20
65.494828576118763
 30
0.0
  0
VERTEX
  5
4826
  8
0
 10
33.713554337485903
 20
65.539500535870218
 30
0.0
  0
VERTEX
  5
4827
  8
0
 10
33.737139105816368
 20
65.584731797483471
 30
0.0
  0
VERTEX
  5
4828
  8
0
 10
33.760167035776021
 20
65.630514326045784
 30
0.0
  0
VERTEX
  5
4829
  8
0
 10
33.782624472123643
 20
65.676844188776101
 30
0.0
  0
VERTEX
  5
482A
  8
0
 10
33.804496842664548
 20
65.723715386643505
 30
0.0
  0
VERTEX
  5
482B
  8
0
 10
33.8152086934615
 20
65.74735116537596
 30
0.0
  0
VERTEX
  5
482C
  8
0
 10
33.825768375680809
 20
65.771118835877175
 30
0.0
  0
VERTEX
  5
482D
  8
0
 10
33.846423462267687
 20
65.819045000590165
 30
0.0
  0
VERTEX
  5
482E
  8
0
 10
33.866446675406451
 20
65.867483905536858
 30
0.0
  0
VERTEX
  5
482F
  8
0
 10
33.885822788517771
 20
65.916425150916496
 30
0.0
  0
VERTEX
  5
4830
  8
0
 10
33.904536793383841
 20
65.965857929392143
 30
0.0
  0
VERTEX
  5
4831
  8
0
 10
33.922573917304817
 20
66.015771045495683
 30
0.0
  0
VERTEX
  5
4832
  8
0
 10
33.931334100858287
 20
66.040904130794331
 30
0.0
  0
VERTEX
  5
4833
  8
0
 10
33.939919639331492
 20
66.066152937590743
 30
0.0
  0
VERTEX
  5
4834
  8
0
 10
33.956559705394739
 20
66.116991702560483
 30
0.0
  0
VERTEX
  5
4835
  8
0
 10
33.972480142123459
 20
66.168275123380283
 30
0.0
  0
VERTEX
  5
4836
  8
0
 10
33.980166212620126
 20
66.194079683547727
 30
0.0
  0
VERTEX
  5
4837
  8
0
 10
33.987667269124131
 20
66.219990699725983
 30
0.0
  0
VERTEX
  5
4838
  8
0
 10
34.002107709456368
 20
66.272125681750765
 30
0.0
  0
VERTEX
  5
4839
  8
0
 10
34.01578839802869
 20
66.324667107142147
 30
0.0
  0
VERTEX
  5
483A
  8
0
 10
34.022339839365941
 20
66.351086137160166
 30
0.0
  0
VERTEX
  5
483B
  8
0
 10
34.028696587625291
 20
66.377601841664784
 30
0.0
  0
VERTEX
  5
483C
  8
0
 10
34.040819844862199
 20
66.430916589683363
 30
0.0
  0
VERTEX
  5
483D
  8
0
 10
34.05214600393947
 20
66.484597699103517
 30
0.0
  0
VERTEX
  5
483E
  8
0
 10
34.062663152829828
 20
66.538631035090987
 30
0.0
  0
VERTEX
  5
483F
  8
0
 10
34.072359656540357
 20
66.593001997031308
 30
0.0
  0
VERTEX
  5
4840
  8
0
 10
34.081224180527897
 20
66.647695545165163
 30
0.0
  0
VERTEX
  5
4841
  8
0
 10
34.085340995599843
 20
66.67515847631347
 30
0.0
  0
VERTEX
  5
4842
  8
0
 10
34.089245712332968
 20
66.702696230367053
 30
0.0
  0
VERTEX
  5
4843
  8
0
 10
34.096413581155957
 20
66.757988227163594
 30
0.0
  0
VERTEX
  5
4844
  8
0
 10
34.102717475076133
 20
66.813555370057713
 30
0.0
  0
VERTEX
  5
4845
  8
0
 10
34.108147455592643
 20
66.86938119320115
 30
0.0
  0
VERTEX
  5
4846
  8
0
 10
34.11269396914804
 20
66.925448973418327
 30
0.0
  0
VERTEX
  5
4847
  8
0
 10
34.116347855281219
 20
66.981741776544425
 30
0.0
  0
VERTEX
  5
4848
  8
0
 10
34.117837309076549
 20
67.009967224214108
 30
0.0
  0
VERTEX
  5
4849
  8
0
 10
34.119100351042562
 20
67.038242506994891
 30
0.0
  0
VERTEX
  5
484A
  8
0
 10
34.120943091302713
 20
67.094933960425735
 30
0.0
  0
VERTEX
  5
484B
  8
0
 10
34.121868104573878
 20
67.151798879290425
 30
0.0
  0
VERTEX
  5
484C
  8
0
 10
34.121984078017711
 20
67.180290994999993
 30
0.0
  0
SEQEND
  5
484D
  8
0
  0
LINE
  5
4397
  8
0
 10
26.540471046890161
 20
82.889270239026871
 30
0.0
 11
26.62397033640309
 21
80.633622410627652
 31
0.0
  0
POLYLINE
  5
4398
  8
0
 66
     1
 10
0.0
 20
0.0
 30
0.0
  0
VERTEX
  5
484E
  8
0
 10
26.62397033640309
 20
80.633622410627652
 30
0.0
  0
VERTEX
  5
484F
  8
0
 10
26.626536520275291
 20
80.564299580306894
 30
0.0
  0
VERTEX
  5
4850
  8
0
 10
26.631668285733209
 20
80.42567018982021
 30
0.0
  0
VERTEX
  5
4851
  8
0
 10
26.636798244473091
 20
80.287089605979929
 30
0.0
  0
VERTEX
  5
4852
  8
0
 10
26.639362170046748
 20
80.217827781282324
 30
0.0
  0
VERTEX
  5
4853
  8
0
 10
26.64192519248672
 20
80.148590353822485
 30
0.0
  0
VERTEX
  5
4854
  8
0
 10
26.647047926473078
 20
80.010204939295534
 30
0.0
  0
VERTEX
  5
4855
  8
0
 10
26.65216524412017
 20
79.871965841628992
 30
0.0
  0
VERTEX
  5
4856
  8
0
 10
26.657275944387269
 20
79.73390550571213
 30
0.0
  0
VERTEX
  5
4857
  8
0
 10
26.662378827786601
 20
79.596056334478419
 30
0.0
  0
VERTEX
  5
4858
  8
0
 10
26.667472696664621
 20
79.458450681300917
 30
0.0
  0
VERTEX
  5
4859
  8
0
 10
26.67001587696268
 20
79.389749268991466
 30
0.0
  0
VERTEX
  5
485A
  8
0
 10
26.67255635548463
 20
79.321120842398443
 30
0.0
  0
VERTEX
  5
485B
  8
0
 10
26.677628611104868
 20
79.184099049255963
 30
0.0
  0
VERTEX
  5
485C
  8
0
 10
26.68268827306111
 20
79.047417461059965
 30
0.0
  0
VERTEX
  5
485D
  8
0
 10
26.687734153843849
 20
78.911108157149954
 30
0.0
  0
VERTEX
  5
485E
  8
0
 10
26.692765069179131
 20
78.775203129490293
 30
0.0
  0
VERTEX
  5
485F
  8
0
 10
26.697779838304541
 20
78.639734275160833
 30
0.0
  0
VERTEX
  5
4860
  8
0
 10
26.700280800079099
 20
78.572173353044775
 30
0.0
  0
VERTEX
  5
4861
  8
0
 10
26.702777284247531
 20
78.504733388871216
 30
0.0
  0
VERTEX
  5
4862
  8
0
 10
26.70775623410146
 20
78.370232155498513
 30
0.0
  0
VERTEX
  5
4863
  8
0
 10
26.712715519299991
 20
78.236262142650219
 30
0.0
  0
VERTEX
  5
4864
  8
0
 10
26.71518742373155
 20
78.169486174910446
 30
0.0
  0
SEQEND
  5
4865
  8
0
  0
LINE
  5
4399
  8
0
 10
26.71518742373155
 20
78.169486174910446
 30
0.0
 11
27.086241874601001
 21
68.145830031194748
 31
0.0
  0
POLYLINE
  5
439A
  8
0
 66
     1
 10
0.0
 20
0.0
 30
0.0
  0
VERTEX
  5
4866
  8
0
 10
27.086241874601001
 20
68.145830031194748
 30
0.0
  0
VERTEX
  5
4867
  8
0
 10
27.09234824659552
 20
67.980872642818497
 30
0.0
  0
VERTEX
  5
4868
  8
0
 10
27.104395915216632
 20
67.655417208152642
 30
0.0
  0
VERTEX
  5
4869
  8
0
 10
27.116192000199138
 20
67.3367580479499
 30
0.0
  0
VERTEX
  5
486A
  8
0
 10
27.1219840780177
 20
67.180290994999993
 30
0.0
  0
SEQEND
  5
486B
  8
0
  0
ARC
  5
439B
  8
0
 10
31.53704875603535
 20
83.074232928439926
 30
0.0
 40
5.0000000000002958
 50
170.45121234072201
 51
182.12
  0
ARC
  5
439C
  8
0
 10
29.706919400000061
 20
83.074232928439926
 30
0.0
 40
4.9999999999999218
 50
357.87999999999988
 51
9.5487876592779788
  0
POLYLINE
  5
439D
  8
0
 66
     1
 10
0.0
 20
0.0
 30
0.0
  0
VERTEX
  5
486C
  8
0
 10
34.637642925431237
 20
83.903669795091375
 30
0.0
  0
VERTEX
  5
486D
  8
0
 10
34.566352384664697
 20
84.347796221898676
 30
0.0
  0
VERTEX
  5
486E
  8
0
 10
34.443673688218951
 20
85.239929704027446
 30
0.0
  0
VERTEX
  5
486F
  8
0
 10
34.347814375181322
 20
86.135480515908299
 30
0.0
  0
VERTEX
  5
4870
  8
0
 10
34.310003421553347
 20
86.583899650455152
 30
0.0
  0
VERTEX
  5
4871
  8
0
 10
34.278945341124661
 20
87.032473038349309
 30
0.0
  0
VERTEX
  5
4872
  8
0
 10
34.237068843066027
 20
87.929050566528673
 30
0.0
  0
VERTEX
  5
4873
  8
0
 10
34.222038570949742
 20
88.823110815198135
 30
0.0
  0
VERTEX
  5
4874
  8
0
 10
34.23353026051155
 20
89.712539536783893
 30
0.0
  0
VERTEX
  5
4875
  8
0
 10
34.271041787434108
 20
90.595241695785845
 30
0.0
  0
VERTEX
  5
4876
  8
0
 10
34.333897324787358
 20
91.469165312417005
 30
0.0
  0
VERTEX
  5
4877
  8
0
 10
34.374571358421008
 20
91.902203294531347
 30
0.0
  0
VERTEX
  5
4878
  8
0
 10
34.421250587709437
 20
92.332288016960462
 30
0.0
  0
VERTEX
  5
4879
  8
0
 10
34.532082703288332
 20
93.182587632708902
 30
0.0
  0
VERTEX
  5
487A
  8
0
 10
34.615470411541537
 20
93.705936236528274
 30
0.0
  0
SEQEND
  5
487B
  8
0
  0
POLYLINE
  5
439E
  8
0
 66
     1
 10
0.0
 20
0.0
 30
0.0
  0
VERTEX
  5
487C
  8
0
 10
26.62849774449387
 20
93.705936236528316
 30
0.0
  0
VERTEX
  5
487D
  8
0
 10
26.711885452748898
 20
93.182587632695956
 30
0.0
  0
VERTEX
  5
487E
  8
0
 10
26.822717568327331
 20
92.332288016948525
 30
0.0
  0
VERTEX
  5
487F
  8
0
 10
26.86939679761554
 20
91.902203294519865
 30
0.0
  0
VERTEX
  5
4880
  8
0
 10
26.910070831248959
 20
91.469165312406091
 30
0.0
  0
VERTEX
  5
4881
  8
0
 10
26.972926368601971
 20
90.595241695776195
 30
0.0
  0
VERTEX
  5
4882
  8
0
 10
27.010437895524088
 20
89.712539536775495
 30
0.0
  0
VERTEX
  5
4883
  8
0
 10
27.021929585085449
 20
88.823110815190958
 30
0.0
  0
VERTEX
  5
4884
  8
0
 10
27.006899312969381
 20
87.929050566522633
 30
0.0
  0
VERTEX
  5
4885
  8
0
 10
26.96502281491053
 20
87.032473038344762
 30
0.0
  0
VERTEX
  5
4886
  8
0
 10
26.93396473448184
 20
86.583899650451173
 30
0.0
  0
VERTEX
  5
4887
  8
0
 10
26.896153780853869
 20
86.135480515905016
 30
0.0
  0
VERTEX
  5
4888
  8
0
 10
26.800294467815998
 20
85.2399297040254
 30
0.0
  0
VERTEX
  5
4889
  8
0
 10
26.677615771370711
 20
84.347796221897994
 30
0.0
  0
VERTEX
  5
488A
  8
0
 10
26.60632523060417
 20
83.903669795091375
 30
0.0
  0
SEQEND
  5
488B
  8
0
  0
LINE
  5
439F
  8
1
 10
229.68902549703381
 20
60.679866428120476
 30
0.0
 11
229.68902549703381
 21
113.190290995
 31
0.0
  0
POLYLINE
  5
43A0
  8
0
 66
     1
 10
0.0
 20
0.0
 30
0.0
  0
VERTEX
  5
488C
  8
0
 10
233.70468434444729
 20
83.903669795091375
 30
0.0
  0
VERTEX
  5
488D
  8
0
 10
233.6333938036808
 20
84.347796221898705
 30
0.0
  0
VERTEX
  5
488E
  8
0
 10
233.5107151072352
 20
85.239929704027475
 30
0.0
  0
VERTEX
  5
488F
  8
0
 10
233.41485579419739
 20
86.135480515908341
 30
0.0
  0
VERTEX
  5
4890
  8
0
 10
233.3770448405694
 20
86.58389965045518
 30
0.0
  0
VERTEX
  5
4891
  8
0
 10
233.3459867601407
 20
87.032473038349323
 30
0.0
  0
VERTEX
  5
4892
  8
0
 10
233.30411026208211
 20
87.929050566528701
 30
0.0
  0
VERTEX
  5
4893
  8
0
 10
233.28907998996601
 20
88.823110815198163
 30
0.0
  0
VERTEX
  5
4894
  8
0
 10
233.30057167952759
 20
89.712539536783936
 30
0.0
  0
VERTEX
  5
4895
  8
0
 10
233.33808320645019
 20
90.595241695785887
 30
0.0
  0
VERTEX
  5
4896
  8
0
 10
233.40093874380341
 20
91.469165312417033
 30
0.0
  0
VERTEX
  5
4897
  8
0
 10
233.44161277743709
 20
91.902203294531375
 30
0.0
  0
VERTEX
  5
4898
  8
0
 10
233.48829200672549
 20
92.332288016960476
 30
0.0
  0
VERTEX
  5
4899
  8
0
 10
233.5991241223044
 20
93.18258763270893
 30
0.0
  0
VERTEX
  5
489A
  8
0
 10
233.7322440243793
 20
94.018059866577389
 30
0.0
  0
VERTEX
  5
489B
  8
0
 10
233.88629269214559
 20
94.836741582753405
 30
0.0
  0
VERTEX
  5
489C
  8
0
 10
234.0616918366745
 20
95.645124112382007
 30
0.0
  0
VERTEX
  5
489D
  8
0
 10
234.2619446688297
 20
96.458455587624655
 30
0.0
  0
VERTEX
  5
489E
  8
0
 10
234.3715483922856
 20
96.86649897478361
 30
0.0
  0
VERTEX
  5
489F
  8
0
 10
234.4875134566168
 20
97.275105119548869
 30
0.0
  0
VERTEX
  5
48A0
  8
0
 10
234.73860006172731
 20
98.092956595303065
 30
0.0
  0
VERTEX
  5
48A1
  8
0
 10
235.01525835479259
 20
98.909951586781119
 30
0.0
  0
VERTEX
  5
48A2
  8
0
 10
235.16315554974059
 20
99.317505168712884
 30
0.0
  0
SEQEND
  5
48A3
  8
0
  0
POLYLINE
  5
43A1
  8
0
 66
     1
 10
0.0
 20
0.0
 30
0.0
  0
VERTEX
  5
48A4
  8
0
 10
225.60751246590621
 20
82.889270239026871
 30
0.0
  0
VERTEX
  5
48A5
  8
0
 10
225.70382678140729
 20
80.287437602233766
 30
0.0
  0
VERTEX
  5
48A6
  8
0
 10
225.89728622388839
 20
75.061328807040283
 30
0.0
  0
VERTEX
  5
48A7
  8
0
 10
226.0916193607124
 20
69.811618053563109
 30
0.0
  0
VERTEX
  5
48A8
  8
0
 10
226.1890254970337
 20
67.180290994999993
 30
0.0
  0
SEQEND
  5
48A9
  8
0
  0
POLYLINE
  5
43A2
  8
0
 66
     1
 10
0.0
 20
0.0
 30
0.0
  0
VERTEX
  5
48AA
  8
0
 10
226.1890254970337
 20
67.180290994999993
 30
0.0
  0
VERTEX
  5
48AB
  8
0
 10
226.1890972849132
 20
67.157874260100982
 30
0.0
  0
VERTEX
  5
48AC
  8
0
 10
226.1896745062038
 20
67.112891863125981
 30
0.0
  0
VERTEX
  5
48AD
  8
0
 10
226.19083614035191
 20
67.067724460019519
 30
0.0
  0
VERTEX
  5
48AE
  8
0
 10
226.1916383236069
 20
67.045076501881056
 30
0.0
  0
VERTEX
  5
48AF
  8
0
 10
226.19258919887869
 20
67.022388452451708
 30
0.0
  0
VERTEX
  5
48B0
  8
0
 10
226.19494017357809
 20
66.976900355068267
 30
0.0
  0
VERTEX
  5
48B1
  8
0
 10
226.1978950337398
 20
66.931276761950755
 30
0.0
  0
VERTEX
  5
48B2
  8
0
 10
226.20145922545629
 20
66.885534313388405
 30
0.0
  0
VERTEX
  5
48B3
  8
0
 10
226.2056376730086
 20
66.839689662892226
 30
0.0
  0
VERTEX
  5
48B4
  8
0
 10
226.2104347823354
 20
66.793759444394652
 30
0.0
  0
VERTEX
  5
48B5
  8
0
 10
226.2130665716106
 20
66.77076743185404
 30
0.0
  0
VERTEX
  5
48B6
  8
0
 10
226.21585444659351
 20
66.747760239581396
 30
0.0
  0
VERTEX
  5
48B7
  8
0
 10
226.22190005383749
 20
66.701708545321296
 30
0.0
  0
VERTEX
  5
48B8
  8
0
 10
226.22857449684079
 20
66.655620741161158
 30
0.0
  0
VERTEX
  5
48B9
  8
0
 10
226.23588018509781
 20
66.609513056870867
 30
0.0
  0
VERTEX
  5
48BA
  8
0
 10
226.2438190590467
 20
66.563401540030384
 30
0.0
  0
VERTEX
  5
48BB
  8
0
 10
226.2523926065596
 20
66.517302023664968
 30
0.0
  0
VERTEX
  5
48BC
  8
0
 10
226.2569177312923
 20
66.494261633867097
 30
0.0
  0
VERTEX
  5
48BD
  8
0
 10
226.26160189594091
 20
66.471230025356761
 30
0.0
  0
VERTEX
  5
48BE
  8
0
 10
226.27144753075191
 20
66.42520103719113
 30
0.0
  0
VERTEX
  5
48BF
  8
0
 10
226.28192957897591
 20
66.379230819262432
 30
0.0
  0
VERTEX
  5
48C0
  8
0
 10
226.28740915106101
 20
66.356272648838456
 30
0.0
  0
SEQEND
  5
48C1
  8
0
  0
POLYLINE
  5
43A3
  8
0
 66
     1
 10
0.0
 20
0.0
 30
0.0
  0
VERTEX
  5
48C2
  8
0
 10
226.28740915106101
 20
66.356272648838456
 30
0.0
  0
VERTEX
  5
48C3
  8
0
 10
226.29924690425861
 20
66.308854771308063
 30
0.0
  0
VERTEX
  5
48C4
  8
0
 10
226.3249612867844
 20
66.214334479767956
 30
0.0
  0
VERTEX
  5
48C5
  8
0
 10
226.3533415627339
 20
66.120473703928425
 30
0.0
  0
VERTEX
  5
48C6
  8
0
 10
226.3685117703956
 20
66.073860431789001
 30
0.0
  0
VERTEX
  5
48C7
  8
0
 10
226.38431882895199
 20
66.027505742693563
 30
0.0
  0
VERTEX
  5
48C8
  8
0
 10
226.4177817006528
 20
65.935717162461685
 30
0.0
  0
VERTEX
  5
48C9
  8
0
 10
226.4535897124363
 20
65.845392016145922
 30
0.0
  0
VERTEX
  5
48CA
  8
0
 10
226.4915777156466
 20
65.756799623300651
 30
0.0
  0
VERTEX
  5
48CB
  8
0
 10
226.53155917763641
 20
65.670189527590821
 30
0.0
  0
VERTEX
  5
48CC
  8
0
 10
226.57332486468471
 20
65.585797479936389
 30
0.0
  0
VERTEX
  5
48CD
  8
0
 10
226.5948047305248
 20
65.544504380522028
 30
0.0
  0
VERTEX
  5
48CE
  8
0
 10
226.61664138605741
 20
65.503849563091251
 30
0.0
  0
VERTEX
  5
48CF
  8
0
 10
226.6612540138467
 20
65.424557574005163
 30
0.0
  0
VERTEX
  5
48D0
  8
0
 10
226.706964564283
 20
65.347993913912489
 30
0.0
  0
VERTEX
  5
48D1
  8
0
 10
226.75452732748519
 20
65.272747943607484
 30
0.0
  0
VERTEX
  5
48D2
  8
0
 10
226.80416211334679
 20
65.198482917142371
 30
0.0
  0
VERTEX
  5
48D3
  8
0
 10
226.85579716217879
 20
65.125341554606337
 30
0.0
  0
VERTEX
  5
48D4
  8
0
 10
226.88234010296401
 20
65.089234539828283
 30
0.0
  0
VERTEX
  5
48D5
  8
0
 10
226.909352608837
 20
65.053457989185006
 30
0.0
  0
VERTEX
  5
48D6
  8
0
 10
226.9647419890386
 20
64.982956389605135
 30
0.0
  0
VERTEX
  5
48D7
  8
0
 10
227.0218737094531
 20
64.913950036096082
 30
0.0
  0
VERTEX
  5
48D8
  8
0
 10
227.05106294900679
 20
64.880040227103962
 30
0.0
  0
VERTEX
  5
48D9
  8
0
 10
227.08065090301531
 20
64.846542512991107
 30
0.0
  0
VERTEX
  5
48DA
  8
0
 10
227.1409697502045
 20
64.780830240778243
 30
0.0
  0
VERTEX
  5
48DB
  8
0
 10
227.2027201150465
 20
64.716901958022333
 30
0.0
  0
VERTEX
  5
48DC
  8
0
 10
227.23409625667159
 20
64.685632215764997
 30
0.0
  0
VERTEX
  5
48DD
  8
0
 10
227.26578669908989
 20
64.65483782217342
 30
0.0
  0
VERTEX
  5
48DE
  8
0
 10
227.33005015971091
 20
64.594708786308445
 30
0.0
  0
VERTEX
  5
48DF
  8
0
 10
227.39539419530641
 20
64.536570992477834
 30
0.0
  0
VERTEX
  5
48E0
  8
0
 10
227.46170334820431
 20
64.480469511024864
 30
0.0
  0
VERTEX
  5
48E1
  8
0
 10
227.52885172688141
 20
64.426448355569448
 30
0.0
  0
VERTEX
  5
48E2
  8
0
 10
227.5967078494609
 20
64.37454566413777
 30
0.0
  0
VERTEX
  5
48E3
  8
0
 10
227.63085892116081
 20
64.349398848350972
 30
0.0
  0
VERTEX
  5
48E4
  8
0
 10
227.6651355443191
 20
64.324792884459555
 30
0.0
  0
VERTEX
  5
48E5
  8
0
 10
227.733994777996
 20
64.277214198286103
 30
0.0
  0
VERTEX
  5
48E6
  8
0
 10
227.80314241492721
 20
64.231826140092551
 30
0.0
  0
VERTEX
  5
48E7
  8
0
 10
227.8724329141474
 20
64.188637374040297
 30
0.0
  0
VERTEX
  5
48E8
  8
0
 10
227.9417189702647
 20
64.147648599083539
 30
0.0
  0
VERTEX
  5
48E9
  8
0
 10
228.01085210755971
 20
64.108852557579951
 30
0.0
  0
VERTEX
  5
48EA
  8
0
 10
228.04531475071781
 20
64.090272389482436
 30
0.0
  0
VERTEX
  5
48EB
  8
0
 10
228.07968323738689
 20
64.072234127548143
 30
0.0
  0
VERTEX
  5
48EC
  8
0
 10
228.14848843993829
 20
64.037561993683482
 30
0.0
  0
VERTEX
  5
48ED
  8
0
 10
228.21872746623791
 20
64.004094574650992
 30
0.0
  0
VERTEX
  5
48EE
  8
0
 10
228.2904084841343
 20
63.97188477832043
 30
0.0
  0
VERTEX
  5
48EF
  8
0
 10
228.3633859408485
 20
63.94105037919558
 30
0.0
  0
VERTEX
  5
48F0
  8
0
 10
228.4375178915802
 20
63.911693633211307
 30
0.0
  0
VERTEX
  5
48F1
  8
0
 10
228.47497402195
 20
63.897597129308849
 30
0.0
  0
VERTEX
  5
48F2
  8
0
 10
228.5126683847439
 20
63.883901463351037
 30
0.0
  0
VERTEX
  5
48F3
  8
0
 10
228.58870916372851
 20
63.857746192192792
 30
0.0
  0
VERTEX
  5
48F4
  8
0
 10
228.6655214252653
 20
63.833286451370952
 30
0.0
  0
VERTEX
  5
48F5
  8
0
 10
228.74299969046999
 20
63.810567686875913
 30
0.0
  0
VERTEX
  5
48F6
  8
0
 10
228.82105592932481
 20
63.78962309183833
 30
0.0
  0
VERTEX
  5
48F7
  8
0
 10
228.8996043078109
 20
63.7704795359885
 30
0.0
  0
VERTEX
  5
48F8
  8
0
 10
228.93902197230361
 20
63.761593185468939
 30
0.0
  0
VERTEX
  5
48F9
  8
0
 10
228.97853739967329
 20
63.753162946107011
 30
0.0
  0
VERTEX
  5
48FA
  8
0
 10
229.0579007925312
 20
63.737663857570453
 30
0.0
  0
VERTEX
  5
48FB
  8
0
 10
229.13781074284179
 20
63.723968918751723
 30
0.0
  0
VERTEX
  5
48FC
  8
0
 10
229.21844600956121
 20
63.712070277402908
 30
0.0
  0
VERTEX
  5
48FD
  8
0
 10
229.30003941777341
 20
63.701973897588971
 30
0.0
  0
VERTEX
  5
48FE
  8
0
 10
229.34818716853559
 20
63.69692635232667
 30
0.0
  0
VERTEX
  5
48FF
  8
0
 10
229.36203067829871
 20
63.695599561240037
 30
0.0
  0
VERTEX
  5
4900
  8
0
 10
229.3759162838362
 20
63.694324468968652
 30
0.0
  0
VERTEX
  5
4901
  8
0
 10
229.3828755039074
 20
63.693706393745003
 30
0.0
  0
VERTEX
  5
4902
  8
0
 10
229.38984601757531
 20
63.693101347293641
 30
0.0
  0
VERTEX
  5
4903
  8
0
 10
229.4038220060024
 20
63.69193049632684
 30
0.0
  0
VERTEX
  5
4904
  8
0
 10
229.41784646288559
 20
63.690812247187012
 30
0.0
  0
VERTEX
  5
4905
  8
0
 10
229.42487758067
 20
63.690272960908999
 30
0.0
  0
VERTEX
  5
4906
  8
0
 10
229.43192168104321
 20
63.689746964651299
 30
0.0
  0
VERTEX
  5
4907
  8
0
 10
229.44605002272311
 20
63.688735049739591
 30
0.0
  0
VERTEX
  5
4908
  8
0
 10
229.46023390869391
 20
63.687776942185728
 30
0.0
  0
VERTEX
  5
4909
  8
0
 10
229.4673474503368
 20
63.687318214743591
 30
0.0
  0
VERTEX
  5
490A
  8
0
 10
229.4744758062034
 20
63.68687312274875
 30
0.0
  0
VERTEX
  5
490B
  8
0
 10
229.48877821602059
 20
63.686024115317359
 30
0.0
  0
VERTEX
  5
490C
  8
0
 10
229.5031436588354
 20
63.68523048876721
 30
0.0
  0
VERTEX
  5
490D
  8
0
 10
229.517574661357
 20
63.68449285853017
 30
0.0
  0
VERTEX
  5
490E
  8
0
 10
229.53207374251269
 20
63.683811887847639
 30
0.0
  0
VERTEX
  5
490F
  8
0
 10
229.5466434002044
 20
63.683188288686942
 30
0.0
  0
VERTEX
  5
4910
  8
0
 10
229.55395546707001
 20
63.682898239388287
 30
0.0
  0
VERTEX
  5
4911
  8
0
 10
229.56128609913409
 20
63.682622822313483
 30
0.0
  0
VERTEX
  5
4912
  8
0
 10
229.57600426023529
 20
63.682116299529127
 30
0.0
  0
VERTEX
  5
4913
  8
0
 10
229.59080025226669
 20
63.681669580601067
 30
0.0
  0
VERTEX
  5
4914
  8
0
 10
229.60567638611491
 20
63.681283574929409
 30
0.0
  0
VERTEX
  5
4915
  8
0
 10
229.62063491231331
 20
63.680959240518689
 30
0.0
  0
VERTEX
  5
4916
  8
0
 10
229.63567802221769
 20
63.680697583340532
 30
0.0
  0
VERTEX
  5
4917
  8
0
 10
229.643231965865
 20
63.680590586035983
 30
0.0
  0
VERTEX
  5
4918
  8
0
 10
229.6508078531831
 20
63.680499656691659
 30
0.0
  0
VERTEX
  5
4919
  8
0
 10
229.66602649795439
 20
63.680366560666982
 30
0.0
  0
VERTEX
  5
491A
  8
0
 10
229.68133601833259
 20
63.680299441879178
 30
0.0
  0
VERTEX
  5
491B
  8
0
 10
229.68902549703381
 20
63.680290995000007
 30
0.0
  0
VERTEX
  5
491C
  8
0
 10
229.6967149757352
 20
63.680299441879178
 30
0.0
  0
VERTEX
  5
491D
  8
0
 10
229.7120244961134
 20
63.680366560666982
 30
0.0
  0
VERTEX
  5
491E
  8
0
 10
229.72724314088441
 20
63.680499656691659
 30
0.0
  0
VERTEX
  5
491F
  8
0
 10
229.73481902820259
 20
63.680590586035983
 30
0.0
  0
VERTEX
  5
4920
  8
0
 10
229.74237297184979
 20
63.680697583340532
 30
0.0
  0
VERTEX
  5
4921
  8
0
 10
229.7574160817544
 20
63.680959240518689
 30
0.0
  0
VERTEX
  5
4922
  8
0
 10
229.7723746079526
 20
63.681283574929409
 30
0.0
  0
VERTEX
  5
4923
  8
0
 10
229.78725074180079
 20
63.681669580601067
 30
0.0
  0
VERTEX
  5
4924
  8
0
 10
229.80204673383221
 20
63.682116299529127
 30
0.0
  0
VERTEX
  5
4925
  8
0
 10
229.81676489493341
 20
63.682622822313483
 30
0.0
  0
VERTEX
  5
4926
  8
0
 10
229.8240955269975
 20
63.682898239388287
 30
0.0
  0
VERTEX
  5
4927
  8
0
 10
229.8314075938631
 20
63.683188288686942
 30
0.0
  0
VERTEX
  5
4928
  8
0
 10
229.84597725155501
 20
63.683811887847639
 30
0.0
  0
VERTEX
  5
4929
  8
0
 10
229.8604763327105
 20
63.68449285853017
 30
0.0
  0
VERTEX
  5
492A
  8
0
 10
229.87490733523239
 20
63.68523048876721
 30
0.0
  0
VERTEX
  5
492B
  8
0
 10
229.88927277804709
 20
63.686024115317359
 30
0.0
  0
VERTEX
  5
492C
  8
0
 10
229.90357518786411
 20
63.68687312274875
 30
0.0
  0
VERTEX
  5
492D
  8
0
 10
229.9107035437307
 20
63.687318214743591
 30
0.0
  0
VERTEX
  5
492E
  8
0
 10
229.9178170853738
 20
63.687776942185728
 30
0.0
  0
VERTEX
  5
492F
  8
0
 10
229.93200097134471
 20
63.688735049739591
 30
0.0
  0
VERTEX
  5
4930
  8
0
 10
229.94612931302461
 20
63.689746964651299
 30
0.0
  0
VERTEX
  5
4931
  8
0
 10
229.95317341339779
 20
63.690272960908999
 30
0.0
  0
VERTEX
  5
4932
  8
0
 10
229.96020453118189
 20
63.690812247187012
 30
0.0
  0
VERTEX
  5
4933
  8
0
 10
229.97422898806511
 20
63.69193049632684
 30
0.0
  0
VERTEX
  5
4934
  8
0
 10
229.9882049764924
 20
63.693101347293641
 30
0.0
  0
VERTEX
  5
4935
  8
0
 10
229.99517549016011
 20
63.693706393745003
 30
0.0
  0
VERTEX
  5
4936
  8
0
 10
230.0021347102313
 20
63.694324468968652
 30
0.0
  0
VERTEX
  5
4937
  8
0
 10
230.0160203157688
 20
63.695599561240037
 30
0.0
  0
VERTEX
  5
4938
  8
0
 10
230.02986382553189
 20
63.69692635232667
 30
0.0
  0
VERTEX
  5
4939
  8
0
 10
230.0780115762941
 20
63.701973897588971
 30
0.0
  0
VERTEX
  5
493A
  8
0
 10
230.15960498450639
 20
63.712070277402908
 30
0.0
  0
VERTEX
  5
493B
  8
0
 10
230.24024025122591
 20
63.723968918751723
 30
0.0
  0
VERTEX
  5
493C
  8
0
 10
230.32015020153631
 20
63.737663857570453
 30
0.0
  0
VERTEX
  5
493D
  8
0
 10
230.39951359439439
 20
63.753162946107011
 30
0.0
  0
VERTEX
  5
493E
  8
0
 10
230.4390290217639
 20
63.761593185468939
 30
0.0
  0
VERTEX
  5
493F
  8
0
 10
230.4784466862566
 20
63.7704795359885
 30
0.0
  0
VERTEX
  5
4940
  8
0
 10
230.55699506474281
 20
63.78962309183833
 30
0.0
  0
VERTEX
  5
4941
  8
0
 10
230.63505130359769
 20
63.810567686875913
 30
0.0
  0
VERTEX
  5
4942
  8
0
 10
230.71252956880221
 20
63.833286451370952
 30
0.0
  0
VERTEX
  5
4943
  8
0
 10
230.78934183033931
 20
63.857746192192792
 30
0.0
  0
VERTEX
  5
4944
  8
0
 10
230.8653826093236
 20
63.883901463351037
 30
0.0
  0
VERTEX
  5
4945
  8
0
 10
230.90307697211779
 20
63.897597129308849
 30
0.0
  0
VERTEX
  5
4946
  8
0
 10
230.94053310248731
 20
63.911693633211307
 30
0.0
  0
VERTEX
  5
4947
  8
0
 10
231.01466505321929
 20
63.94105037919558
 30
0.0
  0
VERTEX
  5
4948
  8
0
 10
231.0876425099332
 20
63.97188477832043
 30
0.0
  0
VERTEX
  5
4949
  8
0
 10
231.15932352782971
 20
64.004094574650992
 30
0.0
  0
VERTEX
  5
494A
  8
0
 10
231.22956255412919
 20
64.037561993683482
 30
0.0
  0
VERTEX
  5
494B
  8
0
 10
231.29836775668059
 20
64.072234127548143
 30
0.0
  0
VERTEX
  5
494C
  8
0
 10
231.3327362433499
 20
64.090272389482436
 30
0.0
  0
VERTEX
  5
494D
  8
0
 10
231.36719888650779
 20
64.108852557579951
 30
0.0
  0
VERTEX
  5
494E
  8
0
 10
231.436332023803
 20
64.147648599083539
 30
0.0
  0
VERTEX
  5
494F
  8
0
 10
231.5056180799204
 20
64.188637374040184
 30
0.0
  0
VERTEX
  5
4950
  8
0
 10
231.57490857914041
 20
64.231826140092551
 30
0.0
  0
VERTEX
  5
4951
  8
0
 10
231.6440562160717
 20
64.277214198286103
 30
0.0
  0
VERTEX
  5
4952
  8
0
 10
231.71291544974861
 20
64.324792884459555
 30
0.0
  0
VERTEX
  5
4953
  8
0
 10
231.7471920729067
 20
64.349398848350972
 30
0.0
  0
VERTEX
  5
4954
  8
0
 10
231.78134314460661
 20
64.37454566413777
 30
0.0
  0
VERTEX
  5
4955
  8
0
 10
231.84919926718609
 20
64.426448355569448
 30
0.0
  0
VERTEX
  5
4956
  8
0
 10
231.9163476458632
 20
64.480469511024864
 30
0.0
  0
VERTEX
  5
4957
  8
0
 10
231.98265679876141
 20
64.536570992477834
 30
0.0
  0
VERTEX
  5
4958
  8
0
 10
232.0480008343568
 20
64.594708786308445
 30
0.0
  0
VERTEX
  5
4959
  8
0
 10
232.11226429497759
 20
64.65483782217342
 30
0.0
  0
VERTEX
  5
495A
  8
0
 10
232.14395473739589
 20
64.685632215764997
 30
0.0
  0
VERTEX
  5
495B
  8
0
 10
232.175330879021
 20
64.716901958022333
 30
0.0
  0
VERTEX
  5
495C
  8
0
 10
232.237081243863
 20
64.780830240778243
 30
0.0
  0
VERTEX
  5
495D
  8
0
 10
232.2974000910522
 20
64.846542512990993
 30
0.0
  0
VERTEX
  5
495E
  8
0
 10
232.326988045061
 20
64.880040227103962
 30
0.0
  0
VERTEX
  5
495F
  8
0
 10
232.3561772846144
 20
64.913950036096082
 30
0.0
  0
VERTEX
  5
4960
  8
0
 10
232.41330900502879
 20
64.982956389605135
 30
0.0
  0
VERTEX
  5
4961
  8
0
 10
232.46869838523051
 20
65.053457989185006
 30
0.0
  0
VERTEX
  5
4962
  8
0
 10
232.4957108911035
 20
65.089234539828283
 30
0.0
  0
VERTEX
  5
4963
  8
0
 10
232.522253831889
 20
65.125341554606337
 30
0.0
  0
VERTEX
  5
4964
  8
0
 10
232.57388888072089
 20
65.198482917142371
 30
0.0
  0
VERTEX
  5
4965
  8
0
 10
232.62352366658251
 20
65.272747943607484
 30
0.0
  0
VERTEX
  5
4966
  8
0
 10
232.67108642978451
 20
65.347993913912489
 30
0.0
  0
VERTEX
  5
4967
  8
0
 10
232.71679698022101
 20
65.424557574005163
 30
0.0
  0
VERTEX
  5
4968
  8
0
 10
232.7614096080101
 20
65.503849563091251
 30
0.0
  0
VERTEX
  5
4969
  8
0
 10
232.78324626354271
 20
65.544504380522028
 30
0.0
  0
VERTEX
  5
496A
  8
0
 10
232.8047261293828
 20
65.585797479936389
 30
0.0
  0
VERTEX
  5
496B
  8
0
 10
232.8464918164311
 20
65.670189527590821
 30
0.0
  0
VERTEX
  5
496C
  8
0
 10
232.88647327842091
 20
65.756799623300651
 30
0.0
  0
VERTEX
  5
496D
  8
0
 10
232.92446128163121
 20
65.845392016145922
 30
0.0
  0
VERTEX
  5
496E
  8
0
 10
232.96026929341471
 20
65.935717162461572
 30
0.0
  0
VERTEX
  5
496F
  8
0
 10
232.99373216511569
 20
66.027505742693563
 30
0.0
  0
VERTEX
  5
4970
  8
0
 10
233.00953922367199
 20
66.073860431789001
 30
0.0
  0
VERTEX
  5
4971
  8
0
 10
233.0247094313336
 20
66.120473703928425
 30
0.0
  0
VERTEX
  5
4972
  8
0
 10
233.05308970728311
 20
66.214334479767956
 30
0.0
  0
VERTEX
  5
4973
  8
0
 10
233.07880408980921
 20
66.308854771308063
 30
0.0
  0
VERTEX
  5
4974
  8
0
 10
233.09064184300649
 20
66.356272648838456
 30
0.0
  0
SEQEND
  5
4975
  8
0
  0
POLYLINE
  5
43A4
  8
0
 66
     1
 10
0.0
 20
0.0
 30
0.0
  0
VERTEX
  5
4976
  8
0
 10
233.09064184300649
 20
66.356272648838456
 30
0.0
  0
VERTEX
  5
4977
  8
0
 10
233.096121372726
 20
66.379230639070613
 30
0.0
  0
VERTEX
  5
4978
  8
0
 10
233.10660334568641
 20
66.425200504794077
 30
0.0
  0
VERTEX
  5
4979
  8
0
 10
233.11644891830861
 20
66.471229156161655
 30
0.0
  0
VERTEX
  5
497A
  8
0
 10
233.12113305687259
 20
66.494260603765653
 30
0.0
  0
VERTEX
  5
497B
  8
0
 10
233.1256581589453
 20
66.517300838901917
 30
0.0
  0
VERTEX
  5
497C
  8
0
 10
233.1342316714408
 20
66.563400067989221
 30
0.0
  0
VERTEX
  5
497D
  8
0
 10
233.14217052353641
 20
66.609511330033044
 30
0.0
  0
VERTEX
  5
497E
  8
0
 10
233.1494762024474
 20
66.655618796953547
 30
0.0
  0
VERTEX
  5
497F
  8
0
 10
233.1561506477301
 20
66.701706426288126
 30
0.0
  0
VERTEX
  5
4980
  8
0
 10
233.16219626776251
 20
66.747757993536482
 30
0.0
  0
VERTEX
  5
4981
  8
0
 10
233.1649841526648
 20
66.770765141916684
 30
0.0
  0
VERTEX
  5
4982
  8
0
 10
233.16761595395701
 20
66.793757124553224
 30
0.0
  0
VERTEX
  5
4983
  8
0
 10
233.17241309275369
 20
66.839687327985018
 30
0.0
  0
VERTEX
  5
4984
  8
0
 10
233.17659157543719
 20
66.885532027756355
 30
0.0
  0
VERTEX
  5
4985
  8
0
 10
233.1801558058078
 20
66.931274595622483
 30
0.0
  0
VERTEX
  5
4986
  8
0
 10
233.18311070574259
 20
66.976898383819673
 30
0.0
  0
VERTEX
  5
4987
  8
0
 10
233.1854617186587
 20
67.022386757848892
 30
0.0
  0
VERTEX
  5
4988
  8
0
 10
233.18641261154499
 20
67.045074978005402
 30
0.0
  0
VERTEX
  5
4989
  8
0
 10
233.1872148108996
 20
67.067723129444687
 30
0.0
  0
VERTEX
  5
498A
  8
0
 10
233.1883764710428
 20
67.112890989786763
 30
0.0
  0
VERTEX
  5
498B
  8
0
 10
233.1889537071234
 20
67.157873943023276
 30
0.0
  0
VERTEX
  5
498C
  8
0
 10
233.18902549703381
 20
67.180290994999993
 30
0.0
  0
SEQEND
  5
498D
  8
0
  0
POLYLINE
  5
43A5
  8
0
 66
     1
 10
0.0
 20
0.0
 30
0.0
  0
VERTEX
  5
498E
  8
0
 10
233.18902549703381
 20
67.180290994999993
 30
0.0
  0
VERTEX
  5
498F
  8
0
 10
233.28643163335511
 20
69.811618053563109
 30
0.0
  0
VERTEX
  5
4990
  8
0
 10
233.48076477017941
 20
75.061328807040283
 30
0.0
  0
VERTEX
  5
4991
  8
0
 10
233.67422421266019
 20
80.287437602233766
 30
0.0
  0
VERTEX
  5
4992
  8
0
 10
233.7705385281613
 20
82.889270239026871
 30
0.0
  0
SEQEND
  5
4993
  8
0
  0
POLYLINE
  5
43A6
  8
0
 66
     1
 10
0.0
 20
0.0
 30
0.0
  0
VERTEX
  5
4994
  8
0
 10
233.7705385281613
 20
82.889270239026871
 30
0.0
  0
VERTEX
  5
4995
  8
0
 10
233.7739299736532
 20
83.05667010747328
 30
0.0
  0
VERTEX
  5
4996
  8
0
 10
233.76383681201949
 20
83.392254271199747
 30
0.0
  0
VERTEX
  5
4997
  8
0
 10
233.73041771856759
 20
83.732666678251064
 30
0.0
  0
VERTEX
  5
4998
  8
0
 10
233.70468434444729
 20
83.903669795091375
 30
0.0
  0
SEQEND
  5
4999
  8
0
  0
POLYLINE
  5
43A7
  8
0
 66
     1
 10
0.0
 20
0.0
 30
0.0
  0
VERTEX
  5
499A
  8
0
 10
224.12823650351561
 20
107.93207012491339
 30
0.0
  0
VERTEX
  5
499B
  8
0
 10
223.98082701345541
 20
107.7320153281787
 30
0.0
  0
VERTEX
  5
499C
  8
0
 10
223.70637984215821
 20
107.3145654711777
 30
0.0
  0
VERTEX
  5
499D
  8
0
 10
223.5580733810252
 20
107.05837124141379
 30
0.0
  0
VERTEX
  5
499E
  8
0
 10
223.51746271067691
 20
106.9835943074519
 30
0.0
  0
VERTEX
  5
499F
  8
0
 10
223.4776707317906
 20
106.9081497249154
 30
0.0
  0
VERTEX
  5
49A0
  8
0
 10
223.4580874322744
 20
106.87018297328591
 30
0.0
  0
VERTEX
  5
49A1
  8
0
 10
223.43871553060191
 20
106.8320564246479
 30
0.0
  0
VERTEX
  5
49A2
  8
0
 10
223.40061445709901
 20
106.7553335301246
 30
0.0
  0
VERTEX
  5
49A3
  8
0
 10
223.3633841191045
 20
106.6780003134342
 30
0.0
  0
VERTEX
  5
49A4
  8
0
 10
223.345100461963
 20
106.6391108863421
 30
0.0
  0
VERTEX
  5
49A5
  8
0
 10
223.32704038064909
 20
106.60007615471621
 30
0.0
  0
VERTEX
  5
49A6
  8
0
 10
223.2915984228832
 20
106.521580637209
 30
0.0
  0
VERTEX
  5
49A7
  8
0
 10
223.2570728510363
 20
106.4425337721011
 30
0.0
  0
VERTEX
  5
49A8
  8
0
 10
223.24015811705789
 20
106.40280996012849
 30
0.0
  0
VERTEX
  5
49A9
  8
0
 10
223.22347769417431
 20
106.36295601488951
 30
0.0
  0
VERTEX
  5
49AA
  8
0
 10
223.19082638250981
 20
106.2828682307416
 30
0.0
  0
VERTEX
  5
49AB
  8
0
 10
223.15913172697611
 20
106.2022916595046
 30
0.0
  0
VERTEX
  5
49AC
  8
0
 10
223.1284059010099
 20
106.1212478803767
 30
0.0
  0
VERTEX
  5
49AD
  8
0
 10
223.09866042447649
 20
106.03975877617781
 30
0.0
  0
VERTEX
  5
49AE
  8
0
 10
223.06990614967501
 20
105.9578464971603
 30
0.0
  0
VERTEX
  5
49AF
  8
0
 10
223.055903918746
 20
105.9167386531516
 30
0.0
  0
VERTEX
  5
49B0
  8
0
 10
223.0421532493811
 20
105.87553342429641
 30
0.0
  0
VERTEX
  5
49B1
  8
0
 10
223.0154112068856
 20
105.7928421319738
 30
0.0
  0
VERTEX
  5
49B2
  8
0
 10
222.9896888080109
 20
105.7097953500363
 30
0.0
  0
VERTEX
  5
49B3
  8
0
 10
222.9649941350867
 20
105.6264159250989
 30
0.0
  0
VERTEX
  5
49B4
  8
0
 10
222.9413345628875
 20
105.54272678107159
 30
0.0
  0
VERTEX
  5
49B5
  8
0
 10
222.9187167565378
 20
105.4587508788224
 30
0.0
  0
VERTEX
  5
49B6
  8
0
 10
222.90780040183091
 20
105.41666255897739
 30
0.0
  0
VERTEX
  5
49B7
  8
0
 10
222.8971461861708
 20
105.37450922966519
 30
0.0
  0
VERTEX
  5
49B8
  8
0
 10
222.87662580845929
 20
105.2900147238151
 30
0.0
  0
VERTEX
  5
49B9
  8
0
 10
222.85716039820551
 20
105.2052891167732
 30
0.0
  0
VERTEX
  5
49BA
  8
0
 10
222.83875448453449
 20
105.1203559432967
 30
0.0
  0
VERTEX
  5
49BB
  8
0
 10
222.82141195433479
 20
105.0352390486668
 30
0.0
  0
VERTEX
  5
49BC
  8
0
 10
222.80513603411219
 20
104.9499625518514
 30
0.0
  0
VERTEX
  5
49BD
  8
0
 10
222.7973988764827
 20
104.9072720555348
 30
0.0
  0
VERTEX
  5
49BE
  8
0
 10
222.78992927403939
 20
104.8645508084976
 30
0.0
  0
VERTEX
  5
49BF
  8
0
 10
222.7757935341499
 20
104.7790283737032
 30
0.0
  0
VERTEX
  5
49C0
  8
0
 10
222.76272997264709
 20
104.6934199645106
 30
0.0
  0
VERTEX
  5
49C1
  8
0
 10
222.72545086065
 20
104.39347279756539
 30
0.0
  0
VERTEX
  5
49C2
  8
0
 10
222.69189245456349
 20
103.8806136995826
 30
0.0
  0
VERTEX
  5
49C3
  8
0
 10
222.68923434219619
 20
103.6262189258845
 30
0.0
  0
VERTEX
  5
49C4
  8
0
 10
222.69572556057659
 20
103.3740949813952
 30
0.0
  0
VERTEX
  5
49C5
  8
0
 10
222.73498858883141
 20
102.8794347785925
 30
0.0
  0
VERTEX
  5
49C6
  8
0
 10
222.80928077627871
 20
102.38834959646741
 30
0.0
  0
VERTEX
  5
49C7
  8
0
 10
222.87001988303271
 20
102.09878461302689
 30
0.0
  0
VERTEX
  5
49C8
  8
0
 10
222.88978442043211
 20
102.0158629303925
 30
0.0
  0
VERTEX
  5
49C9
  8
0
 10
222.91062881039579
 20
101.93291056745321
 30
0.0
  0
VERTEX
  5
49CA
  8
0
 10
222.9214570302052
 20
101.8914318482845
 30
0.0
  0
VERTEX
  5
49CB
  8
0
 10
222.9325564133419
 20
101.84995618379359
 30
0.0
  0
VERTEX
  5
49CC
  8
0
 10
222.95556982897691
 20
101.76702813634429
 30
0.0
  0
VERTEX
  5
49CD
  8
0
 10
222.97967092070101
 20
101.6841544342803
 30
0.0
  0
VERTEX
  5
49CE
  8
0
 10
223.00486084282261
 20
101.60136269527599
 30
0.0
  0
VERTEX
  5
49CF
  8
0
 10
223.0311400352532
 20
101.5186802118545
 30
0.0
  0
VERTEX
  5
49D0
  8
0
 10
223.0585081404484
 20
101.43613423041781
 30
0.0
  0
VERTEX
  5
49D1
  8
0
 10
223.07260019784709
 20
101.3949209461276
 30
0.0
  0
VERTEX
  5
49D2
  8
0
 10
223.08696397554189
 20
101.3537520061933
 30
0.0
  0
VERTEX
  5
49D3
  8
0
 10
223.11650553600629
 20
101.2715607564933
 30
0.0
  0
VERTEX
  5
49D4
  8
0
 10
223.14713000213939
 20
101.1895876136478
 30
0.0
  0
VERTEX
  5
49D5
  8
0
 10
223.17883374804049
 20
101.1078595787443
 30
0.0
  0
VERTEX
  5
49D6
  8
0
 10
223.21161235311411
 20
101.0264034760993
 30
0.0
  0
VERTEX
  5
49D7
  8
0
 10
223.2454606161462
 20
100.94524590838959
 30
0.0
  0
VERTEX
  5
49D8
  8
0
 10
223.26278403462359
 20
100.9047873169624
 30
0.0
  0
VERTEX
  5
49D9
  8
0
 10
223.28037257201231
 20
100.86441321238691
 30
0.0
  0
VERTEX
  5
49DA
  8
0
 10
223.31634151108639
 20
100.7839314152432
 30
0.0
  0
VERTEX
  5
49DB
  8
0
 10
223.35336000142479
 20
100.7038261912859
 30
0.0
  0
VERTEX
  5
49DC
  8
0
 10
223.3722603144308
 20
100.6639227104807
 30
0.0
  0
VERTEX
  5
49DD
  8
0
 10
223.39141991381371
 20
100.6241228192946
 30
0.0
  0
VERTEX
  5
49DE
  8
0
 10
223.4305124497721
 20
100.5448461402376
 30
0.0
  0
VERTEX
  5
49DF
  8
0
 10
223.470628172613
 20
100.4660205154607
 30
0.0
  0
VERTEX
  5
49E0
  8
0
 10
223.4910667215359
 20
100.4267841151507
 30
0.0
  0
VERTEX
  5
49E1
  8
0
 10
223.51175873452959
 20
100.3876666093675
 30
0.0
  0
VERTEX
  5
49E2
  8
0
 10
223.55389913923699
 20
100.3097977708759
 30
0.0
  0
VERTEX
  5
49E3
  8
0
 10
223.59703883103271
 20
100.2324368128649
 30
0.0
  0
VERTEX
  5
49E4
  8
0
 10
223.6411660343249
 20
100.1556071908378
 30
0.0
  0
VERTEX
  5
49E5
  8
0
 10
223.686268167354
 20
100.07933217255091
 30
0.0
  0
VERTEX
  5
49E6
  8
0
 10
223.73233185560321
 20
100.0036347883171
 30
0.0
  0
VERTEX
  5
49E7
  8
0
 10
223.75571989049899
 20
99.966009829086204
 30
0.0
  0
VERTEX
  5
49E8
  8
0
 10
223.7793429477347
 20
99.928537782632645
 30
0.0
  0
VERTEX
  5
49E9
  8
0
 10
223.8272865340773
 20
99.854063567081141
 30
0.0
  0
VERTEX
  5
49EA
  8
0
 10
223.8761469677124
 20
99.780234174470877
 30
0.0
  0
VERTEX
  5
49EB
  8
0
 10
223.9259078882053
 20
99.707071214165865
 30
0.0
  0
VERTEX
  5
49EC
  8
0
 10
223.97655224804839
 20
99.634595828575982
 30
0.0
  0
VERTEX
  5
49ED
  8
0
 10
224.02806234189029
 20
99.562828650775202
 30
0.0
  0
VERTEX
  5
49EE
  8
0
 10
224.0541363340985
 20
99.527216938179606
 30
0.0
  0
VERTEX
  5
49EF
  8
0
 10
224.08041983863541
 20
99.491789763224986
 30
0.0
  0
VERTEX
  5
49F0
  8
0
 10
224.13360581650889
 20
99.421498657583655
 30
0.0
  0
VERTEX
  5
49F1
  8
0
 10
224.18760080119731
 20
99.351974195591822
 30
0.0
  0
VERTEX
  5
49F2
  8
0
 10
224.21489544432691
 20
99.317505168712884
 30
0.0
  0
SEQEND
  5
49F3
  8
0
  0
POLYLINE
  5
43A8
  8
0
 66
     1
 10
0.0
 20
0.0
 30
0.0
  0
VERTEX
  5
49F4
  8
0
 10
235.16315554974059
 20
99.317505168712884
 30
0.0
  0
VERTEX
  5
49F5
  8
0
 10
235.1904501928725
 20
99.351974195594437
 30
0.0
  0
VERTEX
  5
49F6
  8
0
 10
235.24444517756069
 20
99.421498657586255
 30
0.0
  0
VERTEX
  5
49F7
  8
0
 10
235.29763115543409
 20
99.491789763227587
 30
0.0
  0
VERTEX
  5
49F8
  8
0
 10
235.323914659971
 20
99.527216938182221
 30
0.0
  0
VERTEX
  5
49F9
  8
0
 10
235.34998865217901
 20
99.562828650777817
 30
0.0
  0
VERTEX
  5
49FA
  8
0
 10
235.40149874602091
 20
99.634595828578597
 30
0.0
  0
VERTEX
  5
49FB
  8
0
 10
235.452143105864
 20
99.707071214168494
 30
0.0
  0
VERTEX
  5
49FC
  8
0
 10
235.5019040263569
 20
99.780234174473492
 30
0.0
  0
VERTEX
  5
49FD
  8
0
 10
235.550764459992
 20
99.854063567083756
 30
0.0
  0
VERTEX
  5
49FE
  8
0
 10
235.59870804633459
 20
99.92853778263526
 30
0.0
  0
VERTEX
  5
49FF
  8
0
 10
235.6223311035703
 20
99.966009829088819
 30
0.0
  0
VERTEX
  5
4A00
  8
0
 10
235.64571913846609
 20
100.0036347883196
 30
0.0
  0
VERTEX
  5
4A01
  8
0
 10
235.6917828267153
 20
100.07933217255351
 30
0.0
  0
VERTEX
  5
4A02
  8
0
 10
235.7368849597442
 20
100.1556071908404
 30
0.0
  0
VERTEX
  5
4A03
  8
0
 10
235.78101216303611
 20
100.2324368128675
 30
0.0
  0
VERTEX
  5
4A04
  8
0
 10
235.82415185483211
 20
100.3097977708785
 30
0.0
  0
VERTEX
  5
4A05
  8
0
 10
235.86629225953919
 20
100.3876666093701
 30
0.0
  0
VERTEX
  5
4A06
  8
0
 10
235.8869842725332
 20
100.4267841151533
 30
0.0
  0
VERTEX
  5
4A07
  8
0
 10
235.90742282145581
 20
100.4660205154633
 30
0.0
  0
VERTEX
  5
4A08
  8
0
 10
235.9475385442968
 20
100.5448461402401
 30
0.0
  0
VERTEX
  5
4A09
  8
0
 10
235.98663108025511
 20
100.6241228192971
 30
0.0
  0
VERTEX
  5
4A0A
  8
0
 10
236.00579067963801
 20
100.66392271048321
 30
0.0
  0
VERTEX
  5
4A0B
  8
0
 10
236.02469099264411
 20
100.7038261912884
 30
0.0
  0
VERTEX
  5
4A0C
  8
0
 10
236.06170948298239
 20
100.7839314152456
 30
0.0
  0
VERTEX
  5
4A0D
  8
0
 10
236.09767842205639
 20
100.86441321238929
 30
0.0
  0
VERTEX
  5
4A0E
  8
0
 10
236.11526695944511
 20
100.9047873169649
 30
0.0
  0
VERTEX
  5
4A0F
  8
0
 10
236.1325903779225
 20
100.945245908392
 30
0.0
  0
VERTEX
  5
4A10
  8
0
 10
236.16643864095451
 20
101.02640347610171
 30
0.0
  0
VERTEX
  5
4A11
  8
0
 10
236.19921724602821
 20
101.1078595787467
 30
0.0
  0
VERTEX
  5
4A12
  8
0
 10
236.2309209919292
 20
101.1895876136502
 30
0.0
  0
VERTEX
  5
4A13
  8
0
 10
236.2615454580621
 20
101.2715607564957
 30
0.0
  0
VERTEX
  5
4A14
  8
0
 10
236.2910870185265
 20
101.35375200619571
 30
0.0
  0
VERTEX
  5
4A15
  8
0
 10
236.30545079622129
 20
101.39492094613
 30
0.0
  0
VERTEX
  5
4A16
  8
0
 10
236.31954285362011
 20
101.43613423042019
 30
0.0
  0
VERTEX
  5
4A17
  8
0
 10
236.34691095881499
 20
101.5186802118567
 30
0.0
  0
VERTEX
  5
4A18
  8
0
 10
236.37319015124581
 20
101.6013626952783
 30
0.0
  0
VERTEX
  5
4A19
  8
0
 10
236.39838007336721
 20
101.68415443428241
 30
0.0
  0
VERTEX
  5
4A1A
  8
0
 10
236.42248116509131
 20
101.7670281363466
 30
0.0
  0
VERTEX
  5
4A1B
  8
0
 10
236.44549458072629
 20
101.8499561837957
 30
0.0
  0
VERTEX
  5
4A1C
  8
0
 10
236.45659396386301
 20
101.8914318482867
 30
0.0
  0
VERTEX
  5
4A1D
  8
0
 10
236.4674221836724
 20
101.93291056745539
 30
0.0
  0
VERTEX
  5
4A1E
  8
0
 10
236.48826657363591
 20
102.0158629303947
 30
0.0
  0
VERTEX
  5
4A1F
  8
0
 10
236.50803111103531
 20
102.0987846130289
 30
0.0
  0
VERTEX
  5
4A20
  8
0
 10
236.56877021778931
 20
102.3883495964693
 30
0.0
  0
VERTEX
  5
4A21
  8
0
 10
236.64306240523641
 20
102.8794347785942
 30
0.0
  0
VERTEX
  5
4A22
  8
0
 10
236.68232543349109
 20
103.37409498139689
 30
0.0
  0
VERTEX
  5
4A23
  8
0
 10
236.68881665187129
 20
103.62621892588611
 30
0.0
  0
VERTEX
  5
4A24
  8
0
 10
236.68615853950399
 20
103.8806136995842
 30
0.0
  0
VERTEX
  5
4A25
  8
0
 10
236.67121219972
 20
104.1793589751708
 30
0.0
  0
VERTEX
  5
4A26
  8
0
 10
236.6645657798108
 20
104.26495992983
 30
0.0
  0
VERTEX
  5
4A27
  8
0
 10
236.65685536320709
 20
104.3506244613158
 30
0.0
  0
VERTEX
  5
4A28
  8
0
 10
236.65260013341751
 20
104.3934727975667
 30
0.0
  0
VERTEX
  5
4A29
  8
0
 10
236.64807776814951
 20
104.43632769244169
 30
0.0
  0
VERTEX
  5
4A2A
  8
0
 10
236.6382305411382
 20
104.52204467333669
 30
0.0
  0
VERTEX
  5
4A2B
  8
0
 10
236.62731195776431
 20
104.6077504220608
 30
0.0
  0
VERTEX
  5
4A2C
  8
0
 10
236.61532102142019
 20
104.6934199645118
 30
0.0
  0
VERTEX
  5
4A2D
  8
0
 10
236.60225745991761
 20
104.77902837370451
 30
0.0
  0
VERTEX
  5
4A2E
  8
0
 10
236.5881217200278
 20
104.86455080849881
 30
0.0
  0
VERTEX
  5
4A2F
  8
0
 10
236.5806521175848
 20
104.907272055536
 30
0.0
  0
VERTEX
  5
4A30
  8
0
 10
236.57291495995511
 20
104.94996255185259
 30
0.0
  0
VERTEX
  5
4A31
  8
0
 10
236.5566390397328
 20
105.0352390486679
 30
0.0
  0
VERTEX
  5
4A32
  8
0
 10
236.53929650953279
 20
105.1203559432978
 30
0.0
  0
VERTEX
  5
4A33
  8
0
 10
236.5208905958618
 20
105.2052891167743
 30
0.0
  0
VERTEX
  5
4A34
  8
0
 10
236.50142518560801
 20
105.2900147238161
 30
0.0
  0
VERTEX
  5
4A35
  8
0
 10
236.48090480789639
 20
105.3745092296661
 30
0.0
  0
VERTEX
  5
4A36
  8
0
 10
236.4702505922364
 20
105.4166625589784
 30
0.0
  0
VERTEX
  5
4A37
  8
0
 10
236.45933423752939
 20
105.4587508788233
 30
0.0
  0
VERTEX
  5
4A38
  8
0
 10
236.4367164311798
 20
105.5427267810725
 30
0.0
  0
VERTEX
  5
4A39
  8
0
 10
236.41305685898061
 20
105.62641592509981
 30
0.0
  0
VERTEX
  5
4A3A
  8
0
 10
236.38836218605641
 20
105.7097953500371
 30
0.0
  0
VERTEX
  5
4A3B
  8
0
 10
236.36263978718171
 20
105.7928421319746
 30
0.0
  0
VERTEX
  5
4A3C
  8
0
 10
236.33589774468621
 20
105.8755334242972
 30
0.0
  0
VERTEX
  5
4A3D
  8
0
 10
236.32214707532151
 20
105.91673865315239
 30
0.0
  0
VERTEX
  5
4A3E
  8
0
 10
236.3081448443923
 20
105.9578464971611
 30
0.0
  0
VERTEX
  5
4A3F
  8
0
 10
236.27939056959099
 20
106.0397587761785
 30
0.0
  0
VERTEX
  5
4A40
  8
0
 10
236.2496450930573
 20
106.1212478803774
 30
0.0
  0
VERTEX
  5
4A41
  8
0
 10
236.2189192670912
 20
106.20229165950531
 30
0.0
  0
VERTEX
  5
4A42
  8
0
 10
236.1872246115575
 20
106.2828682307422
 30
0.0
  0
VERTEX
  5
4A43
  8
0
 10
236.154573299893
 20
106.3629560148901
 30
0.0
  0
VERTEX
  5
4A44
  8
0
 10
236.13789287700931
 20
106.4028099601291
 30
0.0
  0
VERTEX
  5
4A45
  8
0
 10
236.1209781430309
 20
106.4425337721017
 30
0.0
  0
VERTEX
  5
4A46
  8
0
 10
236.08645257118431
 20
106.5215806372096
 30
0.0
  0
VERTEX
  5
4A47
  8
0
 10
236.05101061341841
 20
106.6000761547167
 30
0.0
  0
VERTEX
  5
4A48
  8
0
 10
236.03295053210419
 20
106.63911088634271
 30
0.0
  0
VERTEX
  5
4A49
  8
0
 10
235.91996356179291
 20
106.8701829732864
 30
0.0
  0
VERTEX
  5
4A4A
  8
0
 10
235.67167115190929
 20
107.3145654711779
 30
0.0
  0
VERTEX
  5
4A4B
  8
0
 10
235.3972239806121
 20
107.7320153281789
 30
0.0
  0
VERTEX
  5
4A4C
  8
0
 10
235.2498144905519
 20
107.93207012491339
 30
0.0
  0
SEQEND
  5
4A4D
  8
0
  0
POLYLINE
  5
43A9
  8
0
 66
     1
 10
0.0
 20
0.0
 30
0.0
  0
VERTEX
  5
4A4E
  8
0
 10
225.67336664962019
 20
83.903669795091375
 30
0.0
  0
VERTEX
  5
4A4F
  8
0
 10
225.64763327550011
 20
83.732666678251064
 30
0.0
  0
VERTEX
  5
4A50
  8
0
 10
225.6142141820483
 20
83.392254271199747
 30
0.0
  0
VERTEX
  5
4A51
  8
0
 10
225.6041210204146
 20
83.05667010747328
 30
0.0
  0
VERTEX
  5
4A52
  8
0
 10
225.60751246590621
 20
82.889270239026871
 30
0.0
  0
SEQEND
  5
4A53
  8
0
  0
POLYLINE
  5
43AA
  8
0
 66
     1
 10
0.0
 20
0.0
 30
0.0
  0
VERTEX
  5
4A54
  8
0
 10
224.21489544432691
 20
99.317505168712884
 30
0.0
  0
VERTEX
  5
4A55
  8
0
 10
224.36279263928239
 20
98.909951586760087
 30
0.0
  0
VERTEX
  5
4A56
  8
0
 10
224.63945093234659
 20
98.092956595283155
 30
0.0
  0
VERTEX
  5
4A57
  8
0
 10
224.89053753745611
 20
97.275105119530224
 30
0.0
  0
VERTEX
  5
4A58
  8
0
 10
225.0065026017871
 20
96.866498974765648
 30
0.0
  0
VERTEX
  5
4A59
  8
0
 10
225.1161063252423
 20
96.458455587607261
 30
0.0
  0
VERTEX
  5
4A5A
  8
0
 10
225.3163591573969
 20
95.645124112365977
 30
0.0
  0
VERTEX
  5
4A5B
  8
0
 10
225.4917583019251
 20
94.836741582738512
 30
0.0
  0
VERTEX
  5
4A5C
  8
0
 10
225.6458069696908
 20
94.018059866563405
 30
0.0
  0
VERTEX
  5
4A5D
  8
0
 10
225.77892687176521
 20
93.18258763269597
 30
0.0
  0
VERTEX
  5
4A5E
  8
0
 10
225.88975898734341
 20
92.332288016948539
 30
0.0
  0
VERTEX
  5
4A5F
  8
0
 10
225.93643821663159
 20
91.902203294519893
 30
0.0
  0
VERTEX
  5
4A60
  8
0
 10
225.97711225026501
 20
91.469165312406105
 30
0.0
  0
VERTEX
  5
4A61
  8
0
 10
226.039967787618
 20
90.595241695776224
 30
0.0
  0
VERTEX
  5
4A62
  8
0
 10
226.07747931454011
 20
89.712539536775509
 30
0.0
  0
VERTEX
  5
4A63
  8
0
 10
226.0889710041015
 20
88.823110815191001
 30
0.0
  0
VERTEX
  5
4A64
  8
0
 10
226.0739407319854
 20
87.929050566522676
 30
0.0
  0
VERTEX
  5
4A65
  8
0
 10
226.0320642339266
 20
87.032473038344776
 30
0.0
  0
VERTEX
  5
4A66
  8
0
 10
226.00100615349791
 20
86.583899650451201
 30
0.0
  0
VERTEX
  5
4A67
  8
0
 10
225.96319519986989
 20
86.135480515905044
 30
0.0
  0
VERTEX
  5
4A68
  8
0
 10
225.86733588683211
 20
85.239929704025428
 30
0.0
  0
VERTEX
  5
4A69
  8
0
 10
225.74465719038679
 20
84.347796221898022
 30
0.0
  0
VERTEX
  5
4A6A
  8
0
 10
225.67336664962019
 20
83.903669795091375
 30
0.0
  0
SEQEND
  5
4A6B
  8
0
  0
POLYLINE
  5
43AB
  8
0
 66
     1
 10
0.0
 20
0.0
 30
0.0
  0
VERTEX
  5
4A6C
  8
0
 10
227.1161088641054
 20
110.190290995
 30
0.0
  0
VERTEX
  5
4A6D
  8
0
 10
227.1159044461526
 20
110.1902102001448
 30
0.0
  0
VERTEX
  5
4A6E
  8
0
 10
227.11429404123299
 20
110.1895734385962
 30
0.0
  0
VERTEX
  5
4A6F
  8
0
 10
227.11113610399769
 20
110.1883234378564
 30
0.0
  0
VERTEX
  5
4A70
  8
0
 10
227.10899683010391
 20
110.1874756456627
 30
0.0
  0
VERTEX
  5
4A71
  8
0
 10
227.10649443461739
 20
110.1864829159054
 30
0.0
  0
VERTEX
  5
4A72
  8
0
 10
227.1004306774378
 20
110.1840727302645
 30
0.0
  0
VERTEX
  5
4A73
  8
0
 10
227.0930041672525
 20
110.1811119627948
 30
0.0
  0
VERTEX
  5
4A74
  8
0
 10
227.08427189535411
 20
110.1776180357558
 30
0.0
  0
VERTEX
  5
4A75
  8
0
 10
227.07428857579251
 20
110.1736068530727
 30
0.0
  0
VERTEX
  5
4A76
  8
0
 10
227.06310678510519
 20
110.16909295825511
 30
0.0
  0
VERTEX
  5
4A77
  8
0
 10
227.05708233155019
 20
110.1666516983269
 30
0.0
  0
VERTEX
  5
4A78
  8
0
 10
227.0507770154093
 20
110.16408964619249
 30
0.0
  0
VERTEX
  5
4A79
  8
0
 10
227.03734739990139
 20
110.1586089301733
 30
0.0
  0
VERTEX
  5
4A7A
  8
0
 10
227.02286363882101
 20
110.15266157661939
 30
0.0
  0
VERTEX
  5
4A7B
  8
0
 10
227.00736910489761
 20
110.1462572023441
 30
0.0
  0
VERTEX
  5
4A7C
  8
0
 10
226.99090500323311
 20
110.1394043862428
 30
0.0
  0
VERTEX
  5
4A7D
  8
0
 10
226.97351056353679
 20
110.1321107883571
 30
0.0
  0
VERTEX
  5
4A7E
  8
0
 10
226.96447623688729
 20
110.1283008685219
 30
0.0
  0
VERTEX
  5
4A7F
  8
0
 10
226.955223246857
 20
110.1243832706373
 30
0.0
  0
VERTEX
  5
4A80
  8
0
 10
226.93607924644951
 20
110.116228140544
 30
0.0
  0
VERTEX
  5
4A81
  8
0
 10
226.9161165128435
 20
110.1076524882875
 30
0.0
  0
VERTEX
  5
4A82
  8
0
 10
226.9058392390543
 20
110.1032088874687
 30
0.0
  0
VERTEX
  5
4A83
  8
0
 10
226.89537028002559
 20
110.0986623249001
 30
0.0
  0
VERTEX
  5
4A84
  8
0
 10
226.8738734465139
 20
110.0892627481327
 30
0.0
  0
VERTEX
  5
4A85
  8
0
 10
226.85165732156449
 20
110.0794582718286
 30
0.0
  0
VERTEX
  5
4A86
  8
0
 10
226.84028890439691
 20
110.0744054626781
 30
0.0
  0
VERTEX
  5
4A87
  8
0
 10
226.82875174764311
 20
110.0692528886527
 30
0.0
  0
VERTEX
  5
4A88
  8
0
 10
226.80518522765851
 20
110.05865013358169
 30
0.0
  0
VERTEX
  5
4A89
  8
0
 10
226.78098505182561
 20
110.0476531465532
 30
0.0
  0
VERTEX
  5
4A8A
  8
0
 10
226.75617742030269
 20
110.0362647330526
 30
0.0
  0
VERTEX
  5
4A8B
  8
0
 10
226.73078755884171
 20
110.0244874217384
 30
0.0
  0
VERTEX
  5
4A8C
  8
0
 10
226.7048398256
 20
110.01232351848
 30
0.0
  0
VERTEX
  5
4A8D
  8
0
 10
226.69166415580051
 20
110.0060972669371
 30
0.0
  0
VERTEX
  5
4A8E
  8
0
 10
226.67835780798561
 20
109.9997751563949
 30
0.0
  0
VERTEX
  5
4A8F
  8
0
 10
226.65136440897871
 20
109.9868443416479
 30
0.0
  0
VERTEX
  5
4A90
  8
0
 10
226.62388192279991
 20
109.9735329949022
 30
0.0
  0
VERTEX
  5
4A91
  8
0
 10
226.52415680487931
 20
109.92397629788159
 30
0.0
  0
VERTEX
  5
4A92
  8
0
 10
226.3429027662153
 20
109.8287430498101
 30
0.0
  0
VERTEX
  5
4A93
  8
0
 10
226.15260959972991
 20
109.7212977489521
 30
0.0
  0
VERTEX
  5
4A94
  8
0
 10
225.9573118206485
 20
109.6026480458269
 30
0.0
  0
VERTEX
  5
4A95
  8
0
 10
225.8589427917745
 20
109.53951163181461
 30
0.0
  0
VERTEX
  5
4A96
  8
0
 10
225.76067027504399
 20
109.4740829527653
 30
0.0
  0
VERTEX
  5
4A97
  8
0
 10
225.56604186023131
 20
109.3372341563425
 30
0.0
  0
VERTEX
  5
4A98
  8
0
 10
225.3733704102838
 20
109.1916539092171
 30
0.0
  0
VERTEX
  5
4A99
  8
0
 10
225.1776512190313
 20
109.03262713203191
 30
0.0
  0
VERTEX
  5
4A9A
  8
0
 10
224.98063659755579
 20
108.8601629983677
 30
0.0
  0
VERTEX
  5
4A9B
  8
0
 10
224.78430100846799
 20
108.6746555883455
 30
0.0
  0
VERTEX
  5
4A9C
  8
0
 10
224.686973480284
 20
108.5771752719387
 30
0.0
  0
VERTEX
  5
4A9D
  8
0
 10
224.5905058025069
 20
108.4766538799911
 30
0.0
  0
VERTEX
  5
4A9E
  8
0
 10
224.4010056167929
 20
108.26688512857839
 30
0.0
  0
VERTEX
  5
4A9F
  8
0
 10
224.21739606528101
 20
108.0462125886131
 30
0.0
  0
VERTEX
  5
4AA0
  8
0
 10
224.12823650351561
 20
107.93207012491339
 30
0.0
  0
SEQEND
  5
4AA1
  8
0
  0
LINE
  5
43AC
  8
0
 10
227.1161088641054
 20
110.190290995
 30
0.0
 11
232.26194212996239
 21
110.190290995
 31
0.0
  0
POLYLINE
  5
43AD
  8
0
 66
     1
 10
0.0
 20
0.0
 30
0.0
  0
VERTEX
  5
4AA2
  8
0
 10
235.2498144905519
 20
107.93207012491339
 30
0.0
  0
VERTEX
  5
4AA3
  8
0
 10
235.1606549287865
 20
108.0462125886131
 30
0.0
  0
VERTEX
  5
4AA4
  8
0
 10
234.97704537727489
 20
108.26688512857839
 30
0.0
  0
VERTEX
  5
4AA5
  8
0
 10
234.78754519156089
 20
108.4766538799911
 30
0.0
  0
VERTEX
  5
4AA6
  8
0
 10
234.69107751378351
 20
108.5771752719387
 30
0.0
  0
VERTEX
  5
4AA7
  8
0
 10
234.59374998559949
 20
108.6746555883455
 30
0.0
  0
VERTEX
  5
4AA8
  8
0
 10
234.39741439651169
 20
108.8601629983677
 30
0.0
  0
VERTEX
  5
4AA9
  8
0
 10
234.2003997750362
 20
109.03262713203191
 30
0.0
  0
VERTEX
  5
4AAA
  8
0
 10
234.00468058378399
 20
109.1916539092171
 30
0.0
  0
VERTEX
  5
4AAB
  8
0
 10
233.8120091338362
 20
109.3372341563425
 30
0.0
  0
VERTEX
  5
4AAC
  8
0
 10
233.61738071902349
 20
109.4740829527653
 30
0.0
  0
VERTEX
  5
4AAD
  8
0
 10
233.51910820229301
 20
109.53951163181461
 30
0.0
  0
VERTEX
  5
4AAE
  8
0
 10
233.42073917341921
 20
109.6026480458269
 30
0.0
  0
VERTEX
  5
4AAF
  8
0
 10
233.22544139433779
 20
109.7212977489521
 30
0.0
  0
VERTEX
  5
4AB0
  8
0
 10
233.0351482278524
 20
109.8287430498101
 30
0.0
  0
VERTEX
  5
4AB1
  8
0
 10
232.8538941891882
 20
109.92397629788159
 30
0.0
  0
VERTEX
  5
4AB2
  8
0
 10
232.7541690712676
 20
109.9735329949022
 30
0.0
  0
VERTEX
  5
4AB3
  8
0
 10
232.72668658508911
 20
109.9868443416479
 30
0.0
  0
VERTEX
  5
4AB4
  8
0
 10
232.6996931860819
 20
109.9997751563949
 30
0.0
  0
VERTEX
  5
4AB5
  8
0
 10
232.68638683826731
 20
110.0060972669371
 30
0.0
  0
VERTEX
  5
4AB6
  8
0
 10
232.6732111684675
 20
110.01232351848
 30
0.0
  0
VERTEX
  5
4AB7
  8
0
 10
232.6472634352258
 20
110.0244874217384
 30
0.0
  0
VERTEX
  5
4AB8
  8
0
 10
232.62187357376499
 20
110.0362647330526
 30
0.0
  0
VERTEX
  5
4AB9
  8
0
 10
232.5970659422421
 20
110.0476531465532
 30
0.0
  0
VERTEX
  5
4ABA
  8
0
 10
232.57286576640919
 20
110.05865013358169
 30
0.0
  0
VERTEX
  5
4ABB
  8
0
 10
232.5492992464244
 20
110.0692528886527
 30
0.0
  0
VERTEX
  5
4ABC
  8
0
 10
232.53776208967059
 20
110.0744054626781
 30
0.0
  0
VERTEX
  5
4ABD
  8
0
 10
232.52639367250299
 20
110.0794582718286
 30
0.0
  0
VERTEX
  5
4ABE
  8
0
 10
232.50417754755381
 20
110.0892627481327
 30
0.0
  0
VERTEX
  5
4ABF
  8
0
 10
232.48268071404209
 20
110.0986623249001
 30
0.0
  0
VERTEX
  5
4AC0
  8
0
 10
232.47221175501321
 20
110.1032088874687
 30
0.0
  0
VERTEX
  5
4AC1
  8
0
 10
232.4619344812242
 20
110.1076524882875
 30
0.0
  0
VERTEX
  5
4AC2
  8
0
 10
232.44197174761831
 20
110.116228140544
 30
0.0
  0
VERTEX
  5
4AC3
  8
0
 10
232.4228277472105
 20
110.1243832706373
 30
0.0
  0
VERTEX
  5
4AC4
  8
0
 10
232.41357475718021
 20
110.1283008685219
 30
0.0
  0
VERTEX
  5
4AC5
  8
0
 10
232.40454043053089
 20
110.1321107883571
 30
0.0
  0
VERTEX
  5
4AC6
  8
0
 10
232.3871459908346
 20
110.1394043862428
 30
0.0
  0
VERTEX
  5
4AC7
  8
0
 10
232.3706818891699
 20
110.1462572023441
 30
0.0
  0
VERTEX
  5
4AC8
  8
0
 10
232.3551873552465
 20
110.15266157661939
 30
0.0
  0
VERTEX
  5
4AC9
  8
0
 10
232.3407035941662
 20
110.1586089301733
 30
0.0
  0
VERTEX
  5
4ACA
  8
0
 10
232.32727397865821
 20
110.16408964619249
 30
0.0
  0
VERTEX
  5
4ACB
  8
0
 10
232.3209686625176
 20
110.1666516983269
 30
0.0
  0
VERTEX
  5
4ACC
  8
0
 10
232.31494420896249
 20
110.16909295825511
 30
0.0
  0
VERTEX
  5
4ACD
  8
0
 10
232.303762418275
 20
110.1736068530727
 30
0.0
  0
VERTEX
  5
4ACE
  8
0
 10
232.2937790987134
 20
110.1776180357558
 30
0.0
  0
VERTEX
  5
4ACF
  8
0
 10
232.28504682681529
 20
110.1811119627948
 30
0.0
  0
VERTEX
  5
4AD0
  8
0
 10
232.27762031662991
 20
110.1840727302645
 30
0.0
  0
VERTEX
  5
4AD1
  8
0
 10
232.27155655945009
 20
110.1864829159054
 30
0.0
  0
VERTEX
  5
4AD2
  8
0
 10
232.2690541639638
 20
110.1874756456627
 30
0.0
  0
VERTEX
  5
4AD3
  8
0
 10
232.2669148900697
 20
110.1883234378564
 30
0.0
  0
VERTEX
  5
4AD4
  8
0
 10
232.26375695283451
 20
110.1895734385962
 30
0.0
  0
VERTEX
  5
4AD5
  8
0
 10
232.26214654791491
 20
110.1902102001448
 30
0.0
  0
VERTEX
  5
4AD6
  8
0
 10
232.26194212996239
 20
110.190290995
 30
0.0
  0
SEQEND
  5
4AD7
  8
0
  0
POLYLINE
  5
43AE
  8
0
 66
     1
 10
0.0
 20
0.0
 30
0.0
  0
VERTEX
  5
4AD8
  8
0
 10
228.7103576957563
 20
107.93207012491339
 30
0.0
  0
VERTEX
  5
4AD9
  8
0
 10
228.76482124683119
 20
107.9438382643382
 30
0.0
  0
VERTEX
  5
4ADA
  8
0
 10
228.87395544922609
 20
107.9653001803747
 30
0.0
  0
VERTEX
  5
4ADB
  8
0
 10
228.98326335037609
 20
107.98400020360749
 30
0.0
  0
VERTEX
  5
4ADC
  8
0
 10
229.03794339097041
 20
107.9923173294132
 30
0.0
  0
VERTEX
  5
4ADD
  8
0
 10
229.0926194174867
 20
107.9999480830039
 30
0.0
  0
VERTEX
  5
4ADE
  8
0
 10
229.20189381272891
 20
108.01315946159031
 30
0.0
  0
VERTEX
  5
4ADF
  8
0
 10
229.31095358866631
 20
108.02365646648271
 30
0.0
  0
VERTEX
  5
4AE0
  8
0
 10
229.41966394349791
 20
108.0314681452179
 30
0.0
  0
VERTEX
  5
4AE1
  8
0
 10
229.5278895476124
 20
108.0366307460104
 30
0.0
  0
VERTEX
  5
4AE2
  8
0
 10
229.63549593607169
 20
108.03918783572981
 30
0.0
  0
VERTEX
  5
4AE3
  8
0
 10
229.68902549703381
 20
108.0395049208591
 30
0.0
  0
VERTEX
  5
4AE4
  8
0
 10
229.74255505799579
 20
108.03918783572981
 30
0.0
  0
VERTEX
  5
4AE5
  8
0
 10
229.8501614464553
 20
108.0366307460104
 30
0.0
  0
VERTEX
  5
4AE6
  8
0
 10
229.9583870505696
 20
108.0314681452179
 30
0.0
  0
VERTEX
  5
4AE7
  8
0
 10
230.0670974054012
 20
108.02365646648271
 30
0.0
  0
VERTEX
  5
4AE8
  8
0
 10
230.1761571813386
 20
108.01315946159031
 30
0.0
  0
VERTEX
  5
4AE9
  8
0
 10
230.28543157658081
 20
107.9999480830039
 30
0.0
  0
VERTEX
  5
4AEA
  8
0
 10
230.34010760309729
 20
107.9923173294132
 30
0.0
  0
VERTEX
  5
4AEB
  8
0
 10
230.39478764369139
 20
107.98400020360749
 30
0.0
  0
VERTEX
  5
4AEC
  8
0
 10
230.5040955448417
 20
107.9653001803747
 30
0.0
  0
VERTEX
  5
4AED
  8
0
 10
230.61322974723629
 20
107.9438382643382
 30
0.0
  0
VERTEX
  5
4AEE
  8
0
 10
230.66769329831121
 20
107.93207012491339
 30
0.0
  0
SEQEND
  5
4AEF
  8
0
  0
POLYLINE
  5
43AF
  8
0
 66
     1
 10
0.0
 20
0.0
 30
0.0
  0
VERTEX
  5
4AF0
  8
0
 10
230.66769329831121
 20
107.93207012491339
 30
0.0
  0
VERTEX
  5
4AF1
  8
0
 10
230.7902308182824
 20
107.90298989431361
 30
0.0
  0
VERTEX
  5
4AF2
  8
0
 10
231.0332411375305
 20
107.8344177737944
 30
0.0
  0
VERTEX
  5
4AF3
  8
0
 10
231.27229145719031
 20
107.7522329460117
 30
0.0
  0
VERTEX
  5
4AF4
  8
0
 10
231.38989530985921
 20
107.7061801364159
 30
0.0
  0
VERTEX
  5
4AF5
  8
0
 10
231.50603433306239
 20
107.6569026244743
 30
0.0
  0
VERTEX
  5
4AF6
  8
0
 10
231.7333577508864
 20
107.54898198126639
 30
0.0
  0
VERTEX
  5
4AF7
  8
0
 10
231.95305519365189
 20
107.4292480829487
 30
0.0
  0
VERTEX
  5
4AF8
  8
0
 10
232.16398604482509
 20
107.29865717288649
 30
0.0
  0
VERTEX
  5
4AF9
  8
0
 10
232.3651394165615
 20
107.1583112500835
 30
0.0
  0
VERTEX
  5
4AFA
  8
0
 10
232.55561432159681
 20
107.0094682549677
 30
0.0
  0
VERTEX
  5
4AFB
  8
0
 10
232.64659378438
 20
106.9322993789292
 30
0.0
  0
VERTEX
  5
4AFC
  8
0
 10
232.73461638556799
 20
106.8535515960689
 30
0.0
  0
VERTEX
  5
4AFD
  8
0
 10
232.90271402275181
 20
106.69088416628961
 30
0.0
  0
VERTEX
  5
4AFE
  8
0
 10
233.0638003693914
 20
106.5177979619946
 30
0.0
  0
VERTEX
  5
4AFF
  8
0
 10
233.21715087212741
 20
106.33447971352111
 30
0.0
  0
VERTEX
  5
4B00
  8
0
 10
233.36166429381089
 20
106.14168404843279
 30
0.0
  0
VERTEX
  5
4B01
  8
0
 10
233.4963814970738
 20
105.94023965487909
 30
0.0
  0
VERTEX
  5
4B02
  8
0
 10
233.55980231097831
 20
105.83655408307349
 30
0.0
  0
VERTEX
  5
4B03
  8
0
 10
233.62047117198881
 20
105.73105443765689
 30
0.0
  0
VERTEX
  5
4B04
  8
0
 10
233.73322000566259
 20
105.5151274191394
 30
0.0
  0
VERTEX
  5
4B05
  8
0
 10
233.83405180474369
 20
105.293512889345
 30
0.0
  0
VERTEX
  5
4B06
  8
0
 10
233.87987169929301
 20
105.18087489041589
 30
0.0
  0
VERTEX
  5
4B07
  8
0
 10
233.92256957841261
 20
105.0671913291765
 30
0.0
  0
VERTEX
  5
4B08
  8
0
 10
233.99845361757181
 20
104.8372784629053
 30
0.0
  0
VERTEX
  5
4B09
  8
0
 10
234.06149910948901
 20
104.6049881975413
 30
0.0
  0
VERTEX
  5
4B0A
  8
0
 10
234.08818313592289
 20
104.4883394230277
 30
0.0
  0
VERTEX
  5
4B0B
  8
0
 10
234.1116471154273
 20
104.3715629415581
 30
0.0
  0
VERTEX
  5
4B0C
  8
0
 10
234.14898575316761
 20
104.1382670489935
 30
0.0
  0
VERTEX
  5
4B0D
  8
0
 10
234.1737494938175
 20
103.9064130459946
 30
0.0
  0
VERTEX
  5
4B0E
  8
0
 10
234.1863304784317
 20
103.6773394424401
 30
0.0
  0
VERTEX
  5
4B0F
  8
0
 10
234.18718761629631
 20
103.4478317119849
 30
0.0
  0
VERTEX
  5
4B10
  8
0
 10
234.17603706983419
 20
103.21485103813011
 30
0.0
  0
VERTEX
  5
4B11
  8
0
 10
234.16580503447111
 20
103.0974561846848
 30
0.0
  0
VERTEX
  5
4B12
  8
0
 10
234.1524056312733
 20
102.979670486272
 30
0.0
  0
VERTEX
  5
4B13
  8
0
 10
234.11597138127351
 20
102.74355248734329
 30
0.0
  0
VERTEX
  5
4B14
  8
0
 10
234.06655446557099
 20
102.50772461353721
 30
0.0
  0
VERTEX
  5
4B15
  8
0
 10
234.00411648208319
 20
102.27340432534061
 30
0.0
  0
VERTEX
  5
4B16
  8
0
 10
233.92876184246049
 20
102.04179805857019
 30
0.0
  0
VERTEX
  5
4B17
  8
0
 10
233.84072024649299
 20
101.8140479862726
 30
0.0
  0
VERTEX
  5
4B18
  8
0
 10
233.79202805074391
 20
101.70191923064129
 30
0.0
  0
VERTEX
  5
4B19
  8
0
 10
233.74028839200309
 20
101.59112955321081
 30
0.0
  0
VERTEX
  5
4B1A
  8
0
 10
233.6279289269919
 20
101.3741064496362
 30
0.0
  0
VERTEX
  5
4B1B
  8
0
 10
233.5042497192162
 20
101.1640220351274
 30
0.0
  0
VERTEX
  5
4B1C
  8
0
 10
233.3699804407847
 20
100.9618418700824
 30
0.0
  0
VERTEX
  5
4B1D
  8
0
 10
233.22597055722389
 20
100.7684506487924
 30
0.0
  0
VERTEX
  5
4B1E
  8
0
 10
233.0732104060842
 20
100.5846726441702
 30
0.0
  0
VERTEX
  5
4B1F
  8
0
 10
232.99389532474561
 20
100.4966232765984
 30
0.0
  0
VERTEX
  5
4B20
  8
0
 10
232.91282294762979
 20
100.411244807936
 30
0.0
  0
VERTEX
  5
4B21
  8
0
 10
232.7432375799626
 20
100.2461934583789
 30
0.0
  0
VERTEX
  5
4B22
  8
0
 10
232.5618875830707
 20
100.0875405930943
 30
0.0
  0
VERTEX
  5
4B23
  8
0
 10
232.36944108364651
 20
99.936705955874515
 30
0.0
  0
VERTEX
  5
4B24
  8
0
 10
232.16669574859179
 20
99.794975277247033
 30
0.0
  0
VERTEX
  5
4B25
  8
0
 10
231.95454100247679
 20
99.663478300339705
 30
0.0
  0
VERTEX
  5
4B26
  8
0
 10
231.8452451785972
 20
99.601884207750516
 30
0.0
  0
VERTEX
  5
4B27
  8
0
 10
231.7339845480694
 20
99.543212066550225
 30
0.0
  0
VERTEX
  5
4B28
  8
0
 10
231.50614537013081
 20
99.435032853514997
 30
0.0
  0
VERTEX
  5
4B29
  8
0
 10
231.27214838349141
 20
99.339610577343308
 30
0.0
  0
VERTEX
  5
4B2A
  8
0
 10
231.03306917858819
 20
99.25743514136019
 30
0.0
  0
VERTEX
  5
4B2B
  8
0
 10
230.79022351322871
 20
99.188922955037086
 30
0.0
  0
VERTEX
  5
4B2C
  8
0
 10
230.5449965693972
 20
99.134325679701604
 30
0.0
  0
VERTEX
  5
4B2D
  8
0
 10
230.42192770578981
 20
99.112274505163157
 30
0.0
  0
VERTEX
  5
4B2E
  8
0
 10
230.29879185095589
 20
99.093715356492623
 30
0.0
  0
VERTEX
  5
4B2F
  8
0
 10
230.0530568851668
 20
99.066989445521074
 30
0.0
  0
VERTEX
  5
4B30
  8
0
 10
229.8092935684171
 20
99.053863054192064
 30
0.0
  0
VERTEX
  5
4B31
  8
0
 10
229.6886230322157
 20
99.052257421645024
 30
0.0
  0
VERTEX
  5
4B32
  8
0
 10
229.5679460623501
 20
99.05388479557547
 30
0.0
  0
VERTEX
  5
4B33
  8
0
 10
229.32417361709281
 20
99.067056039423221
 30
0.0
  0
VERTEX
  5
4B34
  8
0
 10
229.0784345892244
 20
99.093828078836566
 30
0.0
  0
VERTEX
  5
4B35
  8
0
 10
228.95529857771771
 20
99.112410568570624
 30
0.0
  0
VERTEX
  5
4B36
  8
0
 10
228.83223077026969
 20
99.134485168170215
 30
0.0
  0
VERTEX
  5
4B37
  8
0
 10
228.58700946445791
 20
99.189129263125835
 30
0.0
  0
VERTEX
  5
4B38
  8
0
 10
228.3441741208469
 20
99.257687724985942
 30
0.0
  0
VERTEX
  5
4B39
  8
0
 10
228.1051098020169
 20
99.339908300013519
 30
0.0
  0
VERTEX
  5
4B3A
  8
0
 10
227.87113177077569
 20
99.435374143953084
 30
0.0
  0
VERTEX
  5
4B3B
  8
0
 10
227.64331502690021
 20
99.543595086743423
 30
0.0
  0
VERTEX
  5
4B3C
  8
0
 10
227.5320670857736
 20
99.602287150246696
 30
0.0
  0
VERTEX
  5
4B3D
  8
0
 10
227.4227848920232
 20
99.663900445954425
 30
0.0
  0
VERTEX
  5
4B3E
  8
0
 10
227.2106600479087
 20
99.795433429029515
 30
0.0
  0
VERTEX
  5
4B3F
  8
0
 10
227.0079477714421
 20
99.937196563404015
 30
0.0
  0
VERTEX
  5
4B40
  8
0
 10
226.8155371577777
 20
100.0880596155332
 30
0.0
  0
VERTEX
  5
4B41
  8
0
 10
226.63422553627831
 20
100.24673633579761
 30
0.0
  0
VERTEX
  5
4B42
  8
0
 10
226.46467954201651
 20
100.4118076015678
 30
0.0
  0
VERTEX
  5
4B43
  8
0
 10
226.38361841819551
 20
100.4972042117227
 30
0.0
  0
VERTEX
  5
4B44
  8
0
 10
226.30431562381
 20
100.5852712028135
 30
0.0
  0
VERTEX
  5
4B45
  8
0
 10
226.15158297052699
 20
100.7690826896187
 30
0.0
  0
VERTEX
  5
4B46
  8
0
 10
226.0076041336124
 20
100.9625047579284
 30
0.0
  0
VERTEX
  5
4B47
  8
0
 10
225.87336897688311
 20
101.1647129042577
 30
0.0
  0
VERTEX
  5
4B48
  8
0
 10
225.74972652281869
 20
101.3748222183246
 30
0.0
  0
VERTEX
  5
4B49
  8
0
 10
225.6374060603921
 20
101.5918668406082
 30
0.0
  0
VERTEX
  5
4B4A
  8
0
 10
225.5856866116705
 20
101.70266593999401
 30
0.0
  0
VERTEX
  5
4B4B
  8
0
 10
225.53701502096709
 20
101.814803203293
 30
0.0
  0
VERTEX
  5
4B4C
  8
0
 10
225.4490154721743
 20
102.0425678414657
 30
0.0
  0
VERTEX
  5
4B4D
  8
0
 10
225.37370376191799
 20
102.274185171371
 30
0.0
  0
VERTEX
  5
4B4E
  8
0
 10
225.31130928838891
 20
102.50851253661379
 30
0.0
  0
VERTEX
  5
4B4F
  8
0
 10
225.26193599480669
 20
102.74434341170689
 30
0.0
  0
VERTEX
  5
4B50
  8
0
 10
225.22554499720059
 20
102.98046033776301
 30
0.0
  0
VERTEX
  5
4B51
  8
0
 10
225.2121669365583
 20
103.098243943879
 30
0.0
  0
VERTEX
  5
4B52
  8
0
 10
225.20195597504809
 20
103.21563564498901
 30
0.0
  0
VERTEX
  5
4B53
  8
0
 10
225.1908465167846
 20
103.44860680904939
 30
0.0
  0
VERTEX
  5
4B54
  8
0
 10
225.19174289833521
 20
103.6781007878044
 30
0.0
  0
VERTEX
  5
4B55
  8
0
 10
225.20435940829859
 20
103.9071307883263
 30
0.0
  0
VERTEX
  5
4B56
  8
0
 10
225.22914209113239
 20
104.1388438889571
 30
0.0
  0
VERTEX
  5
4B57
  8
0
 10
225.26647240346909
 20
104.3719289804877
 30
0.0
  0
VERTEX
  5
4B58
  8
0
 10
225.28991999485899
 20
104.48858214486479
 30
0.0
  0
VERTEX
  5
4B59
  8
0
 10
225.31657899071681
 20
104.6050998197824
 30
0.0
  0
VERTEX
  5
4B5A
  8
0
 10
225.37954912550109
 20
104.8371178348562
 30
0.0
  0
VERTEX
  5
4B5B
  8
0
 10
225.4553285819234
 20
105.0667669983509
 30
0.0
  0
VERTEX
  5
4B5C
  8
0
 10
225.4979660090921
 20
105.18032942962191
 30
0.0
  0
VERTEX
  5
4B5D
  8
0
 10
225.5437220228969
 20
105.2928569727099
 30
0.0
  0
VERTEX
  5
4B5E
  8
0
 10
225.6444179219329
 20
105.51428096079231
 30
0.0
  0
VERTEX
  5
4B5F
  8
0
 10
225.75704016717259
 20
105.73008560256631
 30
0.0
  0
VERTEX
  5
4B60
  8
0
 10
225.81765823432809
 20
105.8355584771531
 30
0.0
  0
VERTEX
  5
4B61
  8
0
 10
225.88104132070131
 20
105.9392429050538
 30
0.0
  0
VERTEX
  5
4B62
  8
0
 10
226.01573752035301
 20
106.1407675466283
 30
0.0
  0
VERTEX
  5
4B63
  8
0
 10
226.1603304906468
 20
106.3337606090106
 30
0.0
  0
VERTEX
  5
4B64
  8
0
 10
226.31390370126249
 20
106.5174049153061
 30
0.0
  0
VERTEX
  5
4B65
  8
0
 10
226.47540351865899
 20
106.69095200188571
 30
0.0
  0
VERTEX
  5
4B66
  8
0
 10
226.64374500233001
 20
106.8538366826985
 30
0.0
  0
VERTEX
  5
4B67
  8
0
 10
226.73143491242121
 20
106.9322799519676
 30
0.0
  0
VERTEX
  5
4B68
  8
0
 10
226.82212545868379
 20
107.0092112776001
 30
0.0
  0
VERTEX
  5
4B69
  8
0
 10
227.01215436124019
 20
107.1577515196424
 30
0.0
  0
VERTEX
  5
4B6A
  8
0
 10
227.2130312487389
 20
107.29797687244179
 30
0.0
  0
VERTEX
  5
4B6B
  8
0
 10
227.42383950955099
 20
107.42857533699841
 30
0.0
  0
VERTEX
  5
4B6C
  8
0
 10
227.64355544011619
 20
107.5484021021404
 30
0.0
  0
VERTEX
  5
4B6D
  8
0
 10
227.8710211023365
 20
107.6564635070909
 30
0.0
  0
VERTEX
  5
4B6E
  8
0
 10
227.98726966411911
 20
107.70581865420159
 30
0.0
  0
VERTEX
  5
4B6F
  8
0
 10
228.1049932400517
 20
107.7519451196117
 30
0.0
  0
VERTEX
  5
4B70
  8
0
 10
228.3443249230302
 20
107.83426610567651
 30
0.0
  0
VERTEX
  5
4B71
  8
0
 10
228.58765566019721
 20
107.90294841051789
 30
0.0
  0
VERTEX
  5
4B72
  8
0
 10
228.7103576957563
 20
107.93207012491339
 30
0.0
  0
SEQEND
  5
4B73
  8
0
  0
CIRCLE
  5
43B0
  8
0
 10
229.68902549703381
 20
103.68029099499999
 30
0.0
 40
4.2999999999999989
  0
ARC
  5
43B1
  8
0
 10
229.68902549703381
 20
105.4802909949999
 30
0.0
 40
0.4500000000000003
 50
13.34175590354246
 51
166.65824177277881
  0
ARC
  5
43B2
  8
0
 10
230.89312654742369
 20
105.76585519172249
 30
0.0
 40
0.7875000000000004
 50
193.34175955503849
 51
286.65824177277699
  0
ARC
  5
43B3
  8
0
 10
231.24787122384581
 20
104.580290995
 30
0.0
 40
0.4500000000000001
 50
313.34175822721949
 51
106.658241772777
  0
ARC
  5
43B4
  8
0
 10
232.0972275978138
 20
103.68029099499999
 30
0.0
 40
0.7874999999999993
 50
133.3417582272196
 51
226.65824177278029
  0
ARC
  5
43B5
  8
0
 10
231.24787122384581
 20
102.780290995
 30
0.0
 40
0.4500000000000003
 50
253.34175590354079
 51
46.658241772780393
  0
ARC
  5
43B6
  8
0
 10
228.48492444664379
 20
105.76585519172249
 30
0.0
 40
0.7874999999999999
 50
253.3417593113773
 51
346.65824177277892
  0
ARC
  5
43B7
  8
0
 10
228.1301797702217
 20
104.580290995
 30
0.0
 40
0.4500000000000006
 50
73.34175632994787
 51
226.65824177278029
  0
ARC
  5
43B8
  8
0
 10
227.28082339625391
 20
103.68029099499999
 30
0.0
 40
0.7874999999999996
 50
313.34175931137878
 51
46.658241772780393
  0
ARC
  5
43B9
  8
0
 10
228.1301797702217
 20
102.780290995
 30
0.0
 40
0.4500000000000003
 50
133.34175632994959
 51
286.65824177277699
  0
ARC
  5
43BA
  8
0
 10
228.48492444664379
 20
101.59472679827741
 30
0.0
 40
0.7875000000000004
 50
13.341758227221129
 51
106.658241772777
  0
ARC
  5
43BB
  8
0
 10
229.68902549703381
 20
101.880290995
 30
0.0
 40
0.4500000000000006
 50
193.34175822722111
 51
346.65824177277892
  0
ARC
  5
43BC
  8
0
 10
230.89312654742369
 20
101.59472679827741
 30
0.0
 40
0.7875000000000008
 50
73.341759555037484
 51
166.65824177277881
  0
LINE
  5
43BD
  8
1
 10
97.321984078017536
 20
143.18029099500001
 30
0.0
 11
97.321984078017536
 21
129.18029099499989
 31
0.0
  0
LINE
  5
43BE
  8
1
 10
114.32198407801749
 20
213.88029099499991
 30
0.0
 11
114.32198407801749
 21
188.4802909949999
 31
0.0
  0
LINE
  5
43BF
  8
1
 10
114.32198407801749
 20
164.18029099500001
 30
0.0
 11
114.32198407801749
 21
90.705936236528288
 31
0.0
  0
LINE
  5
43C0
  8
1
 10
131.32198407801749
 20
143.18029099500001
 30
0.0
 11
131.32198407801749
 21
129.18029099499989
 31
0.0
  0
LINE
  5
43C1
  8
3
 10
112.32198407801749
 20
105.3012909949999
 30
0.0
 11
114.32198407801749
 21
105.3012909949999
 31
0.0
  0
LINE
  5
43C2
  8
3
 10
112.32198407801749
 20
102.059290995
 30
0.0
 11
114.32198407801749
 21
102.059290995
 31
0.0
  0
LINE
  5
43C3
  8
3
 10
112.32198407801749
 20
35.326936236528297
 30
0.0
 11
114.32198407801749
 21
35.326936236528297
 31
0.0
  0
LINE
  5
43C4
  8
3
 10
112.32198407801749
 20
32.084936236528343
 30
0.0
 11
114.32198407801749
 21
32.084936236528343
 31
0.0
  0
LINE
  5
43C5
  8
0
 10
169.98902549703371
 20
30.341884098689551
 30
0.0
 11
169.98902549703371
 21
37.069988374367199
 31
0.0
  0
LINE
  5
43C6
  8
0
 10
158.1219840780175
 20
29.621000914545899
 30
0.0
 11
168.04676895500029
 21
29.621000914545899
 31
0.0
  0
LINE
  5
43C7
  8
0
 10
162.71619028035909
 20
40.705936236528373
 30
0.0
 11
153.6219840780175
 21
40.705936236528373
 31
0.0
  0
LINE
  5
43C8
  8
0
 10
153.6219840780175
 20
26.70593623652838
 30
0.0
 11
162.71619028035909
 21
26.70593623652838
 31
0.0
  0
LINE
  5
43C9
  8
0
 10
168.04676895500029
 20
37.790871558510851
 30
0.0
 11
158.1219840780175
 21
37.790871558510851
 31
0.0
  0
LINE
  5
43CA
  8
0
 10
153.6219840780175
 20
40.205936236528373
 30
0.0
 11
143.1219840780175
 21
40.205936236528373
 31
0.0
  0
LINE
  5
43CB
  8
0
 10
143.1219840780175
 20
27.20593623652837
 30
0.0
 11
153.6219840780175
 21
27.20593623652837
 31
0.0
  0
LINE
  5
43CC
  8
0
 10
139.1219840780175
 20
29.005936236528331
 30
0.0
 11
139.4219840780176
 21
28.70593623652837
 31
0.0
  0
LINE
  5
43CD
  8
0
 10
139.4219840780176
 20
38.705936236528373
 30
0.0
 11
139.1219840780175
 21
38.405936236528419
 31
0.0
  0
LINE
  5
43CE
  8
0
 10
139.4219840780176
 20
28.70593623652837
 30
0.0
 11
143.1219840780175
 21
28.70593623652837
 31
0.0
  0
LINE
  5
43CF
  8
0
 10
143.1219840780175
 20
38.705936236528373
 30
0.0
 11
139.4219840780176
 21
38.705936236528373
 31
0.0
  0
POLYLINE
  5
43D0
  8
0
 66
     1
 10
0.0
 20
0.0
 30
0.0
  0
VERTEX
  5
4B74
  8
0
 10
165.57580483761669
 20
29.621121785030478
 30
0.0
  0
VERTEX
  5
4B75
  8
0
 10
165.3497523481887
 20
29.455241603963032
 30
0.0
  0
VERTEX
  5
4B76
  8
0
 10
164.88111464351411
 20
29.047691894213251
 30
0.0
  0
VERTEX
  5
4B77
  8
0
 10
164.3862635173964
 20
28.53119747106712
 30
0.0
  0
VERTEX
  5
4B78
  8
0
 10
164.1305533792931
 20
28.231806183821512
 30
0.0
  0
SEQEND
  5
4B79
  8
0
  0
POLYLINE
  5
43D1
  8
0
 66
     1
 10
0.0
 20
0.0
 30
0.0
  0
VERTEX
  5
4B7A
  8
0
 10
157.4201425975896
 20
30.1010042091998
 30
0.0
  0
VERTEX
  5
4B7B
  8
0
 10
157.4571393817034
 20
30.102497284765491
 30
0.0
  0
VERTEX
  5
4B7C
  8
0
 10
157.52823552786981
 20
30.104688620295178
 30
0.0
  0
VERTEX
  5
4B7D
  8
0
 10
157.59542427175319
 20
30.105796615102459
 30
0.0
  0
VERTEX
  5
4B7E
  8
0
 10
157.62753778777281
 20
30.10593623652835
 30
0.0
  0
SEQEND
  5
4B7F
  8
0
  0
POLYLINE
  5
43D2
  8
0
 66
     1
 10
0.0
 20
0.0
 30
0.0
  0
VERTEX
  5
4B80
  8
0
 10
157.62753778777281
 20
30.10593623652835
 30
0.0
  0
VERTEX
  5
4B81
  8
0
 10
157.65497303337341
 20
30.105827453689251
 30
0.0
  0
VERTEX
  5
4B82
  8
0
 10
157.7075192380332
 20
30.104951903965681
 30
0.0
  0
VERTEX
  5
4B83
  8
0
 10
157.75694635602369
 20
30.103188412250351
 30
0.0
  0
VERTEX
  5
4B84
  8
0
 10
157.78048379320779
 20
30.101970215274719
 30
0.0
  0
VERTEX
  5
4B85
  8
0
 10
157.80323427630489
 20
30.100526144359609
 30
0.0
  0
VERTEX
  5
4B86
  8
0
 10
157.84636752735329
 20
30.096956511953071
 30
0.0
  0
VERTEX
  5
4B87
  8
0
 10
157.88633539828939
 20
30.09247321072667
 30
0.0
  0
VERTEX
  5
4B88
  8
0
 10
157.92313201840241
 20
30.087072239302302
 30
0.0
  0
VERTEX
  5
4B89
  8
0
 10
157.95675639435811
 20
30.080751897912251
 30
0.0
  0
VERTEX
  5
4B8A
  8
0
 10
157.98721236256659
 20
30.073512777112001
 30
0.0
  0
VERTEX
  5
4B8B
  8
0
 10
158.0012546206228
 20
30.06954950236263
 30
0.0
  0
VERTEX
  5
4B8C
  8
0
 10
158.01450822200121
 20
30.065357833780009
 30
0.0
  0
VERTEX
  5
4B8D
  8
0
 10
158.03865660330101
 20
30.05629250196046
 30
0.0
  0
VERTEX
  5
4B8E
  8
0
 10
158.05967470074441
 20
30.046324736725751
 30
0.0
  0
VERTEX
  5
4B8F
  8
0
 10
158.0775844814475
 20
30.03546503293137
 30
0.0
  0
VERTEX
  5
4B90
  8
0
 10
158.0924128440663
 20
30.023726423569659
 30
0.0
  0
VERTEX
  5
4B91
  8
0
 10
158.10419172842509
 20
30.011124457661591
 30
0.0
  0
VERTEX
  5
4B92
  8
0
 10
158.10894899207619
 20
30.004505252991748
 30
0.0
  0
VERTEX
  5
4B93
  8
0
 10
158.11295817735339
 20
29.997677157690081
 30
0.0
  0
VERTEX
  5
4B94
  8
0
 10
158.11875435181881
 20
29.983404956629329
 30
0.0
  0
VERTEX
  5
4B95
  8
0
 10
158.1216275001959
 20
29.968330614652931
 30
0.0
  0
VERTEX
  5
4B96
  8
0
 10
158.1219840780175
 20
29.960500364656131
 30
0.0
  0
SEQEND
  5
4B97
  8
0
  0
POLYLINE
  5
43D3
  8
0
 66
     1
 10
0.0
 20
0.0
 30
0.0
  0
VERTEX
  5
4B98
  8
0
 10
168.0795764192473
 20
37.787449267655923
 30
0.0
  0
VERTEX
  5
4B99
  8
0
 10
168.51374433803039
 20
37.691134952154918
 30
0.0
  0
VERTEX
  5
4B9A
  8
0
 10
169.2330511976952
 20
37.497675509673861
 30
0.0
  0
VERTEX
  5
4B9B
  8
0
 10
169.7528131647384
 20
37.30334237284967
 30
0.0
  0
VERTEX
  5
4B9C
  8
0
 10
169.93761782500491
 20
37.205936236528373
 30
0.0
  0
SEQEND
  5
4B9D
  8
0
  0
POLYLINE
  5
43D4
  8
0
 66
     1
 10
0.0
 20
0.0
 30
0.0
  0
VERTEX
  5
4B9E
  8
0
 10
161.6636077586906
 20
37.205936236528373
 30
0.0
  0
VERTEX
  5
4B9F
  8
0
 10
161.59185645052321
 20
37.211728314346949
 30
0.0
  0
VERTEX
  5
4BA0
  8
0
 10
161.46164966439389
 20
37.223524399329222
 30
0.0
  0
VERTEX
  5
4BA1
  8
0
 10
161.34950588355099
 20
37.23557206795045
 30
0.0
  0
VERTEX
  5
4BA2
  8
0
 10
161.30032002275101
 20
37.241678439945083
 30
0.0
  0
SEQEND
  5
4BA3
  8
0
  0
LINE
  5
43D5
  8
0
 10
161.30032002275101
 20
37.241678439945083
 30
0.0
 11
158.46391123657759
 21
37.612732890814641
 31
0.0
  0
POLYLINE
  5
43D6
  8
0
 66
     1
 10
0.0
 20
0.0
 30
0.0
  0
VERTEX
  5
4BA4
  8
0
 10
158.46391123657759
 20
37.612732890814641
 30
0.0
  0
VERTEX
  5
4BA5
  8
0
 10
158.44529147740849
 20
37.615204795246093
 30
0.0
  0
VERTEX
  5
4BA6
  8
0
 10
158.4095891683489
 20
37.620164080444738
 30
0.0
  0
VERTEX
  5
4BA7
  8
0
 10
158.37594340433679
 20
37.625143030298432
 30
0.0
  0
VERTEX
  5
4BA8
  8
0
 10
158.35989421334921
 20
37.627639514466978
 30
0.0
  0
VERTEX
  5
4BA9
  8
0
 10
158.34436208207529
 20
37.630140476241422
 30
0.0
  0
VERTEX
  5
4BAA
  8
0
 10
158.3148526137399
 20
37.635155245366832
 30
0.0
  0
VERTEX
  5
4BAB
  8
0
 10
158.2874219252401
 20
37.640186160702001
 30
0.0
  0
VERTEX
  5
4BAC
  8
0
 10
158.26207645459249
 20
37.645232041484981
 30
0.0
  0
VERTEX
  5
4BAD
  8
0
 10
158.2388221504111
 20
37.650291703441212
 30
0.0
  0
VERTEX
  5
4BAE
  8
0
 10
158.21766447050979
 20
37.65536395906156
 30
0.0
  0
VERTEX
  5
4BAF
  8
0
 10
158.20787343571081
 20
37.657904437583397
 30
0.0
  0
VERTEX
  5
4BB0
  8
0
 10
158.198608380623
 20
37.660447617881353
 30
0.0
  0
VERTEX
  5
4BB1
  8
0
 10
158.18165835323839
 20
37.665541486759601
 30
0.0
  0
VERTEX
  5
4BB2
  8
0
 10
158.16681836654899
 20
37.670644370158811
 30
0.0
  0
VERTEX
  5
4BB3
  8
0
 10
158.15409190351781
 20
37.675755070425787
 30
0.0
  0
VERTEX
  5
4BB4
  8
0
 10
158.14348195106211
 20
37.680872388072999
 30
0.0
  0
VERTEX
  5
4BB5
  8
0
 10
158.13499099935069
 20
37.685995122059467
 30
0.0
  0
VERTEX
  5
4BB6
  8
0
 10
158.13154079097649
 20
37.688558144499332
 30
0.0
  0
VERTEX
  5
4BB7
  8
0
 10
158.12862104122061
 20
37.691122070072993
 30
0.0
  0
VERTEX
  5
4BB8
  8
0
 10
158.1243735717091
 20
37.696252028812751
 30
0.0
  0
VERTEX
  5
4BB9
  8
0
 10
158.1222495877025
 20
37.701383794270782
 30
0.0
  0
VERTEX
  5
4BBA
  8
0
 10
158.1219840780175
 20
37.703949978142987
 30
0.0
  0
SEQEND
  5
4BBB
  8
0
  0
LINE
  5
43D7
  8
0
 10
169.93761782500491
 20
37.205936236528373
 30
0.0
 11
161.6636077586906
 21
37.205936236528373
 31
0.0
  0
POLYLINE
  5
43D8
  8
0
 66
     1
 10
0.0
 20
0.0
 30
0.0
  0
VERTEX
  5
4BBC
  8
0
 10
169.93761782500491
 20
37.205936236528373
 30
0.0
  0
VERTEX
  5
4BBD
  8
0
 10
169.9389759952453
 20
37.205864448648747
 30
0.0
  0
VERTEX
  5
4BBE
  8
0
 10
169.94169035374171
 20
37.205287227358333
 30
0.0
  0
VERTEX
  5
4BBF
  8
0
 10
169.94440109632319
 20
37.204125593210279
 30
0.0
  0
VERTEX
  5
4BC0
  8
0
 10
169.9457547494369
 20
37.20332340995526
 30
0.0
  0
VERTEX
  5
4BC1
  8
0
 10
169.94710706561361
 20
37.202372534683491
 30
0.0
  0
VERTEX
  5
4BC2
  8
0
 10
169.94980711849439
 20
37.200021559984073
 30
0.0
  0
VERTEX
  5
4BC3
  8
0
 10
169.95250012845321
 20
37.197066699822358
 30
0.0
  0
VERTEX
  5
4BC4
  8
0
 10
169.9551849878296
 20
37.193502508105901
 30
0.0
  0
VERTEX
  5
4BC5
  8
0
 10
169.95786060996119
 20
37.189324060553531
 30
0.0
  0
VERTEX
  5
4BC6
  8
0
 10
169.9605259312352
 20
37.184526951226871
 30
0.0
  0
VERTEX
  5
4BC7
  8
0
 10
169.96185440345721
 20
37.181895161951388
 30
0.0
  0
VERTEX
  5
4BC8
  8
0
 10
169.9631799130438
 20
37.179107286968701
 30
0.0
  0
VERTEX
  5
4BC9
  8
0
 10
169.96582154365021
 20
37.173061679724697
 30
0.0
  0
VERTEX
  5
4BCA
  8
0
 10
169.96844983996581
 20
37.166387236721327
 30
0.0
  0
VERTEX
  5
4BCB
  8
0
 10
169.971063849237
 20
37.159081548464307
 30
0.0
  0
VERTEX
  5
4BCC
  8
0
 10
169.97366265064599
 20
37.151142674515427
 30
0.0
  0
VERTEX
  5
4BCD
  8
0
 10
169.97624535682661
 20
37.142569127002389
 30
0.0
  0
VERTEX
  5
4BCE
  8
0
 10
169.9775304071274
 20
37.138044002269908
 30
0.0
  0
VERTEX
  5
4BCF
  8
0
 10
169.9788111190974
 20
37.133359837621242
 30
0.0
  0
VERTEX
  5
4BD0
  8
0
 10
169.98135911090799
 20
37.123514202810377
 30
0.0
  0
VERTEX
  5
4BD1
  8
0
 10
169.98388851165419
 20
37.113032154586342
 30
0.0
  0
VERTEX
  5
4BD2
  8
0
 10
169.98514599105329
 20
37.107552582501171
 30
0.0
  0
SEQEND
  5
4BD3
  8
0
  0
POLYLINE
  5
43D9
  8
0
 66
     1
 10
0.0
 20
0.0
 30
0.0
  0
VERTEX
  5
4BD4
  8
0
 10
169.98514599105329
 20
37.107552582501171
 30
0.0
  0
VERTEX
  5
4BD5
  8
0
 10
169.98633481812061
 20
37.10171761740105
 30
0.0
  0
VERTEX
  5
4BD6
  8
0
 10
169.98805959624329
 20
37.089534127415732
 30
0.0
  0
VERTEX
  5
4BD7
  8
0
 10
169.9889185206452
 20
37.076671649953141
 30
0.0
  0
VERTEX
  5
4BD8
  8
0
 10
169.98902549703371
 20
37.069988374360037
 30
0.0
  0
SEQEND
  5
4BD9
  8
0
  0
POLYLINE
  5
43DA
  8
0
 66
     1
 10
0.0
 20
0.0
 30
0.0
  0
VERTEX
  5
4BDA
  8
0
 10
169.98902549703371
 20
37.069988374360037
 30
0.0
  0
VERTEX
  5
4BDB
  8
0
 10
169.9886234615544
 20
37.056521744771317
 30
0.0
  0
VERTEX
  5
4BDC
  8
0
 10
169.98543478306391
 20
37.027725272262728
 30
0.0
  0
VERTEX
  5
4BDD
  8
0
 10
169.97914025034379
 20
36.996518212125579
 30
0.0
  0
VERTEX
  5
4BDE
  8
0
 10
169.9748619065065
 20
36.980045764013767
 30
0.0
  0
VERTEX
  5
4BDF
  8
0
 10
169.96985057146961
 20
36.963015797178521
 30
0.0
  0
VERTEX
  5
4BE0
  8
0
 10
169.9577009742267
 20
36.927356977115672
 30
0.0
  0
VERTEX
  5
4BE1
  8
0
 10
169.9428490332534
 20
36.889701453494808
 30
0.0
  0
VERTEX
  5
4BE2
  8
0
 10
169.9254723630811
 20
36.850227714922092
 30
0.0
  0
VERTEX
  5
4BE3
  8
0
 10
169.9057684983249
 20
36.809135599711233
 30
0.0
  0
VERTEX
  5
4BE4
  8
0
 10
169.8839540773879
 20
36.766645919786022
 30
0.0
  0
VERTEX
  5
4BE5
  8
0
 10
169.872327814681
 20
36.744951052678402
 30
0.0
  0
VERTEX
  5
4BE6
  8
0
 10
169.86026269949051
 20
36.722997680055641
 30
0.0
  0
VERTEX
  5
4BE7
  8
0
 10
169.83482654680569
 20
36.678245473205607
 30
0.0
  0
VERTEX
  5
4BE8
  8
0
 10
169.8072618640862
 20
36.63160668195065
 30
0.0
  0
VERTEX
  5
4BE9
  8
0
 10
169.7775597400427
 20
36.583021014514877
 30
0.0
  0
VERTEX
  5
4BEA
  8
0
 10
169.74578721007489
 20
36.532555761812553
 30
0.0
  0
VERTEX
  5
4BEB
  8
0
 10
169.71201983092081
 20
36.480285252203657
 30
0.0
  0
VERTEX
  5
4BEC
  8
0
 10
169.69441372317439
 20
36.453497855525711
 30
0.0
  0
VERTEX
  5
4BED
  8
0
 10
169.6763404921148
 20
36.426289539599907
 30
0.0
  0
VERTEX
  5
4BEE
  8
0
 10
169.63883822369709
 20
36.370653147866392
 30
0.0
  0
VERTEX
  5
4BEF
  8
0
 10
169.59960808924481
 20
36.313465407740871
 30
0.0
  0
VERTEX
  5
4BF0
  8
0
 10
169.5793766526001
 20
36.284319421612743
 30
0.0
  0
VERTEX
  5
4BF1
  8
0
 10
169.55875195641829
 20
36.254821907546329
 30
0.0
  0
VERTEX
  5
4BF2
  8
0
 10
169.51637792147881
 20
36.194823864097202
 30
0.0
  0
VERTEX
  5
4BF3
  8
0
 10
169.47259945418861
 20
36.133577119880442
 30
0.0
  0
VERTEX
  5
4BF4
  8
0
 10
169.4502202767039
 20
36.102519585796131
 30
0.0
  0
VERTEX
  5
4BF5
  8
0
 10
169.42753454393889
 20
36.071191170953398
 30
0.0
  0
VERTEX
  5
4BF6
  8
0
 10
169.38130156927329
 20
36.007773730942631
 30
0.0
  0
VERTEX
  5
4BF7
  8
0
 10
169.33401825209029
 20
35.943429674873983
 30
0.0
  0
VERTEX
  5
4BF8
  8
0
 10
169.2858109558924
 20
35.878273844781233
 30
0.0
  0
VERTEX
  5
4BF9
  8
0
 10
169.2368112513652
 20
35.81242627434051
 30
0.0
  0
VERTEX
  5
4BFA
  8
0
 10
169.18715525623949
 20
35.746011326530493
 30
0.0
  0
VERTEX
  5
4BFB
  8
0
 10
169.1621247839839
 20
35.712630952260042
 30
0.0
  0
VERTEX
  5
4BFC
  8
0
 10
169.1369830444805
 20
35.679156962735647
 30
0.0
  0
VERTEX
  5
4BFD
  8
0
 10
169.0864380775933
 20
35.611994070064611
 30
0.0
  0
VERTEX
  5
4BFE
  8
0
 10
169.03566665817809
 20
35.544655843136297
 30
0.0
  0
VERTEX
  5
4BFF
  8
0
 10
168.98481740171491
 20
35.47727721471017
 30
0.0
  0
VERTEX
  5
4C00
  8
0
 10
168.93404071892809
 20
35.409994328214573
 30
0.0
  0
VERTEX
  5
4C01
  8
0
 10
168.88348829775941
 20
35.342944044147998
 30
0.0
  0
VERTEX
  5
4C02
  8
0
 10
168.8583438064779
 20
35.309548977276222
 30
0.0
  0
VERTEX
  5
4C03
  8
0
 10
168.83328193265331
 20
35.276222701481629
 30
0.0
  0
VERTEX
  5
4C04
  8
0
 10
168.78255352877429
 20
35.208603682211113
 30
0.0
  0
VERTEX
  5
4C05
  8
0
 10
168.73097472107699
 20
35.139558106149479
 30
0.0
  0
VERTEX
  5
4C06
  8
0
 10
168.67872879348459
 20
35.069220582168441
 30
0.0
  0
VERTEX
  5
4C07
  8
0
 10
168.62601090973749
 20
34.997723486494692
 30
0.0
  0
VERTEX
  5
4C08
  8
0
 10
168.57302884543441
 20
34.925194946220252
 30
0.0
  0
VERTEX
  5
4C09
  8
0
 10
168.5465074369435
 20
34.888582247329509
 30
0.0
  0
VERTEX
  5
4C0A
  8
0
 10
168.520004406455
 20
34.851756858407157
 30
0.0
  0
VERTEX
  5
4C0B
  8
0
 10
168.46717633335081
 20
34.777523822293119
 30
0.0
  0
VERTEX
  5
4C0C
  8
0
 10
168.41480326217879
 20
34.702600731312941
 30
0.0
  0
VERTEX
  5
4C0D
  8
0
 10
168.36316719865911
 20
34.627079178174881
 30
0.0
  0
VERTEX
  5
4C0E
  8
0
 10
168.3125787741117
 20
34.551033922295353
 30
0.0
  0
VERTEX
  5
4C0F
  8
0
 10
168.26340973945861
 20
34.474559236389268
 30
0.0
  0
VERTEX
  5
4C10
  8
0
 10
168.2394877048271
 20
34.436188866436851
 30
0.0
  0
VERTEX
  5
4C11
  8
0
 10
168.21607098274421
 20
34.397722306028868
 30
0.0
  0
VERTEX
  5
4C12
  8
0
 10
168.17096558079649
 20
34.320458176464513
 30
0.0
  0
VERTEX
  5
4C13
  8
0
 10
168.12856483712059
 20
34.242647353171947
 30
0.0
  0
VERTEX
  5
4C14
  8
0
 10
168.0894353221683
 20
34.164114715255891
 30
0.0
  0
VERTEX
  5
4C15
  8
0
 10
168.05427245985629
 20
34.08463951154522
 30
0.0
  0
VERTEX
  5
4C16
  8
0
 10
168.03592265440329
 20
34.037739810537012
 30
0.0
  0
VERTEX
  5
4C17
  8
0
 10
168.0310062630997
 20
34.024255029443793
 30
0.0
  0
VERTEX
  5
4C18
  8
0
 10
168.02624340321131
 20
34.010729269544299
 30
0.0
  0
VERTEX
  5
4C19
  8
0
 10
168.02392104489081
 20
34.003950425382413
 30
0.0
  0
VERTEX
  5
4C1A
  8
0
 10
168.0216388813501
 20
33.99716060962465
 30
0.0
  0
VERTEX
  5
4C1B
  8
0
 10
168.01719762550599
 20
33.983547047886532
 30
0.0
  0
VERTEX
  5
4C1C
  8
0
 10
168.0129246862106
 20
33.969886508574632
 30
0.0
  0
VERTEX
  5
4C1D
  8
0
 10
168.010852947129
 20
33.963037955335722
 30
0.0
  0
VERTEX
  5
4C1E
  8
0
 10
168.0088252366877
 20
33.956176849806752
 30
0.0
  0
VERTEX
  5
4C1F
  8
0
 10
168.0049045717478
 20
33.942415872535548
 30
0.0
  0
VERTEX
  5
4C20
  8
0
 10
168.00116810517369
 20
33.928601330538527
 30
0.0
  0
VERTEX
  5
4C21
  8
0
 10
167.99937066957409
 20
33.921673260582232
 30
0.0
  0
VERTEX
  5
4C22
  8
0
 10
167.99762136533829
 20
33.914730941280943
 30
0.0
  0
VERTEX
  5
4C23
  8
0
 10
167.99426998881009
 20
33.900802397455323
 30
0.0
  0
VERTEX
  5
4C24
  8
0
 10
167.9911197117151
 20
33.886813378945931
 30
0.0
  0
VERTEX
  5
4C25
  8
0
 10
167.98817635865879
 20
33.872761564918171
 30
0.0
  0
VERTEX
  5
4C26
  8
0
 10
167.9854458290622
 20
33.858644645684187
 30
0.0
  0
VERTEX
  5
4C27
  8
0
 10
167.9829340808239
 20
33.844460333951822
 30
0.0
  0
VERTEX
  5
4C28
  8
0
 10
167.98176212292131
 20
33.837342199783848
 30
0.0
  0
VERTEX
  5
4C29
  8
0
 10
167.9806471113024
 20
33.830206375029782
 30
0.0
  0
VERTEX
  5
4C2A
  8
0
 10
167.9785909357056
 20
33.815880555538683
 30
0.0
  0
VERTEX
  5
4C2B
  8
0
 10
167.97677156308049
 20
33.80148071017345
 30
0.0
  0
VERTEX
  5
4C2C
  8
0
 10
167.97519497021099
 20
33.787004726072269
 30
0.0
  0
VERTEX
  5
4C2D
  8
0
 10
167.97386707384521
 20
33.772450544386288
 30
0.0
  0
VERTEX
  5
4C2E
  8
0
 10
167.97279370179601
 20
33.757816158699256
 30
0.0
  0
VERTEX
  5
4C2F
  8
0
 10
167.97235425202939
 20
33.750468275531489
 30
0.0
  0
VERTEX
  5
4C30
  8
0
 10
167.97198056355251
 20
33.743099610034172
 30
0.0
  0
VERTEX
  5
4C31
  8
0
 10
167.97143322113811
 20
33.728298978283647
 30
0.0
  0
VERTEX
  5
4C32
  8
0
 10
167.97115706099521
 20
33.713412370030603
 30
0.0
  0
VERTEX
  5
4C33
  8
0
 10
167.9711223030142
 20
33.705936236528373
 30
0.0
  0
VERTEX
  5
4C34
  8
0
 10
167.97115706099521
 20
33.69846010302615
 30
0.0
  0
VERTEX
  5
4C35
  8
0
 10
167.97143322113811
 20
33.6835734947731
 30
0.0
  0
VERTEX
  5
4C36
  8
0
 10
167.97198056355251
 20
33.668772863022582
 30
0.0
  0
VERTEX
  5
4C37
  8
0
 10
167.97235425202939
 20
33.661404197525258
 30
0.0
  0
VERTEX
  5
4C38
  8
0
 10
167.97279370179601
 20
33.65405631435749
 30
0.0
  0
VERTEX
  5
4C39
  8
0
 10
167.97386707384521
 20
33.639421928670458
 30
0.0
  0
VERTEX
  5
4C3A
  8
0
 10
167.97519497021099
 20
33.624867746984478
 30
0.0
  0
VERTEX
  5
4C3B
  8
0
 10
167.97677156308049
 20
33.610391762883303
 30
0.0
  0
VERTEX
  5
4C3C
  8
0
 10
167.9785909357056
 20
33.59599191751807
 30
0.0
  0
VERTEX
  5
4C3D
  8
0
 10
167.9806471113024
 20
33.581666098026972
 30
0.0
  0
VERTEX
  5
4C3E
  8
0
 10
167.98176212292131
 20
33.574530273272899
 30
0.0
  0
VERTEX
  5
4C3F
  8
0
 10
167.9829340808239
 20
33.567412139104931
 30
0.0
  0
VERTEX
  5
4C40
  8
0
 10
167.9854458290622
 20
33.553227827372559
 30
0.0
  0
VERTEX
  5
4C41
  8
0
 10
167.98817635865879
 20
33.539110908138582
 30
0.0
  0
VERTEX
  5
4C42
  8
0
 10
167.9911197117151
 20
33.525059094110823
 30
0.0
  0
VERTEX
  5
4C43
  8
0
 10
167.99426998881009
 20
33.511070075601431
 30
0.0
  0
VERTEX
  5
4C44
  8
0
 10
167.99762136533829
 20
33.49714153177581
 30
0.0
  0
VERTEX
  5
4C45
  8
0
 10
167.99937066957409
 20
33.490199212474522
 30
0.0
  0
VERTEX
  5
4C46
  8
0
 10
168.00116810517369
 20
33.48327114251822
 30
0.0
  0
VERTEX
  5
4C47
  8
0
 10
168.0049045717478
 20
33.469456600521198
 30
0.0
  0
VERTEX
  5
4C48
  8
0
 10
168.0088252366877
 20
33.455695623250001
 30
0.0
  0
VERTEX
  5
4C49
  8
0
 10
168.010852947129
 20
33.448834517721032
 30
0.0
  0
VERTEX
  5
4C4A
  8
0
 10
168.0129246862106
 20
33.441985964482001
 30
0.0
  0
VERTEX
  5
4C4B
  8
0
 10
168.01719762550599
 20
33.428325425170208
 30
0.0
  0
VERTEX
  5
4C4C
  8
0
 10
168.0216388813501
 20
33.414711863432103
 30
0.0
  0
VERTEX
  5
4C4D
  8
0
 10
168.02392104489081
 20
33.40792204767434
 30
0.0
  0
VERTEX
  5
4C4E
  8
0
 10
168.02624340321131
 20
33.401143203512447
 30
0.0
  0
VERTEX
  5
4C4F
  8
0
 10
168.0310062630997
 20
33.38761744361296
 30
0.0
  0
VERTEX
  5
4C50
  8
0
 10
168.03592265440329
 20
33.374132662519742
 30
0.0
  0
VERTEX
  5
4C51
  8
0
 10
168.05427245985629
 20
33.327232961511527
 30
0.0
  0
VERTEX
  5
4C52
  8
0
 10
168.0894353221683
 20
33.247757757800862
 30
0.0
  0
VERTEX
  5
4C53
  8
0
 10
168.12856483712059
 20
33.1692251198848
 30
0.0
  0
VERTEX
  5
4C54
  8
0
 10
168.17096558079649
 20
33.091414296592241
 30
0.0
  0
VERTEX
  5
4C55
  8
0
 10
168.21607098274421
 20
33.014150167027879
 30
0.0
  0
VERTEX
  5
4C56
  8
0
 10
168.2394877048271
 20
32.975683606619903
 30
0.0
  0
VERTEX
  5
4C57
  8
0
 10
168.26340973945861
 20
32.937313236667478
 30
0.0
  0
VERTEX
  5
4C58
  8
0
 10
168.3125787741117
 20
32.8608385507614
 30
0.0
  0
VERTEX
  5
4C59
  8
0
 10
168.36316719865911
 20
32.784793294881872
 30
0.0
  0
VERTEX
  5
4C5A
  8
0
 10
168.41480326217879
 20
32.709271741743692
 30
0.0
  0
VERTEX
  5
4C5B
  8
0
 10
168.46717633335081
 20
32.634348650763627
 30
0.0
  0
VERTEX
  5
4C5C
  8
0
 10
168.520004406455
 20
32.56011561464959
 30
0.0
  0
VERTEX
  5
4C5D
  8
0
 10
168.5465074369435
 20
32.523290225727237
 30
0.0
  0
VERTEX
  5
4C5E
  8
0
 10
168.57302884543441
 20
32.486677526836502
 30
0.0
  0
VERTEX
  5
4C5F
  8
0
 10
168.62601090973749
 20
32.414148986562061
 30
0.0
  0
VERTEX
  5
4C60
  8
0
 10
168.67872879348459
 20
32.342651890888298
 30
0.0
  0
VERTEX
  5
4C61
  8
0
 10
168.73097472107699
 20
32.272314366907267
 30
0.0
  0
VERTEX
  5
4C62
  8
0
 10
168.78255352877429
 20
32.203268790845641
 30
0.0
  0
VERTEX
  5
4C63
  8
0
 10
168.83328193265331
 20
32.135649771575117
 30
0.0
  0
VERTEX
  5
4C64
  8
0
 10
168.8583438064779
 20
32.102323495780531
 30
0.0
  0
VERTEX
  5
4C65
  8
0
 10
168.88348829775941
 20
32.068928428908748
 30
0.0
  0
VERTEX
  5
4C66
  8
0
 10
168.93404071892809
 20
32.001878144842181
 30
0.0
  0
VERTEX
  5
4C67
  8
0
 10
168.98481740171491
 20
31.93459525834658
 30
0.0
  0
VERTEX
  5
4C68
  8
0
 10
169.03566665817809
 20
31.867216629920449
 30
0.0
  0
VERTEX
  5
4C69
  8
0
 10
169.0864380775933
 20
31.799878402992139
 30
0.0
  0
VERTEX
  5
4C6A
  8
0
 10
169.1369830444805
 20
31.7327155103211
 30
0.0
  0
VERTEX
  5
4C6B
  8
0
 10
169.1621247839839
 20
31.699241520796711
 30
0.0
  0
VERTEX
  5
4C6C
  8
0
 10
169.18715525623949
 20
31.665861146526261
 30
0.0
  0
VERTEX
  5
4C6D
  8
0
 10
169.2368112513652
 20
31.59944619871624
 30
0.0
  0
VERTEX
  5
4C6E
  8
0
 10
169.2858109558924
 20
31.53359862827552
 30
0.0
  0
VERTEX
  5
4C6F
  8
0
 10
169.33401825209029
 20
31.468442798182771
 30
0.0
  0
VERTEX
  5
4C70
  8
0
 10
169.38130156927329
 20
31.404098742114119
 30
0.0
  0
VERTEX
  5
4C71
  8
0
 10
169.42753454393889
 20
31.340681302103349
 30
0.0
  0
VERTEX
  5
4C72
  8
0
 10
169.4502202767039
 20
31.309352887260619
 30
0.0
  0
VERTEX
  5
4C73
  8
0
 10
169.47259945418861
 20
31.278295353176301
 30
0.0
  0
VERTEX
  5
4C74
  8
0
 10
169.51637792147881
 20
31.217048608959551
 30
0.0
  0
VERTEX
  5
4C75
  8
0
 10
169.55875195641829
 20
31.157050565510421
 30
0.0
  0
VERTEX
  5
4C76
  8
0
 10
169.5793766526001
 20
31.127553051444011
 30
0.0
  0
VERTEX
  5
4C77
  8
0
 10
169.59960808924481
 20
31.098407065315879
 30
0.0
  0
VERTEX
  5
4C78
  8
0
 10
169.63883822369709
 20
31.041219325190468
 30
0.0
  0
VERTEX
  5
4C79
  8
0
 10
169.6763404921148
 20
30.98558293345684
 30
0.0
  0
VERTEX
  5
4C7A
  8
0
 10
169.69441372317439
 20
30.958374617531149
 30
0.0
  0
VERTEX
  5
4C7B
  8
0
 10
169.71201983092081
 20
30.931587220853089
 30
0.0
  0
VERTEX
  5
4C7C
  8
0
 10
169.74578721007489
 20
30.879316711244201
 30
0.0
  0
VERTEX
  5
4C7D
  8
0
 10
169.7775597400427
 20
30.82885145854187
 30
0.0
  0
VERTEX
  5
4C7E
  8
0
 10
169.8072618640862
 20
30.7802657911061
 30
0.0
  0
VERTEX
  5
4C7F
  8
0
 10
169.83482654680569
 20
30.73362699985114
 30
0.0
  0
VERTEX
  5
4C80
  8
0
 10
169.86026269949051
 20
30.688874793001109
 30
0.0
  0
VERTEX
  5
4C81
  8
0
 10
169.872327814681
 20
30.666921420378351
 30
0.0
  0
VERTEX
  5
4C82
  8
0
 10
169.8839540773879
 20
30.645226553270732
 30
0.0
  0
VERTEX
  5
4C83
  8
0
 10
169.9057684983249
 20
30.602736873345521
 30
0.0
  0
VERTEX
  5
4C84
  8
0
 10
169.9254723630811
 20
30.561644758134658
 30
0.0
  0
VERTEX
  5
4C85
  8
0
 10
169.9428490332534
 20
30.522171019561942
 30
0.0
  0
VERTEX
  5
4C86
  8
0
 10
169.9577009742267
 20
30.484515495941078
 30
0.0
  0
VERTEX
  5
4C87
  8
0
 10
169.96985057146961
 20
30.448856675878229
 30
0.0
  0
VERTEX
  5
4C88
  8
0
 10
169.9748619065065
 20
30.43182670904298
 30
0.0
  0
VERTEX
  5
4C89
  8
0
 10
169.97914025034379
 20
30.41535426093105
 30
0.0
  0
VERTEX
  5
4C8A
  8
0
 10
169.98543478306391
 20
30.384147200794018
 30
0.0
  0
VERTEX
  5
4C8B
  8
0
 10
169.9886234615544
 20
30.35535072828543
 30
0.0
  0
VERTEX
  5
4C8C
  8
0
 10
169.98902549703371
 20
30.34188409869671
 30
0.0
  0
SEQEND
  5
4C8D
  8
0
  0
POLYLINE
  5
43DB
  8
0
 66
     1
 10
0.0
 20
0.0
 30
0.0
  0
VERTEX
  5
4C8E
  8
0
 10
169.98902549703371
 20
30.34188409869671
 30
0.0
  0
VERTEX
  5
4C8F
  8
0
 10
169.9889185206452
 20
30.335200823103602
 30
0.0
  0
VERTEX
  5
4C90
  8
0
 10
169.98805959624329
 20
30.322338345641018
 30
0.0
  0
VERTEX
  5
4C91
  8
0
 10
169.98633481812061
 20
30.3101548556557
 30
0.0
  0
VERTEX
  5
4C92
  8
0
 10
169.98514599105329
 20
30.304319890555568
 30
0.0
  0
SEQEND
  5
4C93
  8
0
  0
POLYLINE
  5
43DC
  8
0
 66
     1
 10
0.0
 20
0.0
 30
0.0
  0
VERTEX
  5
4C94
  8
0
 10
169.98514599105329
 20
30.304319890555568
 30
0.0
  0
VERTEX
  5
4C95
  8
0
 10
169.9838885215388
 20
30.29884036083627
 30
0.0
  0
VERTEX
  5
4C96
  8
0
 10
169.98135914029049
 20
30.28835838787586
 30
0.0
  0
VERTEX
  5
4C97
  8
0
 10
169.97881116735789
 20
30.278512815253521
 30
0.0
  0
VERTEX
  5
4C98
  8
0
 10
169.97753046449401
 20
30.273828676689511
 30
0.0
  0
VERTEX
  5
4C99
  8
0
 10
169.9762454230044
 20
30.26930357461686
 30
0.0
  0
VERTEX
  5
4C9A
  8
0
 10
169.97366273336269
 20
30.260730062121411
 30
0.0
  0
VERTEX
  5
4C9B
  8
0
 10
169.97106394684869
 20
30.252791210025752
 30
0.0
  0
VERTEX
  5
4C9C
  8
0
 10
169.96844995051509
 20
30.245485531114809
 30
0.0
  0
VERTEX
  5
4C9D
  8
0
 10
169.96582166484879
 20
30.23881108583203
 30
0.0
  0
VERTEX
  5
4C9E
  8
0
 10
169.96318004225731
 20
30.23276546579962
 30
0.0
  0
VERTEX
  5
4C9F
  8
0
 10
169.96185453557811
 20
30.229977580897302
 30
0.0
  0
VERTEX
  5
4CA0
  8
0
 10
169.9605260654684
 20
30.22734577960512
 30
0.0
  0
VERTEX
  5
4CA1
  8
0
 10
169.9578607458445
 20
30.222548640808331
 30
0.0
  0
VERTEX
  5
4CA2
  8
0
 10
169.95518512160561
 20
30.21837015812503
 30
0.0
  0
VERTEX
  5
4CA3
  8
0
 10
169.95250025596579
 20
30.214805927754242
 30
0.0
  0
VERTEX
  5
4CA4
  8
0
 10
169.9498072351771
 20
30.211851027819652
 30
0.0
  0
VERTEX
  5
4CA5
  8
0
 10
169.94710716648041
 20
30.2095000149036
 30
0.0
  0
VERTEX
  5
4CA6
  8
0
 10
169.94575484039251
 20
30.208549122017299
 30
0.0
  0
VERTEX
  5
4CA7
  8
0
 10
169.94440117596011
 20
30.20774692266264
 30
0.0
  0
VERTEX
  5
4CA8
  8
0
 10
169.9416904062989
 20
30.206585262519411
 30
0.0
  0
VERTEX
  5
4CA9
  8
0
 10
169.93897601443041
 20
30.206008026438781
 30
0.0
  0
VERTEX
  5
4CAA
  8
0
 10
169.93761782500491
 20
30.20593623652838
 30
0.0
  0
SEQEND
  5
4CAB
  8
0
  0
POLYLINE
  5
43DD
  8
0
 66
     1
 10
0.0
 20
0.0
 30
0.0
  0
VERTEX
  5
4CAC
  8
0
 10
161.6636077586906
 20
30.20593623652838
 30
0.0
  0
VERTEX
  5
4CAD
  8
0
 10
161.67724996208739
 20
30.206052209972309
 30
0.0
  0
VERTEX
  5
4CAE
  8
0
 10
161.70501930431871
 20
30.206977223243371
 30
0.0
  0
VERTEX
  5
4CAF
  8
0
 10
161.73343201928719
 20
30.208819963503519
 30
0.0
  0
VERTEX
  5
4CB0
  8
0
 10
161.74787830839719
 20
30.210083005469421
 30
0.0
  0
VERTEX
  5
4CB1
  8
0
 10
161.76248377291259
 20
30.211572459264971
 30
0.0
  0
VERTEX
  5
4CB2
  8
0
 10
161.79216969263089
 20
30.21522634539792
 30
0.0
  0
VERTEX
  5
4CB3
  8
0
 10
161.82248438668171
 20
30.21977285895332
 30
0.0
  0
VERTEX
  5
4CB4
  8
0
 10
161.85342196552961
 20
30.22520283946994
 30
0.0
  0
VERTEX
  5
4CB5
  8
0
 10
161.88497606518669
 20
30.23150673339012
 30
0.0
  0
VERTEX
  5
4CB6
  8
0
 10
161.91713987220851
 20
30.238674602212999
 30
0.0
  0
VERTEX
  5
4CB7
  8
0
 10
161.93344817036629
 20
30.24257931894601
 30
0.0
  0
VERTEX
  5
4CB8
  8
0
 10
161.94990615015399
 20
30.24669613401807
 30
0.0
  0
VERTEX
  5
4CB9
  8
0
 10
161.98326726730801
 20
30.255560658005841
 30
0.0
  0
VERTEX
  5
4CBA
  8
0
 10
162.0172152254838
 20
30.26525716171637
 30
0.0
  0
VERTEX
  5
4CBB
  8
0
 10
162.05174168973349
 20
30.27577431060638
 30
0.0
  0
VERTEX
  5
4CBC
  8
0
 10
162.08683801881739
 20
30.287100469683761
 30
0.0
  0
VERTEX
  5
4CBD
  8
0
 10
162.12249529629361
 20
30.299223726920669
 30
0.0
  0
VERTEX
  5
4CBE
  8
0
 10
162.14053143675531
 20
30.305580475180019
 30
0.0
  0
VERTEX
  5
4CBF
  8
0
 10
162.15870435751299
 20
30.31213191651716
 30
0.0
  0
VERTEX
  5
4CC0
  8
0
 10
162.19545571713479
 20
30.325812605089599
 30
0.0
  0
VERTEX
  5
4CC1
  8
0
 10
162.2327394352819
 20
30.340253045421829
 30
0.0
  0
VERTEX
  5
4CC2
  8
0
 10
162.25157769750149
 20
30.34775410192583
 30
0.0
  0
VERTEX
  5
4CC3
  8
0
 10
162.2705451168126
 20
30.355440172422391
 30
0.0
  0
VERTEX
  5
4CC4
  8
0
 10
162.30886193350941
 20
30.371360609151228
 30
0.0
  0
VERTEX
  5
4CC5
  8
0
 10
162.34767864680501
 20
30.388000675214361
 30
0.0
  0
VERTEX
  5
4CC6
  8
0
 10
162.36727084611809
 20
30.396586213687669
 30
0.0
  0
VERTEX
  5
4CC7
  8
0
 10
162.3869836309654
 20
30.40534639724115
 30
0.0
  0
VERTEX
  5
4CC8
  8
0
 10
162.42676489659689
 20
30.42338352116213
 30
0.0
  0
VERTEX
  5
4CC9
  8
0
 10
162.46701011436241
 20
30.442097526028309
 30
0.0
  0
VERTEX
  5
4CCA
  8
0
 10
162.5077066388148
 20
30.461473639139509
 30
0.0
  0
VERTEX
  5
4CCB
  8
0
 10
162.54884153227181
 20
30.481496852278269
 30
0.0
  0
VERTEX
  5
4CCC
  8
0
 10
162.59040158867739
 20
30.502151938865271
 30
0.0
  0
VERTEX
  5
4CCD
  8
0
 10
162.61133685857041
 20
30.51271162108446
 30
0.0
  0
VERTEX
  5
4CCE
  8
0
 10
162.63237335740899
 20
30.523423471881419
 30
0.0
  0
VERTEX
  5
4CCF
  8
0
 10
162.67474316700421
 20
30.54529584242232
 30
0.0
  0
VERTEX
  5
4CD0
  8
0
 10
162.71749714879749
 20
30.567753278770059
 30
0.0
  0
VERTEX
  5
4CD1
  8
0
 10
162.7606237555899
 20
30.590781208729599
 30
0.0
  0
VERTEX
  5
4CD2
  8
0
 10
162.8041130446845
 20
30.614365977060181
 30
0.0
  0
VERTEX
  5
4CD3
  8
0
 10
162.8479507470324
 20
30.63849162667168
 30
0.0
  0
VERTEX
  5
4CD4
  8
0
 10
162.86999567883089
 20
30.650752221027581
 30
0.0
  0
VERTEX
  5
4CD5
  8
0
 10
162.89212218311809
 20
30.663141934466239
 30
0.0
  0
VERTEX
  5
4CD6
  8
0
 10
162.9366123465247
 20
30.688300455765791
 30
0.0
  0
VERTEX
  5
4CD7
  8
0
 10
162.9814059237562
 20
30.713950535924031
 30
0.0
  0
VERTEX
  5
4CD8
  8
0
 10
163.1403452180293
 20
30.807351904968531
 30
0.0
  0
VERTEX
  5
4CD9
  8
0
 10
163.4189972573927
 20
30.978854013533919
 30
0.0
  0
VERTEX
  5
4CDA
  8
0
 10
163.70226055343269
 20
31.161404647552668
 30
0.0
  0
VERTEX
  5
4CDB
  8
0
 10
163.8443937822249
 20
31.25557419709742
 30
0.0
  0
VERTEX
  5
4CDC
  8
0
 10
163.98617187406941
 20
31.350987497976242
 30
0.0
  0
VERTEX
  5
4CDD
  8
0
 10
164.26910327487391
 20
31.545248079747129
 30
0.0
  0
VERTEX
  5
4CDE
  8
0
 10
164.55699776934401
 20
31.747395213758409
 30
0.0
  0
VERTEX
  5
4CDF
  8
0
 10
164.84726022368949
 20
31.954993234810679
 30
0.0
  0
VERTEX
  5
4CE0
  8
0
 10
165.1362012719064
 20
32.164808568847661
 30
0.0
  0
VERTEX
  5
4CE1
  8
0
 10
165.42001122972101
 20
32.373514534279138
 30
0.0
  0
VERTEX
  5
4CE2
  8
0
 10
165.55875411924171
 20
32.476386039241341
 30
0.0
  0
VERTEX
  5
4CE3
  8
0
 10
165.69471051899129
 20
32.577696637598933
 30
0.0
  0
VERTEX
  5
4CE4
  8
0
 10
165.95730300685409
 20
32.774767296634757
 30
0.0
  0
VERTEX
  5
4CE5
  8
0
 10
166.207394297327
 20
32.964304921777973
 30
0.0
  0
VERTEX
  5
4CE6
  8
0
 10
166.32623327516529
 20
33.055157048879437
 30
0.0
  0
SEQEND
  5
4CE7
  8
0
  0
POLYLINE
  5
43DE
  8
0
 66
     1
 10
0.0
 20
0.0
 30
0.0
  0
VERTEX
  5
4CE8
  8
0
 10
166.32623327516529
 20
33.055157048879437
 30
0.0
  0
VERTEX
  5
4CE9
  8
0
 10
166.3715317281881
 20
33.090923405323679
 30
0.0
  0
VERTEX
  5
4CEA
  8
0
 10
166.45443714439739
 20
33.162651435116118
 30
0.0
  0
VERTEX
  5
4CEB
  8
0
 10
166.4980512218728
 20
33.204603116312569
 30
0.0
  0
VERTEX
  5
4CEC
  8
0
 10
166.50986866866791
 20
33.21660311139442
 30
0.0
  0
VERTEX
  5
4CED
  8
0
 10
166.52139975466929
 20
33.228608976197052
 30
0.0
  0
VERTEX
  5
4CEE
  8
0
 10
166.5270578690135
 20
33.234614064741997
 30
0.0
  0
VERTEX
  5
4CEF
  8
0
 10
166.5326443415583
 20
33.240620566706298
 30
0.0
  0
VERTEX
  5
4CF0
  8
0
 10
166.5436022944516
 20
33.252637738838651
 30
0.0
  0
VERTEX
  5
4CF1
  8
0
 10
166.55427348190531
 20
33.264660348443961
 30
0.0
  0
VERTEX
  5
4CF2
  8
0
 10
166.559501498456
 20
33.270673647234283
 30
0.0
  0
VERTEX
  5
4CF3
  8
0
 10
166.5646577759141
 20
33.276688251307057
 30
0.0
  0
VERTEX
  5
4CF4
  8
0
 10
166.57475505191539
 20
33.288721303148918
 30
0.0
  0
VERTEX
  5
4CF5
  8
0
 10
166.5845651887887
 20
33.300759359628842
 30
0.0
  0
VERTEX
  5
4CF6
  8
0
 10
166.58936254314401
 20
33.30678021948529
 30
0.0
  0
VERTEX
  5
4CF7
  8
0
 10
166.5940880688579
 20
33.31280227634636
 30
0.0
  0
VERTEX
  5
4CF8
  8
0
 10
166.6033235778927
 20
33.324849908842339
 30
0.0
  0
VERTEX
  5
4CF9
  8
0
 10
166.61227160511001
 20
33.336902112601251
 30
0.0
  0
VERTEX
  5
4CFA
  8
0
 10
166.62093204317529
 20
33.348958743052783
 30
0.0
  0
VERTEX
  5
4CFB
  8
0
 10
166.6293047882034
 20
33.3610196555735
 30
0.0
  0
VERTEX
  5
4CFC
  8
0
 10
166.63738973976021
 20
33.373084705488402
 30
0.0
  0
VERTEX
  5
4CFD
  8
0
 10
166.64132426254531
 20
33.379118736744203
 30
0.0
  0
VERTEX
  5
4CFE
  8
0
 10
166.64518680086439
 20
33.385153748073208
 30
0.0
  0
VERTEX
  5
4CFF
  8
0
 10
166.65269587798699
 20
33.397226638555367
 30
0.0
  0
VERTEX
  5
4D00
  8
0
 10
166.65991688105439
 20
33.409303232116599
 30
0.0
  0
VERTEX
  5
4D01
  8
0
 10
166.66684972344791
 20
33.421383383893733
 30
0.0
  0
VERTEX
  5
4D02
  8
0
 10
166.67349432200581
 20
33.433466948981277
 30
0.0
  0
VERTEX
  5
4D03
  8
0
 10
166.67985059702389
 20
33.445553782432633
 30
0.0
  0
VERTEX
  5
4D04
  8
0
 10
166.68292058924339
 20
33.451598379488132
 30
0.0
  0
VERTEX
  5
4D05
  8
0
 10
166.68591847225611
 20
33.457643739261933
 30
0.0
  0
VERTEX
  5
4D06
  8
0
 10
166.6916978749166
 20
33.469736674446153
 30
0.0
  0
VERTEX
  5
4D07
  8
0
 10
166.69718873567899
 20
33.481832442926247
 30
0.0
  0
VERTEX
  5
4D08
  8
0
 10
166.70239098867879
 20
33.493930899609161
 30
0.0
  0
VERTEX
  5
4D09
  8
0
 10
166.7073045715133
 20
33.506031899369873
 30
0.0
  0
VERTEX
  5
4D0A
  8
0
 10
166.711929425242
 20
33.518135297052481
 30
0.0
  0
VERTEX
  5
4D0B
  8
0
 10
166.7141335612198
 20
33.524187849745552
 30
0.0
  0
VERTEX
  5
4D0C
  8
0
 10
166.71626549438841
 20
33.530240947472748
 30
0.0
  0
VERTEX
  5
4D0D
  8
0
 10
166.72031272693971
 20
33.542348705419052
 30
0.0
  0
VERTEX
  5
4D0E
  8
0
 10
166.7240710743481
 20
33.554458425654623
 30
0.0
  0
VERTEX
  5
4D0F
  8
0
 10
166.72754049153079
 20
33.566569962919168
 30
0.0
  0
VERTEX
  5
4D10
  8
0
 10
166.73072093687119
 20
33.57868317193072
 30
0.0
  0
VERTEX
  5
4D11
  8
0
 10
166.7336123722182
 20
33.5907979073869
 30
0.0
  0
VERTEX
  5
4D12
  8
0
 10
166.73494970017029
 20
33.596855802119883
 30
0.0
  0
VERTEX
  5
4D13
  8
0
 10
166.73621476288869
 20
33.602914023967401
 30
0.0
  0
VERTEX
  5
4D14
  8
0
 10
166.73852807766539
 20
33.615031376335203
 30
0.0
  0
VERTEX
  5
4D15
  8
0
 10
166.74055228879999
 20
33.627149819138367
 30
0.0
  0
VERTEX
  5
4D16
  8
0
 10
166.74228737201091
 20
33.639269207011921
 30
0.0
  0
VERTEX
  5
4D17
  8
0
 10
166.74373330648541
 20
33.651389394579731
 30
0.0
  0
VERTEX
  5
4D18
  8
0
 10
166.74489007487881
 20
33.66351023645587
 30
0.0
  0
VERTEX
  5
4D19
  8
0
 10
166.74536001732369
 20
33.669570857324288
 30
0.0
  0
VERTEX
  5
4D1A
  8
0
 10
166.7457576633158
 20
33.675631587246592
 30
0.0
  0
VERTEX
  5
4D1B
  8
0
 10
166.74633606138849
 20
33.68775330155222
 30
0.0
  0
VERTEX
  5
4D1C
  8
0
 10
166.74662526215951
 20
33.699875233968328
 30
0.0
  0
VERTEX
  5
4D1D
  8
0
 10
166.74666141233729
 20
33.705936236528373
 30
0.0
  0
VERTEX
  5
4D1E
  8
0
 10
166.74662526215951
 20
33.711997239088419
 30
0.0
  0
VERTEX
  5
4D1F
  8
0
 10
166.74633606138849
 20
33.724119171504533
 30
0.0
  0
VERTEX
  5
4D20
  8
0
 10
166.7457576633158
 20
33.736240885810162
 30
0.0
  0
VERTEX
  5
4D21
  8
0
 10
166.74536001732369
 20
33.742301615732458
 30
0.0
  0
VERTEX
  5
4D22
  8
0
 10
166.74489007487881
 20
33.748362236600883
 30
0.0
  0
VERTEX
  5
4D23
  8
0
 10
166.74373330648541
 20
33.760483078477023
 30
0.0
  0
VERTEX
  5
4D24
  8
0
 10
166.74228737201091
 20
33.772603266044833
 30
0.0
  0
VERTEX
  5
4D25
  8
0
 10
166.74055228879999
 20
33.784722653918379
 30
0.0
  0
VERTEX
  5
4D26
  8
0
 10
166.73852807766539
 20
33.79684109672155
 30
0.0
  0
VERTEX
  5
4D27
  8
0
 10
166.73621476288869
 20
33.808958449089353
 30
0.0
  0
VERTEX
  5
4D28
  8
0
 10
166.73494970017029
 20
33.81501667093687
 30
0.0
  0
VERTEX
  5
4D29
  8
0
 10
166.7336123722182
 20
33.821074565669853
 30
0.0
  0
VERTEX
  5
4D2A
  8
0
 10
166.73072093687119
 20
33.833189301126033
 30
0.0
  0
VERTEX
  5
4D2B
  8
0
 10
166.72754049153079
 20
33.845302510137572
 30
0.0
  0
VERTEX
  5
4D2C
  8
0
 10
166.7240710743481
 20
33.857414047402131
 30
0.0
  0
VERTEX
  5
4D2D
  8
0
 10
166.72031272693971
 20
33.869523767637702
 30
0.0
  0
VERTEX
  5
4D2E
  8
0
 10
166.71626549438841
 20
33.881631525583998
 30
0.0
  0
VERTEX
  5
4D2F
  8
0
 10
166.7141335612198
 20
33.887684623311202
 30
0.0
  0
VERTEX
  5
4D30
  8
0
 10
166.711929425242
 20
33.893737176004272
 30
0.0
  0
VERTEX
  5
4D31
  8
0
 10
166.7073045715133
 20
33.905840573686881
 30
0.0
  0
VERTEX
  5
4D32
  8
0
 10
166.70239098867879
 20
33.917941573447592
 30
0.0
  0
VERTEX
  5
4D33
  8
0
 10
166.69718873567899
 20
33.930040030130499
 30
0.0
  0
VERTEX
  5
4D34
  8
0
 10
166.6916978749166
 20
33.942135798610593
 30
0.0
  0
VERTEX
  5
4D35
  8
0
 10
166.68591847225611
 20
33.954228733794821
 30
0.0
  0
VERTEX
  5
4D36
  8
0
 10
166.68292058924339
 20
33.960274093568607
 30
0.0
  0
VERTEX
  5
4D37
  8
0
 10
166.67985059702389
 20
33.966318690624121
 30
0.0
  0
VERTEX
  5
4D38
  8
0
 10
166.67349432200581
 20
33.97840552407547
 30
0.0
  0
VERTEX
  5
4D39
  8
0
 10
166.66684972344791
 20
33.99048908916302
 30
0.0
  0
VERTEX
  5
4D3A
  8
0
 10
166.65991688105439
 20
34.002569240940147
 30
0.0
  0
VERTEX
  5
4D3B
  8
0
 10
166.65269587798699
 20
34.01464583450138
 30
0.0
  0
VERTEX
  5
4D3C
  8
0
 10
166.64518680086439
 20
34.026718724983539
 30
0.0
  0
VERTEX
  5
4D3D
  8
0
 10
166.64132426254531
 20
34.03275373631255
 30
0.0
  0
VERTEX
  5
4D3E
  8
0
 10
166.63738973976021
 20
34.038787767568351
 30
0.0
  0
VERTEX
  5
4D3F
  8
0
 10
166.6293047882034
 20
34.050852817483253
 30
0.0
  0
VERTEX
  5
4D40
  8
0
 10
166.62093204317529
 20
34.06291373000397
 30
0.0
  0
VERTEX
  5
4D41
  8
0
 10
166.61227160511001
 20
34.074970360455502
 30
0.0
  0
VERTEX
  5
4D42
  8
0
 10
166.6033235778927
 20
34.087022564214408
 30
0.0
  0
VERTEX
  5
4D43
  8
0
 10
166.5940880688579
 20
34.099070196710393
 30
0.0
  0
VERTEX
  5
4D44
  8
0
 10
166.58936254314381
 20
34.105092253571463
 30
0.0
  0
VERTEX
  5
4D45
  8
0
 10
166.5845651887887
 20
34.111113113427912
 30
0.0
  0
VERTEX
  5
4D46
  8
0
 10
166.57475505191539
 20
34.123151169907828
 30
0.0
  0
VERTEX
  5
4D47
  8
0
 10
166.5646577759141
 20
34.135184221749689
 30
0.0
  0
VERTEX
  5
4D48
  8
0
 10
166.559501498456
 20
34.141198825822471
 30
0.0
  0
VERTEX
  5
4D49
  8
0
 10
166.55427348190531
 20
34.147212124612793
 30
0.0
  0
VERTEX
  5
4D4A
  8
0
 10
166.5436022944516
 20
34.159234734218103
 30
0.0
  0
VERTEX
  5
4D4B
  8
0
 10
166.5326443415583
 20
34.171251906350449
 30
0.0
  0
VERTEX
  5
4D4C
  8
0
 10
166.5270578690135
 20
34.177258408314749
 30
0.0
  0
VERTEX
  5
4D4D
  8
0
 10
166.52139975466929
 20
34.183263496859688
 30
0.0
  0
VERTEX
  5
4D4E
  8
0
 10
166.50986866866791
 20
34.195269361662334
 30
0.0
  0
VERTEX
  5
4D4F
  8
0
 10
166.4980512218728
 20
34.207269356744177
 30
0.0
  0
VERTEX
  5
4D50
  8
0
 10
166.45443714439739
 20
34.249221037940629
 30
0.0
  0
VERTEX
  5
4D51
  8
0
 10
166.3715317281881
 20
34.320949067733068
 30
0.0
  0
VERTEX
  5
4D52
  8
0
 10
166.32623327516529
 20
34.35671542417731
 30
0.0
  0
SEQEND
  5
4D53
  8
0
  0
POLYLINE
  5
43DF
  8
0
 66
     1
 10
0.0
 20
0.0
 30
0.0
  0
VERTEX
  5
4D54
  8
0
 10
166.32623327516529
 20
34.35671542417731
 30
0.0
  0
VERTEX
  5
4D55
  8
0
 10
166.207394297327
 20
34.44756755127878
 30
0.0
  0
VERTEX
  5
4D56
  8
0
 10
165.95730300685409
 20
34.637105176421983
 30
0.0
  0
VERTEX
  5
4D57
  8
0
 10
165.69471051899129
 20
34.83417583545782
 30
0.0
  0
VERTEX
  5
4D58
  8
0
 10
165.55875411924171
 20
34.935486433815413
 30
0.0
  0
VERTEX
  5
4D59
  8
0
 10
165.42001122972101
 20
35.038357938777608
 30
0.0
  0
VERTEX
  5
4D5A
  8
0
 10
165.1362012719064
 20
35.247063904209092
 30
0.0
  0
VERTEX
  5
4D5B
  8
0
 10
164.84726022368949
 20
35.456879238246067
 30
0.0
  0
VERTEX
  5
4D5C
  8
0
 10
164.55699776934401
 20
35.664477259298337
 30
0.0
  0
VERTEX
  5
4D5D
  8
0
 10
164.26910327487391
 20
35.866624393309621
 30
0.0
  0
VERTEX
  5
4D5E
  8
0
 10
163.98617187406941
 20
36.060884975080512
 30
0.0
  0
VERTEX
  5
4D5F
  8
0
 10
163.8443937822249
 20
36.15629827595933
 30
0.0
  0
VERTEX
  5
4D60
  8
0
 10
163.70226055343269
 20
36.250467825504082
 30
0.0
  0
VERTEX
  5
4D61
  8
0
 10
163.4189972573927
 20
36.433018459522827
 30
0.0
  0
VERTEX
  5
4D62
  8
0
 10
163.1403452180293
 20
36.604520568088219
 30
0.0
  0
VERTEX
  5
4D63
  8
0
 10
162.9814059237562
 20
36.697921937132719
 30
0.0
  0
VERTEX
  5
4D64
  8
0
 10
162.9366123465247
 20
36.723572017290962
 30
0.0
  0
VERTEX
  5
4D65
  8
0
 10
162.89212218311781
 20
36.748730538590507
 30
0.0
  0
VERTEX
  5
4D66
  8
0
 10
162.86999567883089
 20
36.761120252029173
 30
0.0
  0
VERTEX
  5
4D67
  8
0
 10
162.8479507470324
 20
36.773380846385074
 30
0.0
  0
VERTEX
  5
4D68
  8
0
 10
162.8041130446845
 20
36.797506495996572
 30
0.0
  0
VERTEX
  5
4D69
  8
0
 10
162.7606237555899
 20
36.821091264327151
 30
0.0
  0
VERTEX
  5
4D6A
  8
0
 10
162.71749714879749
 20
36.844119194286812
 30
0.0
  0
VERTEX
  5
4D6B
  8
0
 10
162.6747431670039
 20
36.866576630634427
 30
0.0
  0
VERTEX
  5
4D6C
  8
0
 10
162.63237335740899
 20
36.888449001175331
 30
0.0
  0
VERTEX
  5
4D6D
  8
0
 10
162.61133685857041
 20
36.89916085197229
 30
0.0
  0
VERTEX
  5
4D6E
  8
0
 10
162.59040158867739
 20
36.909720534191592
 30
0.0
  0
VERTEX
  5
4D6F
  8
0
 10
162.54884153227181
 20
36.930375620778477
 30
0.0
  0
VERTEX
  5
4D70
  8
0
 10
162.5077066388146
 20
36.950398833917241
 30
0.0
  0
VERTEX
  5
4D71
  8
0
 10
162.46701011436241
 20
36.969774947028441
 30
0.0
  0
VERTEX
  5
4D72
  8
0
 10
162.42676489659689
 20
36.988488951894617
 30
0.0
  0
VERTEX
  5
4D73
  8
0
 10
162.3869836309654
 20
37.006526075815707
 30
0.0
  0
VERTEX
  5
4D74
  8
0
 10
162.36727084611809
 20
37.015286259369077
 30
0.0
  0
VERTEX
  5
4D75
  8
0
 10
162.34767864680501
 20
37.023871797842389
 30
0.0
  0
VERTEX
  5
4D76
  8
0
 10
162.30886193350941
 20
37.040511863905522
 30
0.0
  0
VERTEX
  5
4D77
  8
0
 10
162.2705451168126
 20
37.056432300634363
 30
0.0
  0
VERTEX
  5
4D78
  8
0
 10
162.25157769750149
 20
37.064118371130917
 30
0.0
  0
VERTEX
  5
4D79
  8
0
 10
162.2327394352819
 20
37.071619427634907
 30
0.0
  0
VERTEX
  5
4D7A
  8
0
 10
162.19545571713479
 20
37.086059867967151
 30
0.0
  0
VERTEX
  5
4D7B
  8
0
 10
162.15870435751299
 20
37.099740556539587
 30
0.0
  0
VERTEX
  5
4D7C
  8
0
 10
162.14053143675531
 20
37.106291997876731
 30
0.0
  0
VERTEX
  5
4D7D
  8
0
 10
162.12249529629361
 20
37.112648746136081
 30
0.0
  0
VERTEX
  5
4D7E
  8
0
 10
162.08683801881739
 20
37.124772003372982
 30
0.0
  0
VERTEX
  5
4D7F
  8
0
 10
162.05174168973349
 20
37.136098162450367
 30
0.0
  0
VERTEX
  5
4D80
  8
0
 10
162.0172152254838
 20
37.146615311340383
 30
0.0
  0
VERTEX
  5
4D81
  8
0
 10
161.98326726730801
 20
37.156311815050913
 30
0.0
  0
VERTEX
  5
4D82
  8
0
 10
161.94990615015399
 20
37.16517633903868
 30
0.0
  0
VERTEX
  5
4D83
  8
0
 10
161.93344817036629
 20
37.16929315411074
 30
0.0
  0
VERTEX
  5
4D84
  8
0
 10
161.91713987220851
 20
37.173197870843751
 30
0.0
  0
VERTEX
  5
4D85
  8
0
 10
161.88497606518669
 20
37.180365739666627
 30
0.0
  0
VERTEX
  5
4D86
  8
0
 10
161.85342196552961
 20
37.18666963358681
 30
0.0
  0
VERTEX
  5
4D87
  8
0
 10
161.82248438668171
 20
37.192099614103427
 30
0.0
  0
VERTEX
  5
4D88
  8
0
 10
161.79216969263089
 20
37.196646127658823
 30
0.0
  0
VERTEX
  5
4D89
  8
0
 10
161.76248377291259
 20
37.200300013791782
 30
0.0
  0
VERTEX
  5
4D8A
  8
0
 10
161.74787830839719
 20
37.201789467587332
 30
0.0
  0
VERTEX
  5
4D8B
  8
0
 10
161.73343201928719
 20
37.203052509553231
 30
0.0
  0
VERTEX
  5
4D8C
  8
0
 10
161.70501930431871
 20
37.204895249813383
 30
0.0
  0
VERTEX
  5
4D8D
  8
0
 10
161.67724996208739
 20
37.205820263084441
 30
0.0
  0
VERTEX
  5
4D8E
  8
0
 10
161.6636077586906
 20
37.205936236528373
 30
0.0
  0
SEQEND
  5
4D8F
  8
0
  0
LINE
  5
43E0
  8
0
 10
169.93761782500491
 20
30.20593623652838
 30
0.0
 11
161.6636077586906
 21
30.20593623652838
 31
0.0
  0
POLYLINE
  5
43E1
  8
0
 66
     1
 10
0.0
 20
0.0
 30
0.0
  0
VERTEX
  5
4D90
  8
0
 10
169.93761782500491
 20
30.20593623652838
 30
0.0
  0
VERTEX
  5
4D91
  8
0
 10
169.7528131647384
 20
30.10853010020708
 30
0.0
  0
VERTEX
  5
4D92
  8
0
 10
169.2330511976952
 20
29.914196963382889
 30
0.0
  0
VERTEX
  5
4D93
  8
0
 10
168.51374433803039
 20
29.720737520901821
 30
0.0
  0
VERTEX
  5
4D94
  8
0
 10
168.0795764192473
 20
29.624423205400831
 30
0.0
  0
SEQEND
  5
4D95
  8
0
  0
POLYLINE
  5
43E2
  8
0
 66
     1
 10
0.0
 20
0.0
 30
0.0
  0
VERTEX
  5
4D96
  8
0
 10
158.1219840780175
 20
29.70792249491376
 30
0.0
  0
VERTEX
  5
4D97
  8
0
 10
158.1222495877025
 20
29.710488678785971
 30
0.0
  0
VERTEX
  5
4D98
  8
0
 10
158.1243735717091
 20
29.715620444243999
 30
0.0
  0
VERTEX
  5
4D99
  8
0
 10
158.12862104122061
 20
29.720750402983761
 30
0.0
  0
VERTEX
  5
4D9A
  8
0
 10
158.13154079097649
 20
29.723314328557422
 30
0.0
  0
VERTEX
  5
4D9B
  8
0
 10
158.13499099935069
 20
29.72587735099728
 30
0.0
  0
VERTEX
  5
4D9C
  8
0
 10
158.14348195106211
 20
29.731000084983751
 30
0.0
  0
VERTEX
  5
4D9D
  8
0
 10
158.15409190351781
 20
29.736117402630949
 30
0.0
  0
VERTEX
  5
4D9E
  8
0
 10
158.16681836654899
 20
29.741228102897939
 30
0.0
  0
VERTEX
  5
4D9F
  8
0
 10
158.18165835323839
 20
29.746330986297149
 30
0.0
  0
VERTEX
  5
4DA0
  8
0
 10
158.198608380623
 20
29.751424855175401
 30
0.0
  0
VERTEX
  5
4DA1
  8
0
 10
158.20787343571081
 20
29.753968035473349
 30
0.0
  0
VERTEX
  5
4DA2
  8
0
 10
158.21766447050979
 20
29.75650851399519
 30
0.0
  0
VERTEX
  5
4DA3
  8
0
 10
158.2388221504111
 20
29.761580769615531
 30
0.0
  0
VERTEX
  5
4DA4
  8
0
 10
158.26207645459249
 20
29.766640431571769
 30
0.0
  0
VERTEX
  5
4DA5
  8
0
 10
158.2874219252401
 20
29.771686312354749
 30
0.0
  0
VERTEX
  5
4DA6
  8
0
 10
158.3148526137399
 20
29.776717227689922
 30
0.0
  0
VERTEX
  5
4DA7
  8
0
 10
158.34436208207529
 20
29.781731996815331
 30
0.0
  0
VERTEX
  5
4DA8
  8
0
 10
158.35989421334921
 20
29.784232958589769
 30
0.0
  0
VERTEX
  5
4DA9
  8
0
 10
158.37594340433679
 20
29.786729442758318
 30
0.0
  0
VERTEX
  5
4DAA
  8
0
 10
158.4095891683489
 20
29.791708392612009
 30
0.0
  0
VERTEX
  5
4DAB
  8
0
 10
158.44529147740849
 20
29.79666767781066
 30
0.0
  0
VERTEX
  5
4DAC
  8
0
 10
158.46391123657759
 20
29.799139582242219
 30
0.0
  0
SEQEND
  5
4DAD
  8
0
  0
LINE
  5
43E3
  8
0
 10
158.46391123657759
 20
29.799139582242219
 30
0.0
 11
161.30032002275101
 21
30.17019403311167
 31
0.0
  0
POLYLINE
  5
43E4
  8
0
 66
     1
 10
0.0
 20
0.0
 30
0.0
  0
VERTEX
  5
4DAE
  8
0
 10
161.30032002275101
 20
30.17019403311167
 30
0.0
  0
VERTEX
  5
4DAF
  8
0
 10
161.34950588355099
 20
30.1763004051063
 30
0.0
  0
VERTEX
  5
4DB0
  8
0
 10
161.46164966439389
 20
30.188348073727528
 30
0.0
  0
VERTEX
  5
4DB1
  8
0
 10
161.59185645052321
 20
30.200144158709801
 30
0.0
  0
VERTEX
  5
4DB2
  8
0
 10
161.6636077586906
 20
30.20593623652838
 30
0.0
  0
SEQEND
  5
4DB3
  8
0
  0
POLYLINE
  5
43E5
  8
0
 66
     1
 10
0.0
 20
0.0
 30
0.0
  0
VERTEX
  5
4DB4
  8
0
 10
168.0795764192473
 20
29.624423205400831
 30
0.0
  0
VERTEX
  5
4DB5
  8
0
 10
168.0740994415082
 20
29.623372545871462
 30
0.0
  0
VERTEX
  5
4DB6
  8
0
 10
168.06315485852539
 20
29.621851042717481
 30
0.0
  0
VERTEX
  5
4DB7
  8
0
 10
168.05222611919399
 20
29.621094953554461
 30
0.0
  0
VERTEX
  5
4DB8
  8
0
 10
168.04676895500029
 20
29.621000914545899
 30
0.0
  0
SEQEND
  5
4DB9
  8
0
  0
LINE
  5
43E6
  8
0
 10
158.1219840780175
 20
29.621000914545899
 30
0.0
 11
158.1219840780175
 21
37.790871558510851
 31
0.0
  0
POLYLINE
  5
43E7
  8
0
 66
     1
 10
0.0
 20
0.0
 30
0.0
  0
VERTEX
  5
4DBA
  8
0
 10
162.71619028035909
 20
40.705936236528373
 30
0.0
  0
VERTEX
  5
4DBB
  8
0
 10
162.76001879835209
 20
40.704763319821268
 30
0.0
  0
VERTEX
  5
4DBC
  8
0
 10
162.84658114719491
 20
40.695482053200521
 30
0.0
  0
VERTEX
  5
4DBD
  8
0
 10
162.9314969596964
 20
40.677215065353039
 30
0.0
  0
VERTEX
  5
4DBE
  8
0
 10
162.97326929805331
 20
40.66482563279294
 30
0.0
  0
VERTEX
  5
4DBF
  8
0
 10
163.01463939083831
 20
40.650300494625519
 30
0.0
  0
VERTEX
  5
4DC0
  8
0
 10
163.09753561966201
 20
40.614298263519458
 30
0.0
  0
VERTEX
  5
4DC1
  8
0
 10
163.1805840132713
 20
40.568732421062691
 30
0.0
  0
VERTEX
  5
4DC2
  8
0
 10
163.26350158078569
 20
40.513384323942091
 30
0.0
  0
VERTEX
  5
4DC3
  8
0
 10
163.34601520110911
 20
40.448105652094327
 30
0.0
  0
VERTEX
  5
4DC4
  8
0
 10
163.42786525248951
 20
40.37281479687374
 30
0.0
  0
VERTEX
  5
4DC5
  8
0
 10
163.4684645093777
 20
40.331406485859929
 30
0.0
  0
VERTEX
  5
4DC6
  8
0
 10
163.50880687723469
 20
40.287493359037278
 30
0.0
  0
VERTEX
  5
4DC7
  8
0
 10
163.58860472946
 20
40.192189984856903
 30
0.0
  0
VERTEX
  5
4DC8
  8
0
 10
163.6670328931113
 20
40.087021656353841
 30
0.0
  0
VERTEX
  5
4DC9
  8
0
 10
163.74387820136729
 20
39.972170304529527
 30
0.0
  0
VERTEX
  5
4DCA
  8
0
 10
163.81894833623679
 20
39.847868512647104
 30
0.0
  0
VERTEX
  5
4DCB
  8
0
 10
163.89209117695009
 20
39.714355617434421
 30
0.0
  0
VERTEX
  5
4DCC
  8
0
 10
163.92788702186181
 20
39.644248135048429
 30
0.0
  0
VERTEX
  5
4DCD
  8
0
 10
163.96313789080841
 20
39.571971689914449
 30
0.0
  0
VERTEX
  5
4DCE
  8
0
 10
164.03192584181869
 20
39.421130933724839
 30
0.0
  0
VERTEX
  5
4DCF
  8
0
 10
164.09830697556839
 20
39.262308007760232
 30
0.0
  0
VERTEX
  5
4DD0
  8
0
 10
164.1305533792931
 20
39.180066289235242
 30
0.0
  0
SEQEND
  5
4DD1
  8
0
  0
POLYLINE
  5
43E8
  8
0
 66
     1
 10
0.0
 20
0.0
 30
0.0
  0
VERTEX
  5
4DD2
  8
0
 10
164.1305533792931
 20
28.231806183821512
 30
0.0
  0
VERTEX
  5
4DD3
  8
0
 10
164.09830697556771
 20
28.149564465294478
 30
0.0
  0
VERTEX
  5
4DD4
  8
0
 10
164.03192584181801
 20
27.990741539330092
 30
0.0
  0
VERTEX
  5
4DD5
  8
0
 10
163.9631378908077
 20
27.83990078314071
 30
0.0
  0
VERTEX
  5
4DD6
  8
0
 10
163.9278870218611
 20
27.76762433800684
 30
0.0
  0
VERTEX
  5
4DD7
  8
0
 10
163.89209117694941
 20
27.697516855620961
 30
0.0
  0
VERTEX
  5
4DD8
  8
0
 10
163.81894833623591
 20
27.5640039604084
 30
0.0
  0
VERTEX
  5
4DD9
  8
0
 10
163.74387820136661
 20
27.4397021685262
 30
0.0
  0
VERTEX
  5
4DDA
  8
0
 10
163.6670328931109
 20
27.324850816702
 30
0.0
  0
VERTEX
  5
4DDB
  8
0
 10
163.58860472945949
 20
27.219682488199052
 30
0.0
  0
VERTEX
  5
4DDC
  8
0
 10
163.50880687723401
 20
27.12437911401889
 30
0.0
  0
VERTEX
  5
4DDD
  8
0
 10
163.4684645093773
 20
27.080465987196249
 30
0.0
  0
VERTEX
  5
4DDE
  8
0
 10
163.427865252489
 20
27.039057676182551
 30
0.0
  0
VERTEX
  5
4DDF
  8
0
 10
163.34601520110871
 20
26.963766820962061
 30
0.0
  0
VERTEX
  5
4DE0
  8
0
 10
163.2635015807852
 20
26.898488149114321
 30
0.0
  0
VERTEX
  5
4DE1
  8
0
 10
163.18058401327079
 20
26.843140051993831
 30
0.0
  0
VERTEX
  5
4DE2
  8
0
 10
163.09753561966181
 20
26.797574209537181
 30
0.0
  0
VERTEX
  5
4DE3
  8
0
 10
163.014639390838
 20
26.76157197843111
 30
0.0
  0
VERTEX
  5
4DE4
  8
0
 10
162.97326929805311
 20
26.747046840263689
 30
0.0
  0
VERTEX
  5
4DE5
  8
0
 10
162.9314969596964
 20
26.734657407703711
 30
0.0
  0
VERTEX
  5
4DE6
  8
0
 10
162.84658114719491
 20
26.716390419856229
 30
0.0
  0
VERTEX
  5
4DE7
  8
0
 10
162.76001879835209
 20
26.707109153235479
 30
0.0
  0
VERTEX
  5
4DE8
  8
0
 10
162.71619028035909
 20
26.70593623652838
 30
0.0
  0
SEQEND
  5
4DE9
  8
0
  0
POLYLINE
  5
43E9
  8
0
 66
     1
 10
0.0
 20
0.0
 30
0.0
  0
VERTEX
  5
4DEA
  8
0
 10
168.04676895500029
 20
37.790871558510851
 30
0.0
  0
VERTEX
  5
4DEB
  8
0
 10
168.05222611919399
 20
37.790777519502292
 30
0.0
  0
VERTEX
  5
4DEC
  8
0
 10
168.06315485852539
 20
37.790021430339273
 30
0.0
  0
VERTEX
  5
4DED
  8
0
 10
168.0740994415082
 20
37.788499927185292
 30
0.0
  0
VERTEX
  5
4DEE
  8
0
 10
168.0795764192473
 20
37.787449267655923
 30
0.0
  0
SEQEND
  5
4DEF
  8
0
  0
POLYLINE
  5
43EA
  8
0
 66
     1
 10
0.0
 20
0.0
 30
0.0
  0
VERTEX
  5
4DF0
  8
0
 10
158.1219840780175
 20
37.451372108400619
 30
0.0
  0
VERTEX
  5
4DF1
  8
0
 10
158.12162761232091
 20
37.443543072428497
 30
0.0
  0
VERTEX
  5
4DF2
  8
0
 10
158.11875526591959
 20
37.428470617766607
 30
0.0
  0
VERTEX
  5
4DF3
  8
0
 10
158.112960465008
 20
37.414199675761331
 30
0.0
  0
VERTEX
  5
4DF4
  8
0
 10
158.10895211198769
 20
37.407372007461959
 30
0.0
  0
VERTEX
  5
4DF5
  8
0
 10
158.10419574390039
 20
37.400753111469619
 30
0.0
  0
VERTEX
  5
4DF6
  8
0
 10
158.09241874872549
 20
37.38815145506635
 30
0.0
  0
VERTEX
  5
4DF7
  8
0
 10
158.07759226819729
 20
37.376412818206063
 30
0.0
  0
VERTEX
  5
4DF8
  8
0
 10
158.05968421828439
 20
37.365552830802017
 30
0.0
  0
VERTEX
  5
4DF9
  8
0
 10
158.03866757992091
 20
37.355584598307253
 30
0.0
  0
VERTEX
  5
4DFA
  8
0
 10
158.01452028865239
 20
37.346518679556091
 30
0.0
  0
VERTEX
  5
4DFB
  8
0
 10
158.00126706954211
 20
37.342326690315872
 30
0.0
  0
VERTEX
  5
4DFC
  8
0
 10
157.98722507491379
 20
37.338363085171409
 30
0.0
  0
VERTEX
  5
4DFD
  8
0
 10
157.9567692534963
 20
37.33112329648236
 30
0.0
  0
VERTEX
  5
4DFE
  8
0
 10
157.92314449337681
 20
37.324802310239882
 30
0.0
  0
VERTEX
  5
4DFF
  8
0
 10
157.8863469631965
 20
37.319400751334122
 30
0.0
  0
VERTEX
  5
4E00
  8
0
 10
157.84637769202001
 20
37.314916945906702
 30
0.0
  0
VERTEX
  5
4E01
  8
0
 10
157.80324261204461
 20
37.311346909387453
 30
0.0
  0
VERTEX
  5
4E02
  8
0
 10
157.78049107965529
 20
37.309902676816137
 30
0.0
  0
VERTEX
  5
4E03
  8
0
 10
157.75695252003919
 20
37.308684345606139
 30
0.0
  0
VERTEX
  5
4E04
  8
0
 10
157.70752299624669
 20
37.306920666201449
 30
0.0
  0
VERTEX
  5
4E05
  8
0
 10
157.65497428145
 20
37.306045029420602
 30
0.0
  0
VERTEX
  5
4E06
  8
0
 10
157.62753778744829
 20
37.305936236528403
 30
0.0
  0
SEQEND
  5
4E07
  8
0
  0
POLYLINE
  5
43EB
  8
0
 66
     1
 10
0.0
 20
0.0
 30
0.0
  0
VERTEX
  5
4E08
  8
0
 10
157.62753778744829
 20
37.305936236528403
 30
0.0
  0
VERTEX
  5
4E09
  8
0
 10
157.59542387835111
 20
37.306075861317368
 30
0.0
  0
VERTEX
  5
4E0A
  8
0
 10
157.52823477328141
 20
37.307183870812537
 30
0.0
  0
VERTEX
  5
4E0B
  8
0
 10
157.4571390522112
 20
37.309375200579439
 30
0.0
  0
VERTEX
  5
4E0C
  8
0
 10
157.4201425975896
 20
37.31086826385706
 30
0.0
  0
SEQEND
  5
4E0D
  8
0
  0
POLYLINE
  5
43EC
  8
0
 66
     1
 10
0.0
 20
0.0
 30
0.0
  0
VERTEX
  5
4E0E
  8
0
 10
164.1305533792931
 20
39.180066289235242
 30
0.0
  0
VERTEX
  5
4E0F
  8
0
 10
164.3862635174018
 20
38.880675001983491
 30
0.0
  0
VERTEX
  5
4E10
  8
0
 10
164.88111464351749
 20
38.364180578840433
 30
0.0
  0
VERTEX
  5
4E11
  8
0
 10
165.34975234819009
 20
37.956630869092812
 30
0.0
  0
VERTEX
  5
4E12
  8
0
 10
165.5758048376172
 20
37.790750688026037
 30
0.0
  0
SEQEND
  5
4E13
  8
0
  0
LINE
  5
43ED
  8
0
 10
143.1219840780175
 20
27.20593623652837
 30
0.0
 11
143.1219840780175
 21
40.205936236528373
 31
0.0
  0
LINE
  5
43EE
  8
0
 10
153.6219840780175
 20
40.705936236528373
 30
0.0
 11
153.6219840780175
 21
26.70593623652838
 31
0.0
  0
POLYLINE
  5
43EF
  8
0
 66
     1
 10
0.0
 20
0.0
 30
0.0
  0
VERTEX
  5
4E14
  8
0
 10
157.4201425975896
 20
37.31086826385706
 30
0.0
  0
VERTEX
  5
4E15
  8
0
 10
157.32750182195991
 20
37.315673352057843
 30
0.0
  0
VERTEX
  5
4E16
  8
0
 10
157.13922300887469
 20
37.330188049838057
 30
0.0
  0
VERTEX
  5
4E17
  8
0
 10
156.94707334946219
 20
37.351282653538988
 30
0.0
  0
VERTEX
  5
4E18
  8
0
 10
156.84959663496349
 20
37.36430704521581
 30
0.0
  0
VERTEX
  5
4E19
  8
0
 10
156.75121343093471
 20
37.378984980544942
 30
0.0
  0
VERTEX
  5
4E1A
  8
0
 10
156.55181645323131
 20
37.413299039053527
 30
0.0
  0
VERTEX
  5
4E1B
  8
0
 10
156.34906752418121
 20
37.454205276227299
 30
0.0
  0
VERTEX
  5
4E1C
  8
0
 10
156.14316291893891
 20
37.501660982028511
 30
0.0
  0
VERTEX
  5
4E1D
  8
0
 10
155.934309276314
 20
37.555600839683279
 30
0.0
  0
VERTEX
  5
4E1E
  8
0
 10
155.7227222833055
 20
37.615937746821153
 30
0.0
  0
VERTEX
  5
4E1F
  8
0
 10
155.61596826475741
 20
37.648473737061181
 30
0.0
  0
VERTEX
  5
4E20
  8
0
 10
155.50860920569079
 20
37.682569045573359
 30
0.0
  0
VERTEX
  5
4E21
  8
0
 10
155.29219494276049
 20
37.755370128888451
 30
0.0
  0
VERTEX
  5
4E22
  8
0
 10
155.07372428686011
 20
37.834192908880823
 30
0.0
  0
VERTEX
  5
4E23
  8
0
 10
154.8534523559469
 20
37.918868713533129
 30
0.0
  0
VERTEX
  5
4E24
  8
0
 10
154.63164370032931
 20
38.009208922571482
 30
0.0
  0
VERTEX
  5
4E25
  8
0
 10
154.40857138867321
 20
38.105005695076102
 30
0.0
  0
VERTEX
  5
4E26
  8
0
 10
154.2966487942453
 20
38.154880284991009
 30
0.0
  0
VERTEX
  5
4E27
  8
0
 10
154.18451606139271
 20
38.206032784907848
 30
0.0
  0
VERTEX
  5
4E28
  8
0
 10
153.9597649890047
 20
38.312046419657577
 30
0.0
  0
VERTEX
  5
4E29
  8
0
 10
153.73461437725521
 20
38.422784606484008
 30
0.0
  0
VERTEX
  5
4E2A
  8
0
 10
153.6219840780175
 20
38.4798386858713
 30
0.0
  0
SEQEND
  5
4E2B
  8
0
  0
POLYLINE
  5
43F0
  8
0
 66
     1
 10
0.0
 20
0.0
 30
0.0
  0
VERTEX
  5
4E2C
  8
0
 10
153.6219840780175
 20
28.93203378718556
 30
0.0
  0
VERTEX
  5
4E2D
  8
0
 10
153.73461437725521
 20
28.989087866572731
 30
0.0
  0
VERTEX
  5
4E2E
  8
0
 10
153.9597649890047
 20
29.09982605339917
 30
0.0
  0
VERTEX
  5
4E2F
  8
0
 10
154.18451606139271
 20
29.205839688149009
 30
0.0
  0
VERTEX
  5
4E30
  8
0
 10
154.2966487942453
 20
29.256992188065741
 30
0.0
  0
VERTEX
  5
4E31
  8
0
 10
154.4085713886729
 20
29.306866777980641
 30
0.0
  0
VERTEX
  5
4E32
  8
0
 10
154.63164370032931
 20
29.402663550485268
 30
0.0
  0
VERTEX
  5
4E33
  8
0
 10
154.8534523559469
 20
29.493003759523621
 30
0.0
  0
VERTEX
  5
4E34
  8
0
 10
155.07372428686011
 20
29.577679564175931
 30
0.0
  0
VERTEX
  5
4E35
  8
0
 10
155.29219494276049
 20
29.656502344168299
 30
0.0
  0
VERTEX
  5
4E36
  8
0
 10
155.50860920569079
 20
29.729303427483391
 30
0.0
  0
VERTEX
  5
4E37
  8
0
 10
155.61596826475741
 20
29.763398735995679
 30
0.0
  0
VERTEX
  5
4E38
  8
0
 10
155.7227222833055
 20
29.795934726235721
 30
0.0
  0
VERTEX
  5
4E39
  8
0
 10
155.934309276314
 20
29.856271633373581
 30
0.0
  0
VERTEX
  5
4E3A
  8
0
 10
156.14316291893891
 20
29.910211491028239
 30
0.0
  0
VERTEX
  5
4E3B
  8
0
 10
156.34906752418121
 20
29.957667196829451
 30
0.0
  0
VERTEX
  5
4E3C
  8
0
 10
156.55181645323131
 20
29.99857343400322
 30
0.0
  0
VERTEX
  5
4E3D
  8
0
 10
156.75121343093471
 20
30.032887492511811
 30
0.0
  0
VERTEX
  5
4E3E
  8
0
 10
156.84959663496349
 20
30.04756542784094
 30
0.0
  0
VERTEX
  5
4E3F
  8
0
 10
156.94707334946219
 20
30.060589819517759
 30
0.0
  0
VERTEX
  5
4E40
  8
0
 10
157.13922300887469
 20
30.08168442321869
 30
0.0
  0
VERTEX
  5
4E41
  8
0
 10
157.32750182195991
 20
30.0961991209989
 30
0.0
  0
VERTEX
  5
4E42
  8
0
 10
157.4201425975896
 20
30.1010042091998
 30
0.0
  0
SEQEND
  5
4E43
  8
0
  0
LINE
  5
43F1
  8
0
 10
139.1219840780175
 20
38.405936236528419
 30
0.0
 11
139.1219840780175
 21
29.005936236528331
 31
0.0
  0
LINE
  5
43F2
  8
0
 10
139.4219840780176
 20
38.705936236528373
 30
0.0
 11
139.4219840780176
 21
28.70593623652837
 31
0.0
  0
LINE
  5
43F3
  8
1
 10
172.98902549703371
 20
33.705936236528373
 30
0.0
 11
95.821984078017294
 21
33.705936236528373
 31
0.0
  0
LINE
  5
43F4
  8
1
 10
95.821984078017067
 20
103.68029099499999
 30
0.0
 11
166.62198407801739
 21
103.68029099499999
 31
0.0
  0
LINE
  5
43F5
  8
0
 10
167.971122303014
 20
63.680290994999922
 30
0.0
 11
166.74666141233701
 21
63.680290994999922
 31
0.0
  0
LINE
  5
43F6
  8
0
 10
153.6219840780175
 20
97.190290994999913
 30
0.0
 11
143.1219840780175
 21
97.190290994999913
 31
0.0
  0
LINE
  5
43F7
  8
0
 10
143.27196142630709
 20
110.1902909949999
 30
0.0
 11
157.9093098515541
 21
110.1902909949999
 31
0.0
  0
LINE
  5
43F8
  8
0
 10
139.1219840780175
 20
108.3802909949999
 30
0.0
 11
139.4219840780174
 21
108.68029099499989
 31
0.0
  0
LINE
  5
43F9
  8
0
 10
139.4219840780174
 20
98.680290994999922
 30
0.0
 11
139.1219840780175
 21
98.980290994999876
 31
0.0
  0
LINE
  5
43FA
  8
0
 10
161.162907365715
 20
107.9802909949999
 30
0.0
 11
163.6219840780175
 21
107.9802909949999
 31
0.0
  0
LINE
  5
43FB
  8
0
 10
139.4219840780174
 20
108.68029099499989
 30
0.0
 11
143.1219840780175
 21
108.68029099499989
 31
0.0
  0
LINE
  5
43FC
  8
0
 10
143.1219840780175
 20
98.680290994999922
 30
0.0
 11
139.4219840780174
 21
98.680290994999922
 31
0.0
  0
POLYLINE
  5
43FD
  8
0
 66
     1
 10
0.0
 20
0.0
 30
0.0
  0
VERTEX
  5
4E44
  8
0
 10
167.8964631052761
 20
83.903669795091304
 30
0.0
  0
VERTEX
  5
4E45
  8
0
 10
167.81383518823159
 20
84.347796221898619
 30
0.0
  0
VERTEX
  5
4E46
  8
0
 10
167.6433213330003
 20
85.239929704027389
 30
0.0
  0
VERTEX
  5
4E47
  8
0
 10
167.46604340853531
 20
86.135480515908256
 30
0.0
  0
VERTEX
  5
4E48
  8
0
 10
167.37496916936311
 20
86.583899650455095
 30
0.0
  0
VERTEX
  5
4E49
  8
0
 10
167.28231864734789
 20
87.032473038349266
 30
0.0
  0
VERTEX
  5
4E4A
  8
0
 10
167.09249169841991
 20
87.929050566528616
 30
0.0
  0
VERTEX
  5
4E4B
  8
0
 10
166.8970120645003
 20
88.823110815198064
 30
0.0
  0
VERTEX
  5
4E4C
  8
0
 10
166.69638943618651
 20
89.712539536783851
 30
0.0
  0
VERTEX
  5
4E4D
  8
0
 10
166.49118681170901
 20
90.595241695785802
 30
0.0
  0
VERTEX
  5
4E4E
  8
0
 10
166.2820137903648
 20
91.469165312416948
 30
0.0
  0
VERTEX
  5
4E4F
  8
0
 10
166.1761417171044
 20
91.90220329453129
 30
0.0
  0
VERTEX
  5
4E50
  8
0
 10
166.06952788243069
 20
92.332288016960405
 30
0.0
  0
VERTEX
  5
4E51
  8
0
 10
165.85444016247669
 20
93.182587632708845
 30
0.0
  0
VERTEX
  5
4E52
  8
0
 10
165.6375094080756
 20
94.018059866577318
 30
0.0
  0
VERTEX
  5
4E53
  8
0
 10
165.41953369590419
 20
94.836741582753319
 30
0.0
  0
VERTEX
  5
4E54
  8
0
 10
165.19902515438659
 20
95.645124112381922
 30
0.0
  0
VERTEX
  5
4E55
  8
0
 10
164.9718503810661
 20
96.458455587624584
 30
0.0
  0
VERTEX
  5
4E56
  8
0
 10
164.85586094497151
 20
96.866498974783525
 30
0.0
  0
VERTEX
  5
4E57
  8
0
 10
164.73835619195091
 20
97.275105119548783
 30
0.0
  0
VERTEX
  5
4E58
  8
0
 10
164.49907425681701
 20
98.092956595302994
 30
0.0
  0
VERTEX
  5
4E59
  8
0
 10
164.25457393763659
 20
98.909951586781034
 30
0.0
  0
VERTEX
  5
4E5A
  8
0
 10
164.13055337929291
 20
99.317505168712813
 30
0.0
  0
SEQEND
  5
4E5B
  8
0
  0
LINE
  5
43FE
  8
0
 10
153.6219840780175
 20
110.1902909949999
 30
0.0
 11
153.6219840780175
 21
97.190290994999913
 31
0.0
  0
POLYLINE
  5
43FF
  8
0
 66
     1
 10
0.0
 20
0.0
 30
0.0
  0
VERTEX
  5
4E5C
  8
0
 10
157.42014259758929
 20
89.424255437609744
 30
0.0
  0
VERTEX
  5
4E5D
  8
0
 10
157.4588400612972
 20
89.330329895505955
 30
0.0
  0
VERTEX
  5
4E5E
  8
0
 10
157.53305987380261
 20
89.141205895210604
 30
0.0
  0
VERTEX
  5
4E5F
  8
0
 10
157.6029956835448
 20
88.950519585394972
 30
0.0
  0
VERTEX
  5
4E60
  8
0
 10
157.63633942771801
 20
88.854643652303466
 30
0.0
  0
VERTEX
  5
4E61
  8
0
 10
157.6685919684239
 20
88.758441511444374
 30
0.0
  0
VERTEX
  5
4E62
  8
0
 10
157.7298013007796
 20
88.565147223791286
 30
0.0
  0
VERTEX
  5
4E63
  8
0
 10
157.78658491231201
 20
88.370816231688735
 30
0.0
  0
VERTEX
  5
4E64
  8
0
 10
157.83891314361131
 20
88.175630910883541
 30
0.0
  0
VERTEX
  5
4E65
  8
0
 10
157.8867657777632
 20
87.979775364289225
 30
0.0
  0
VERTEX
  5
4E66
  8
0
 10
157.93013225669031
 20
87.783434234344867
 30
0.0
  0
VERTEX
  5
4E67
  8
0
 10
157.95013255596879
 20
87.685139120405296
 30
0.0
  0
VERTEX
  5
4E68
  8
0
 10
157.96901177656511
 20
87.586791473275724
 30
0.0
  0
VERTEX
  5
4E69
  8
0
 10
158.0034130477122
 20
87.390030370797575
 30
0.0
  0
VERTEX
  5
4E6A
  8
0
 10
158.03335354659589
 20
87.193337493931807
 30
0.0
  0
VERTEX
  5
4E6B
  8
0
 10
158.0588596796826
 20
86.996903687736435
 30
0.0
  0
VERTEX
  5
4E6C
  8
0
 10
158.0799673108379
 20
86.800922900351992
 30
0.0
  0
VERTEX
  5
4E6D
  8
0
 10
158.09672215559701
 20
86.605590957806456
 30
0.0
  0
VERTEX
  5
4E6E
  8
0
 10
158.10348432856671
 20
86.508229711786015
 30
0.0
  0
VERTEX
  5
4E6F
  8
0
 10
158.1091800362924
 20
86.411104342550487
 30
0.0
  0
VERTEX
  5
4E70
  8
0
 10
158.1174070022991
 20
86.217658975952716
 30
0.0
  0
VERTEX
  5
4E71
  8
0
 10
158.12147931886261
 20
86.025449003086095
 30
0.0
  0
VERTEX
  5
4E72
  8
0
 10
158.1219840780175
 20
85.929867174680538
 30
0.0
  0
SEQEND
  5
4E73
  8
0
  0
POLYLINE
  5
4400
  8
0
 66
     1
 10
0.0
 20
0.0
 30
0.0
  0
VERTEX
  5
4E74
  8
0
 10
167.971122303014
 20
63.680290994999922
 30
0.0
  0
VERTEX
  5
4E75
  8
0
 10
167.97145115996449
 20
63.68036656066689
 30
0.0
  0
VERTEX
  5
4E76
  8
0
 10
167.97402371514721
 20
63.680959240518611
 30
0.0
  0
VERTEX
  5
4E77
  8
0
 10
167.97901194468659
 20
63.682116299529042
 30
0.0
  0
VERTEX
  5
4E78
  8
0
 10
167.98235796360581
 20
63.682898239388209
 30
0.0
  0
VERTEX
  5
4E79
  8
0
 10
167.98624253459431
 20
63.683811887847561
 30
0.0
  0
VERTEX
  5
4E7A
  8
0
 10
167.9955395472978
 20
63.686024115317281
 30
0.0
  0
VERTEX
  5
4E7B
  8
0
 10
168.00673083394281
 20
63.688735049739513
 30
0.0
  0
VERTEX
  5
4E7C
  8
0
 10
168.01965235963601
 20
63.691930496326762
 30
0.0
  0
VERTEX
  5
4E7D
  8
0
 10
168.0341504439925
 20
63.695599561239959
 30
0.0
  0
VERTEX
  5
4E7E
  8
0
 10
168.050082390585
 20
63.699734069595792
 30
0.0
  0
VERTEX
  5
4E7F
  8
0
 10
168.05854439603939
 20
63.701973897588893
 30
0.0
  0
VERTEX
  5
4E80
  8
0
 10
168.06731613062399
 20
63.704327932075977
 30
0.0
  0
VERTEX
  5
4E81
  8
0
 10
168.0857294524582
 20
63.709376550569658
 30
0.0
  0
VERTEX
  5
4E82
  8
0
 10
168.1052099266492
 20
63.714876532759007
 30
0.0
  0
VERTEX
  5
4E83
  8
0
 10
168.12565619081079
 20
63.720825930190102
 30
0.0
  0
VERTEX
  5
4E84
  8
0
 10
168.14697742984271
 20
63.727224109199227
 30
0.0
  0
VERTEX
  5
4E85
  8
0
 10
168.16909204064359
 20
63.734071441374873
 30
0.0
  0
VERTEX
  5
4E86
  8
0
 10
168.18042355057719
 20
63.737663857570361
 30
0.0
  0
VERTEX
  5
4E87
  8
0
 10
168.19192630868901
 20
63.74136900788946
 30
0.0
  0
VERTEX
  5
4E88
  8
0
 10
168.21541320146201
 20
63.749118333296188
 30
0.0
  0
VERTEX
  5
4E89
  8
0
 10
168.23949132686741
 20
63.757321156767233
 30
0.0
  0
VERTEX
  5
4E8A
  8
0
 10
168.25173424344959
 20
63.761593185468861
 30
0.0
  0
VERTEX
  5
4E8B
  8
0
 10
168.32763008163849
 20
63.789623091838251
 30
0.0
  0
VERTEX
  5
4E8C
  8
0
 10
168.48751982824521
 20
63.857746192192707
 30
0.0
  0
VERTEX
  5
4E8D
  8
0
 10
168.65091715096511
 20
63.941050379195502
 30
0.0
  0
VERTEX
  5
4E8E
  8
0
 10
168.81094130916421
 20
64.037561993683397
 30
0.0
  0
VERTEX
  5
4E8F
  8
0
 10
168.9666766773862
 20
64.147648599083453
 30
0.0
  0
VERTEX
  5
4E90
  8
0
 10
169.123305721446
 20
64.277214198286032
 30
0.0
  0
VERTEX
  5
4E91
  8
0
 10
169.20070204176059
 20
64.349398848350873
 30
0.0
  0
VERTEX
  5
4E92
  8
0
 10
169.21348711626521
 20
64.361904842663506
 30
0.0
  0
VERTEX
  5
4E93
  8
0
 10
169.23893764865349
 20
64.387320890698874
 30
0.0
  0
VERTEX
  5
4E94
  8
0
 10
169.26421295705859
 20
64.413272728758642
 30
0.0
  0
VERTEX
  5
4E95
  8
0
 10
169.27677906681009
 20
64.426448355569363
 30
0.0
  0
VERTEX
  5
4E96
  8
0
 10
169.28929440464751
 20
64.439756419200165
 30
0.0
  0
VERTEX
  5
4E97
  8
0
 10
169.3141636540374
 20
64.466767594210722
 30
0.0
  0
VERTEX
  5
4E98
  8
0
 10
169.33880268881009
 20
64.494301477096514
 30
0.0
  0
VERTEX
  5
4E99
  8
0
 10
169.36319383535141
 20
64.522352907433586
 30
0.0
  0
VERTEX
  5
4E9A
  8
0
 10
169.38731978491879
 20
64.550916370460612
 30
0.0
  0
VERTEX
  5
4E9B
  8
0
 10
169.4111636158097
 20
64.579986031111474
 30
0.0
  0
VERTEX
  5
4E9C
  8
0
 10
169.42297456182129
 20
64.59470878630836
 30
0.0
  0
VERTEX
  5
4E9D
  8
0
 10
169.43470907811789
 20
64.609556107934594
 30
0.0
  0
VERTEX
  5
4E9E
  8
0
 10
169.457941084217
 20
64.63962158477247
 30
0.0
  0
VERTEX
  5
4E9F
  8
0
 10
169.48084324626069
 20
64.670175050345705
 30
0.0
  0
VERTEX
  5
4EA0
  8
0
 10
169.50339920453851
 20
64.701208227589376
 30
0.0
  0
VERTEX
  5
4EA1
  8
0
 10
169.52559286729769
 20
64.732712242720112
 30
0.0
  0
VERTEX
  5
4EA2
  8
0
 10
169.54740844108051
 20
64.764677637609083
 30
0.0
  0
VERTEX
  5
4EA3
  8
0
 10
169.55816959823369
 20
64.780830240778144
 30
0.0
  0
VERTEX
  5
4EA4
  8
0
 10
169.5688304612934
 20
64.797094385364716
 30
0.0
  0
VERTEX
  5
4EA5
  8
0
 10
169.58984382297211
 20
64.829951909532454
 30
0.0
  0
VERTEX
  5
4EA6
  8
0
 10
169.6104338116474
 20
64.863239107354815
 30
0.0
  0
VERTEX
  5
4EA7
  8
0
 10
169.6305861342027
 20
64.896944377571202
 30
0.0
  0
VERTEX
  5
4EA8
  8
0
 10
169.65028694955799
 20
64.931055653269112
 30
0.0
  0
VERTEX
  5
4EA9
  8
0
 10
169.66952289900419
 20
64.965560440371945
 30
0.0
  0
VERTEX
  5
4EAA
  8
0
 10
169.6789625132387
 20
64.98295638960505
 30
0.0
  0
VERTEX
  5
4EAB
  8
0
 10
169.68828112643271
 20
65.000445844353379
 30
0.0
  0
VERTEX
  5
4EAC
  8
0
 10
169.7065492033289
 20
65.035698414204916
 30
0.0
  0
VERTEX
  5
4EAD
  8
0
 10
169.72431507469281
 20
65.071303990736936
 30
0.0
  0
VERTEX
  5
4EAE
  8
0
 10
169.74156709791939
 20
65.107247715264606
 30
0.0
  0
VERTEX
  5
4EAF
  8
0
 10
169.75829408814499
 20
65.143514055167401
 30
0.0
  0
VERTEX
  5
4EB0
  8
0
 10
169.7744853629294
 20
65.180086834601269
 30
0.0
  0
VERTEX
  5
4EB1
  8
0
 10
169.78237691694699
 20
65.198482917142286
 30
0.0
  0
VERTEX
  5
4EB2
  8
0
 10
169.79013078603609
 20
65.216949270901935
 30
0.0
  0
VERTEX
  5
4EB3
  8
0
 10
169.80522081002019
 20
65.254084017256986
 30
0.0
  0
VERTEX
  5
4EB4
  8
0
 10
169.8197465172818
 20
65.291473212247155
 30
0.0
  0
VERTEX
  5
4EB5
  8
0
 10
169.83369965918109
 20
65.329098536894065
 30
0.0
  0
VERTEX
  5
4EB6
  8
0
 10
169.8470726927485
 20
65.366941279863426
 30
0.0
  0
VERTEX
  5
4EB7
  8
0
 10
169.8599211332421
 20
65.405172696272501
 30
0.0
  0
VERTEX
  5
4EB8
  8
0
 10
169.8661849279226
 20
65.424557574005092
 30
0.0
  0
VERTEX
  5
4EB9
  8
0
 10
169.8723368788196
 20
65.444120650340409
 30
0.0
  0
VERTEX
  5
4EBA
  8
0
 10
169.88428830752119
 20
65.483769674535637
 30
0.0
  0
VERTEX
  5
4EBB
  8
0
 10
169.89574212216959
 20
65.524095536720978
 30
0.0
  0
VERTEX
  5
4EBC
  8
0
 10
169.90127229209381
 20
65.544504380521943
 30
0.0
  0
VERTEX
  5
4EBD
  8
0
 10
169.9066660347564
 20
65.565072811057206
 30
0.0
  0
VERTEX
  5
4EBE
  8
0
 10
169.91702886394199
 20
65.606674977737583
 30
0.0
  0
VERTEX
  5
4EBF
  8
0
 10
169.92680062604629
 20
65.648874543337996
 30
0.0
  0
VERTEX
  5
4EC0
  8
0
 10
169.93145583509269
 20
65.670189527590736
 30
0.0
  0
VERTEX
  5
4EC1
  8
0
 10
169.93595261779359
 20
65.691643184200501
 30
0.0
  0
VERTEX
  5
4EC2
  8
0
 10
169.94445748869839
 20
65.73495191513868
 30
0.0
  0
VERTEX
  5
4EC3
  8
0
 10
169.95228930047071
 20
65.778771284909766
 30
0.0
  0
VERTEX
  5
4EC4
  8
0
 10
169.95942353562921
 20
65.823071370184238
 30
0.0
  0
VERTEX
  5
4EC5
  8
0
 10
169.96583701255781
 20
65.867821062417846
 30
0.0
  0
VERTEX
  5
4EC6
  8
0
 10
169.9715079361635
 20
65.912987854333863
 30
0.0
  0
VERTEX
  5
4EC7
  8
0
 10
169.97405853673919
 20
65.935717162461486
 30
0.0
  0
VERTEX
  5
4EC8
  8
0
 10
169.9764160110478
 20
65.958538008011004
 30
0.0
  0
VERTEX
  5
4EC9
  8
0
 10
169.98054254122661
 20
66.004436749390564
 30
0.0
  0
VERTEX
  5
4ECA
  8
0
 10
169.9838705128943
 20
66.050648483139156
 30
0.0
  0
VERTEX
  5
4ECB
  8
0
 10
169.9863846578732
 20
66.097137029172444
 30
0.0
  0
VERTEX
  5
4ECC
  8
0
 10
169.98807149514749
 20
66.143865881809319
 30
0.0
  0
VERTEX
  5
4ECD
  8
0
 10
169.98891934989629
 20
66.190798739078645
 30
0.0
  0
VERTEX
  5
4ECE
  8
0
 10
169.9890254966935
 20
66.214334479767871
 30
0.0
  0
VERTEX
  5
4ECF
  8
0
 10
169.98891820203559
 20
66.237912819725665
 30
0.0
  0
VERTEX
  5
4ED0
  8
0
 10
169.98805902041931
 20
66.285177867999522
 30
0.0
  0
VERTEX
  5
4ED1
  8
0
 10
169.9863344970197
 20
66.332554682071049
 30
0.0
  0
VERTEX
  5
4ED2
  8
0
 10
169.98514599105329
 20
66.35627264883837
 30
0.0
  0
SEQEND
  5
4ED3
  8
0
  0
POLYLINE
  5
4401
  8
0
 66
     1
 10
0.0
 20
0.0
 30
0.0
  0
VERTEX
  5
4ED4
  8
0
 10
169.98514599105329
 20
66.35627264883837
 30
0.0
  0
VERTEX
  5
4ED5
  8
0
 10
169.9838885215386
 20
66.379230639070514
 30
0.0
  0
VERTEX
  5
4ED6
  8
0
 10
169.98135914029029
 20
66.425200504793992
 30
0.0
  0
VERTEX
  5
4ED7
  8
0
 10
169.97881116735761
 20
66.47122915616157
 30
0.0
  0
VERTEX
  5
4ED8
  8
0
 10
169.97753046449381
 20
66.494260603765582
 30
0.0
  0
VERTEX
  5
4ED9
  8
0
 10
169.9762454230042
 20
66.517300838901832
 30
0.0
  0
VERTEX
  5
4EDA
  8
0
 10
169.97366273336249
 20
66.563400067989136
 30
0.0
  0
VERTEX
  5
4EDB
  8
0
 10
169.97106394684849
 20
66.609511330032973
 30
0.0
  0
VERTEX
  5
4EDC
  8
0
 10
169.96844995051489
 20
66.655618796953462
 30
0.0
  0
VERTEX
  5
4EDD
  8
0
 10
169.96582166484879
 20
66.701706426288041
 30
0.0
  0
VERTEX
  5
4EDE
  8
0
 10
169.96318004225711
 20
66.747757993536396
 30
0.0
  0
VERTEX
  5
4EDF
  8
0
 10
169.96185453557791
 20
66.770765141916598
 30
0.0
  0
VERTEX
  5
4EE0
  8
0
 10
169.9605260654684
 20
66.793757124553139
 30
0.0
  0
VERTEX
  5
4EE1
  8
0
 10
169.9578607458443
 20
66.839687327984933
 30
0.0
  0
VERTEX
  5
4EE2
  8
0
 10
169.95518512160541
 20
66.885532027756284
 30
0.0
  0
VERTEX
  5
4EE3
  8
0
 10
169.9525002559655
 20
66.931274595622398
 30
0.0
  0
VERTEX
  5
4EE4
  8
0
 10
169.94980723517691
 20
66.976898383819574
 30
0.0
  0
VERTEX
  5
4EE5
  8
0
 10
169.94710716648021
 20
67.022386757848807
 30
0.0
  0
VERTEX
  5
4EE6
  8
0
 10
169.94575484039251
 20
67.045074978005303
 30
0.0
  0
VERTEX
  5
4EE7
  8
0
 10
169.94440117595991
 20
67.067723129444602
 30
0.0
  0
VERTEX
  5
4EE8
  8
0
 10
169.94169040629859
 20
67.112890989786663
 30
0.0
  0
VERTEX
  5
4EE9
  8
0
 10
169.93897601443021
 20
67.157873943023191
 30
0.0
  0
VERTEX
  5
4EEA
  8
0
 10
169.93761782500471
 20
67.180290994999922
 30
0.0
  0
SEQEND
  5
4EEB
  8
0
  0
POLYLINE
  5
4402
  8
0
 66
     1
 10
0.0
 20
0.0
 30
0.0
  0
VERTEX
  5
4EEC
  8
0
 10
161.6636077586904
 20
67.180290994999922
 30
0.0
  0
VERTEX
  5
4EED
  8
0
 10
161.67724996208719
 20
67.15179887929034
 30
0.0
  0
VERTEX
  5
4EEE
  8
0
 10
161.70501930431851
 20
67.094933960425664
 30
0.0
  0
VERTEX
  5
4EEF
  8
0
 10
161.73343201928691
 20
67.038242506994806
 30
0.0
  0
VERTEX
  5
4EF0
  8
0
 10
161.74787830839699
 20
67.009967224214023
 30
0.0
  0
VERTEX
  5
4EF1
  8
0
 10
161.76248377291239
 20
66.981741776544339
 30
0.0
  0
VERTEX
  5
4EF2
  8
0
 10
161.79216969263089
 20
66.925448973418241
 30
0.0
  0
VERTEX
  5
4EF3
  8
0
 10
161.82248438668151
 20
66.869381193201065
 30
0.0
  0
VERTEX
  5
4EF4
  8
0
 10
161.85342196552941
 20
66.813555370057628
 30
0.0
  0
VERTEX
  5
4EF5
  8
0
 10
161.88497606518649
 20
66.757988227163509
 30
0.0
  0
VERTEX
  5
4EF6
  8
0
 10
161.91713987220831
 20
66.702696230367081
 30
0.0
  0
VERTEX
  5
4EF7
  8
0
 10
161.93344817036629
 20
66.675158476313385
 30
0.0
  0
VERTEX
  5
4EF8
  8
0
 10
161.94990615015371
 20
66.647695545165064
 30
0.0
  0
VERTEX
  5
4EF9
  8
0
 10
161.98326726730801
 20
66.593001997031223
 30
0.0
  0
VERTEX
  5
4EFA
  8
0
 10
162.0172152254838
 20
66.538631035090901
 30
0.0
  0
VERTEX
  5
4EFB
  8
0
 10
162.05174168973349
 20
66.484597699103432
 30
0.0
  0
VERTEX
  5
4EFC
  8
0
 10
162.0868380188171
 20
66.430916589683264
 30
0.0
  0
VERTEX
  5
4EFD
  8
0
 10
162.12249529629341
 20
66.377601841664699
 30
0.0
  0
VERTEX
  5
4EFE
  8
0
 10
162.140531436755
 20
66.351086137160081
 30
0.0
  0
VERTEX
  5
4EFF
  8
0
 10
162.15870435751299
 20
66.324667107142062
 30
0.0
  0
VERTEX
  5
4F00
  8
0
 10
162.19545571713479
 20
66.272125681750666
 30
0.0
  0
VERTEX
  5
4F01
  8
0
 10
162.2327394352819
 20
66.219990699725912
 30
0.0
  0
VERTEX
  5
4F02
  8
0
 10
162.2515776975012
 20
66.194079683547528
 30
0.0
  0
VERTEX
  5
4F03
  8
0
 10
162.2705451168124
 20
66.168275123380184
 30
0.0
  0
VERTEX
  5
4F04
  8
0
 10
162.30886193350921
 20
66.116991702560398
 30
0.0
  0
VERTEX
  5
4F05
  8
0
 10
162.3476786468047
 20
66.066152937590658
 30
0.0
  0
VERTEX
  5
4F06
  8
0
 10
162.36727084611789
 20
66.040904130794246
 30
0.0
  0
VERTEX
  5
4F07
  8
0
 10
162.3869836309652
 20
66.015771045495583
 30
0.0
  0
VERTEX
  5
4F08
  8
0
 10
162.42676489659669
 20
65.965857929392044
 30
0.0
  0
VERTEX
  5
4F09
  8
0
 10
162.46701011436221
 20
65.91642515091641
 30
0.0
  0
VERTEX
  5
4F0A
  8
0
 10
162.5077066388146
 20
65.867483905536773
 30
0.0
  0
VERTEX
  5
4F0B
  8
0
 10
162.54884153227161
 20
65.81904500059008
 30
0.0
  0
VERTEX
  5
4F0C
  8
0
 10
162.59040158867739
 20
65.771118835877104
 30
0.0
  0
VERTEX
  5
4F0D
  8
0
 10
162.61133685857041
 20
65.747351165375875
 30
0.0
  0
VERTEX
  5
4F0E
  8
0
 10
162.63237335740899
 20
65.723715386643406
 30
0.0
  0
VERTEX
  5
4F0F
  8
0
 10
162.6747431670039
 20
65.676844188776016
 30
0.0
  0
VERTEX
  5
4F10
  8
0
 10
162.71749714879749
 20
65.630514326045699
 30
0.0
  0
VERTEX
  5
4F11
  8
0
 10
162.7606237555899
 20
65.584731797483386
 30
0.0
  0
VERTEX
  5
4F12
  8
0
 10
162.8041130446843
 20
65.539500535870133
 30
0.0
  0
VERTEX
  5
4F13
  8
0
 10
162.8479507470324
 20
65.494828576118692
 30
0.0
  0
VERTEX
  5
4F14
  8
0
 10
162.86999567883069
 20
65.47270479470771
 30
0.0
  0
VERTEX
  5
4F15
  8
0
 10
162.89212218311781
 20
65.45072375567733
 30
0.0
  0
VERTEX
  5
4F16
  8
0
 10
162.9366123465247
 20
65.40719362185277
 30
0.0
  0
VERTEX
  5
4F17
  8
0
 10
162.981405923756
 20
65.364245409839981
 30
0.0
  0
VERTEX
  5
4F18
  8
0
 10
163.1403452180293
 20
65.218605782526737
 30
0.0
  0
VERTEX
  5
4F19
  8
0
 10
163.4189972573927
 20
64.986430801407863
 30
0.0
  0
VERTEX
  5
4F1A
  8
0
 10
163.7022605534325
 20
64.777093335067505
 30
0.0
  0
VERTEX
  5
4F1B
  8
0
 10
163.8443937822249
 20
64.681145966051844
 30
0.0
  0
VERTEX
  5
4F1C
  8
0
 10
163.98617187406941
 20
64.591040825782642
 30
0.0
  0
VERTEX
  5
4F1D
  8
0
 10
164.26910327487369
 20
64.426851929186881
 30
0.0
  0
VERTEX
  5
4F1E
  8
0
 10
164.55699776934401
 20
64.279581243555043
 30
0.0
  0
VERTEX
  5
4F1F
  8
0
 10
164.84726022368929
 20
64.149746719669864
 30
0.0
  0
VERTEX
  5
4F20
  8
0
 10
165.1362012719064
 20
64.037851574436871
 30
0.0
  0
VERTEX
  5
4F21
  8
0
 10
165.42001122972081
 20
63.943834227580481
 30
0.0
  0
VERTEX
  5
4F22
  8
0
 10
165.55875411924171
 20
63.903370746908507
 30
0.0
  0
VERTEX
  5
4F23
  8
0
 10
165.69471051899129
 20
63.86712401952056
 30
0.0
  0
VERTEX
  5
4F24
  8
0
 10
165.95730300685381
 20
63.806432016711447
 30
0.0
  0
VERTEX
  5
4F25
  8
0
 10
166.2073942973268
 20
63.759767205727123
 30
0.0
  0
VERTEX
  5
4F26
  8
0
 10
166.32623327516529
 20
63.741325096808588
 30
0.0
  0
SEQEND
  5
4F27
  8
0
  0
POLYLINE
  5
4403
  8
0
 66
     1
 10
0.0
 20
0.0
 30
0.0
  0
VERTEX
  5
4F28
  8
0
 10
166.32623327516529
 20
63.741325096808588
 30
0.0
  0
VERTEX
  5
4F29
  8
0
 10
166.3492024890167
 20
63.737990626032882
 30
0.0
  0
VERTEX
  5
4F2A
  8
0
 10
166.39322039002371
 20
63.731600489850358
 30
0.0
  0
VERTEX
  5
4F2B
  8
0
 10
166.4346736575298
 20
63.725582664863019
 30
0.0
  0
VERTEX
  5
4F2C
  8
0
 10
166.45443714439739
 20
63.722713573660798
 30
0.0
  0
VERTEX
  5
4F2D
  8
0
 10
166.4735578163538
 20
63.719937800738727
 30
0.0
  0
VERTEX
  5
4F2E
  8
0
 10
166.50986866866759
 20
63.71466650688145
 30
0.0
  0
VERTEX
  5
4F2F
  8
0
 10
166.5436022944516
 20
63.709769352365782
 30
0.0
  0
VERTEX
  5
4F30
  8
0
 10
166.57475505191539
 20
63.705246865875068
 30
0.0
  0
VERTEX
  5
4F31
  8
0
 10
166.6033235778925
 20
63.701099535644602
 30
0.0
  0
VERTEX
  5
4F32
  8
0
 10
166.62930478820309
 20
63.697327809408847
 30
0.0
  0
VERTEX
  5
4F33
  8
0
 10
166.64132426254531
 20
63.695582926619601
 30
0.0
  0
VERTEX
  5
4F34
  8
0
 10
166.65269587798699
 20
63.69393209435313
 30
0.0
  0
VERTEX
  5
4F35
  8
0
 10
166.67349432200581
 20
63.690912757069299
 30
0.0
  0
VERTEX
  5
4F36
  8
0
 10
166.6916978749164
 20
63.688270123517071
 30
0.0
  0
VERTEX
  5
4F37
  8
0
 10
166.70730457151311
 20
63.686004478987648
 30
0.0
  0
VERTEX
  5
4F38
  8
0
 10
166.7203127269394
 20
63.684116068073962
 30
0.0
  0
VERTEX
  5
4F39
  8
0
 10
166.73072093687099
 20
63.682605094643769
 30
0.0
  0
VERTEX
  5
4F3A
  8
0
 10
166.73494970017029
 20
63.68199119955225
 30
0.0
  0
VERTEX
  5
4F3B
  8
0
 10
166.73559126492569
 20
63.681898062758677
 30
0.0
  0
VERTEX
  5
4F3C
  8
0
 10
166.736820193591
 20
63.681719657579229
 30
0.0
  0
VERTEX
  5
4F3D
  8
0
 10
166.7379768514129
 20
63.681551744052491
 30
0.0
  0
VERTEX
  5
4F3E
  8
0
 10
166.73852807766539
 20
63.681471721817474
 30
0.0
  0
VERTEX
  5
4F3F
  8
0
 10
166.7390612349231
 20
63.681394322681932
 30
0.0
  0
VERTEX
  5
4F40
  8
0
 10
166.74007334086991
 20
63.681247393939742
 30
0.0
  0
VERTEX
  5
4F41
  8
0
 10
166.7410131662177
 20
63.68111095826643
 30
0.0
  0
VERTEX
  5
4F42
  8
0
 10
166.7418807081485
 20
63.680985016071283
 30
0.0
  0
VERTEX
  5
4F43
  8
0
 10
166.7426759640602
 20
63.680869567731833
 30
0.0
  0
VERTEX
  5
4F44
  8
0
 10
166.74339893156841
 20
63.680764613594278
 30
0.0
  0
VERTEX
  5
4F45
  8
0
 10
166.74373330648541
 20
63.680716071950968
 30
0.0
  0
VERTEX
  5
4F46
  8
0
 10
166.74404960850501
 20
63.680670153973523
 30
0.0
  0
VERTEX
  5
4F47
  8
0
 10
166.74462799291859
 20
63.680586189152763
 30
0.0
  0
VERTEX
  5
4F48
  8
0
 10
166.74513408307479
 20
63.680512719383813
 30
0.0
  0
VERTEX
  5
4F49
  8
0
 10
166.74556787745561
 20
63.680449744886999
 30
0.0
  0
VERTEX
  5
4F4A
  8
0
 10
166.74592937476061
 20
63.680397265851042
 30
0.0
  0
VERTEX
  5
4F4B
  8
0
 10
166.7462185739054
 20
63.680355282433389
 30
0.0
  0
VERTEX
  5
4F4C
  8
0
 10
166.74633606138829
 20
63.680338226622069
 30
0.0
  0
VERTEX
  5
4F4D
  8
0
 10
166.74643547402289
 20
63.680323794760021
 30
0.0
  0
VERTEX
  5
4F4E
  8
0
 10
166.7465800744626
 20
63.680302802925411
 30
0.0
  0
VERTEX
  5
4F4F
  8
0
 10
166.74665237479101
 20
63.6802923069923
 30
0.0
  0
VERTEX
  5
4F50
  8
0
 10
166.74666141233701
 20
63.680290994999922
 30
0.0
  0
SEQEND
  5
4F51
  8
0
  0
POLYLINE
  5
4404
  8
0
 66
     1
 10
0.0
 20
0.0
 30
0.0
  0
VERTEX
  5
4F52
  8
0
 10
169.93761782500471
 20
67.180290994999922
 30
0.0
  0
VERTEX
  5
4F53
  8
0
 10
169.7528131647382
 20
69.811618053563024
 30
0.0
  0
VERTEX
  5
4F54
  8
0
 10
169.233051197695
 20
75.061328807040212
 30
0.0
  0
VERTEX
  5
4F55
  8
0
 10
168.51374433803039
 20
80.287437602233666
 30
0.0
  0
VERTEX
  5
4F56
  8
0
 10
168.0795764192471
 20
82.889270239026786
 30
0.0
  0
SEQEND
  5
4F57
  8
0
  0
LINE
  5
4405
  8
0
 10
158.1219840780175
 20
85.929867174680538
 30
0.0
 11
158.1219840780175
 21
80.633622410627567
 31
0.0
  0
POLYLINE
  5
4406
  8
0
 66
     1
 10
0.0
 20
0.0
 30
0.0
  0
VERTEX
  5
4F58
  8
0
 10
158.1219840780175
 20
80.633622410627567
 30
0.0
  0
VERTEX
  5
4F59
  8
0
 10
158.1222495877025
 20
80.564299580306809
 30
0.0
  0
VERTEX
  5
4F5A
  8
0
 10
158.1243735717091
 20
80.425670189820124
 30
0.0
  0
VERTEX
  5
4F5B
  8
0
 10
158.12862104122061
 20
80.287089605979844
 30
0.0
  0
VERTEX
  5
4F5C
  8
0
 10
158.1315407909762
 20
80.217827781282239
 30
0.0
  0
VERTEX
  5
4F5D
  8
0
 10
158.13499099935049
 20
80.148590353822414
 30
0.0
  0
VERTEX
  5
4F5E
  8
0
 10
158.14348195106211
 20
80.010204939295434
 30
0.0
  0
VERTEX
  5
4F5F
  8
0
 10
158.15409190351781
 20
79.871965841628906
 30
0.0
  0
VERTEX
  5
4F60
  8
0
 10
158.1668183665488
 20
79.733905505712045
 30
0.0
  0
VERTEX
  5
4F61
  8
0
 10
158.18165835323839
 20
79.596056334478334
 30
0.0
  0
VERTEX
  5
4F62
  8
0
 10
158.1986083806228
 20
79.458450681300832
 30
0.0
  0
VERTEX
  5
4F63
  8
0
 10
158.20787343571081
 20
79.38974926899138
 30
0.0
  0
VERTEX
  5
4F64
  8
0
 10
158.21766447050979
 20
79.321120842398358
 30
0.0
  0
VERTEX
  5
4F65
  8
0
 10
158.2388221504109
 20
79.184099049255877
 30
0.0
  0
VERTEX
  5
4F66
  8
0
 10
158.26207645459249
 20
79.047417461059894
 30
0.0
  0
VERTEX
  5
4F67
  8
0
 10
158.28742192523981
 20
78.911108157149869
 30
0.0
  0
VERTEX
  5
4F68
  8
0
 10
158.3148526137397
 20
78.775203129490222
 30
0.0
  0
VERTEX
  5
4F69
  8
0
 10
158.34436208207509
 20
78.639734275160748
 30
0.0
  0
VERTEX
  5
4F6A
  8
0
 10
158.35989421334889
 20
78.572173353044676
 30
0.0
  0
VERTEX
  5
4F6B
  8
0
 10
158.37594340433679
 20
78.504733388871244
 30
0.0
  0
VERTEX
  5
4F6C
  8
0
 10
158.4095891683487
 20
78.370232155498428
 30
0.0
  0
VERTEX
  5
4F6D
  8
0
 10
158.44529147740849
 20
78.236262142650133
 30
0.0
  0
VERTEX
  5
4F6E
  8
0
 10
158.4639112365773
 20
78.169486174910361
 30
0.0
  0
SEQEND
  5
4F6F
  8
0
  0
LINE
  5
4407
  8
0
 10
158.4639112365773
 20
78.169486174910361
 30
0.0
 11
161.30032002275081
 21
68.145830031194663
 31
0.0
  0
POLYLINE
  5
4408
  8
0
 66
     1
 10
0.0
 20
0.0
 30
0.0
  0
VERTEX
  5
4F70
  8
0
 10
161.30032002275081
 20
68.145830031194663
 30
0.0
  0
VERTEX
  5
4F71
  8
0
 10
161.34950588355099
 20
67.980872642818412
 30
0.0
  0
VERTEX
  5
4F72
  8
0
 10
161.46164966439389
 20
67.655417208152556
 30
0.0
  0
VERTEX
  5
4F73
  8
0
 10
161.59185645052301
 20
67.336758047949814
 30
0.0
  0
VERTEX
  5
4F74
  8
0
 10
161.6636077586904
 20
67.180290994999922
 30
0.0
  0
SEQEND
  5
4F75
  8
0
  0
POLYLINE
  5
4409
  8
0
 66
     1
 10
0.0
 20
0.0
 30
0.0
  0
VERTEX
  5
4F76
  8
0
 10
168.0795764192471
 20
82.889270239026786
 30
0.0
  0
VERTEX
  5
4F77
  8
0
 10
168.04989525222641
 20
83.056670107473195
 30
0.0
  0
VERTEX
  5
4F78
  8
0
 10
167.98975516113131
 20
83.392254271199675
 30
0.0
  0
VERTEX
  5
4F79
  8
0
 10
167.92787812396841
 20
83.732666678250965
 30
0.0
  0
VERTEX
  5
4F7A
  8
0
 10
167.8964631052761
 20
83.903669795091304
 30
0.0
  0
SEQEND
  5
4F7B
  8
0
  0
POLYLINE
  5
440A
  8
0
 66
     1
 10
0.0
 20
0.0
 30
0.0
  0
VERTEX
  5
4F7C
  8
0
 10
164.13055337929291
 20
99.317505168712813
 30
0.0
  0
VERTEX
  5
4F7D
  8
0
 10
164.12000143216369
 20
99.351974195594366
 30
0.0
  0
VERTEX
  5
4F7E
  8
0
 10
164.0986881605136
 20
99.42149865758617
 30
0.0
  0
VERTEX
  5
4F7F
  8
0
 10
164.0770992618034
 20
99.491789763227501
 30
0.0
  0
VERTEX
  5
4F80
  8
0
 10
164.06620283517461
 20
99.527216938182136
 30
0.0
  0
VERTEX
  5
4F81
  8
0
 10
164.0552391894698
 20
99.562828650777746
 30
0.0
  0
VERTEX
  5
4F82
  8
0
 10
164.03311262021111
 20
99.634595828578512
 30
0.0
  0
VERTEX
  5
4F83
  8
0
 10
164.01072444494929
 20
99.707071214168394
 30
0.0
  0
VERTEX
  5
4F84
  8
0
 10
163.98807975934841
 20
99.780234174473406
 30
0.0
  0
VERTEX
  5
4F85
  8
0
 10
163.96518385387
 20
99.854063567083671
 30
0.0
  0
VERTEX
  5
4F86
  8
0
 10
163.94204220335041
 20
99.928537782635175
 30
0.0
  0
VERTEX
  5
4F87
  8
0
 10
163.93038098232361
 20
99.966009829088733
 30
0.0
  0
VERTEX
  5
4F88
  8
0
 10
163.91866045607659
 20
100.0036347883195
 30
0.0
  0
VERTEX
  5
4F89
  8
0
 10
163.8950444223417
 20
100.07933217255341
 30
0.0
  0
VERTEX
  5
4F8A
  8
0
 10
163.87120006245249
 20
100.1556071908403
 30
0.0
  0
VERTEX
  5
4F8B
  8
0
 10
163.84713347416709
 20
100.23243681286741
 30
0.0
  0
VERTEX
  5
4F8C
  8
0
 10
163.82285087953551
 20
100.3097977708784
 30
0.0
  0
VERTEX
  5
4F8D
  8
0
 10
163.79835861111491
 20
100.38766660937
 30
0.0
  0
VERTEX
  5
4F8E
  8
0
 10
163.78603585483569
 20
100.4267841151532
 30
0.0
  0
VERTEX
  5
4F8F
  8
0
 10
163.77366285165701
 20
100.4660205154632
 30
0.0
  0
VERTEX
  5
4F90
  8
0
 10
163.7487668440337
 20
100.5448461402401
 30
0.0
  0
VERTEX
  5
4F91
  8
0
 10
163.72367617709841
 20
100.624122819297
 30
0.0
  0
VERTEX
  5
4F92
  8
0
 10
163.71105996638741
 20
100.66392271048311
 30
0.0
  0
VERTEX
  5
4F93
  8
0
 10
163.69839766168889
 20
100.7038261912883
 30
0.0
  0
VERTEX
  5
4F94
  8
0
 10
163.67293832018089
 20
100.7839314152455
 30
0.0
  0
VERTEX
  5
4F95
  8
0
 10
163.64730537568701
 20
100.86441321238929
 30
0.0
  0
VERTEX
  5
4F96
  8
0
 10
163.63442611169799
 20
100.9047873169648
 30
0.0
  0
VERTEX
  5
4F97
  8
0
 10
163.621506240918
 20
100.9452459083919
 30
0.0
  0
VERTEX
  5
4F98
  8
0
 10
163.5955485066979
 20
101.02640347610161
 30
0.0
  0
VERTEX
  5
4F99
  8
0
 10
163.569439930116
 20
101.1078595787466
 30
0.0
  0
VERTEX
  5
4F9A
  8
0
 10
163.54318842230049
 20
101.1895876136501
 30
0.0
  0
VERTEX
  5
4F9B
  8
0
 10
163.51680203579281
 20
101.2715607564956
 30
0.0
  0
VERTEX
  5
4F9C
  8
0
 10
163.49028895149669
 20
101.35375200619561
 30
0.0
  0
VERTEX
  5
4F9D
  8
0
 10
163.47698748599689
 20
101.39492094613
 30
0.0
  0
VERTEX
  5
4F9E
  8
0
 10
163.46365746517861
 20
101.43613423042009
 30
0.0
  0
VERTEX
  5
4F9F
  8
0
 10
163.43691597348811
 20
101.5186802118566
 30
0.0
  0
VERTEX
  5
4FA0
  8
0
 10
163.41007295946929
 20
101.6013626952782
 30
0.0
  0
VERTEX
  5
4FA1
  8
0
 10
163.38313697792159
 20
101.68415443428231
 30
0.0
  0
VERTEX
  5
4FA2
  8
0
 10
163.35611667369761
 20
101.7670281363465
 30
0.0
  0
VERTEX
  5
4FA3
  8
0
 10
163.32902087346329
 20
101.8499561837957
 30
0.0
  0
VERTEX
  5
4FA4
  8
0
 10
163.315447477064
 20
101.8914318482866
 30
0.0
  0
VERTEX
  5
4FA5
  8
0
 10
163.30185860885311
 20
101.93291056745529
 30
0.0
  0
VERTEX
  5
4FA6
  8
0
 10
163.27463910367939
 20
102.0158629303946
 30
0.0
  0
VERTEX
  5
4FA7
  8
0
 10
163.24737176044931
 20
102.0987846130289
 30
0.0
  0
VERTEX
  5
4FA8
  8
0
 10
163.15169879235691
 20
102.3883495964692
 30
0.0
  0
VERTEX
  5
4FA9
  8
0
 10
162.98782377191151
 20
102.8794347785941
 30
0.0
  0
VERTEX
  5
4FAA
  8
0
 10
162.82068946981161
 20
103.37409498139679
 30
0.0
  0
VERTEX
  5
4FAB
  8
0
 10
162.7347021799041
 20
103.62621892588599
 30
0.0
  0
VERTEX
  5
4FAC
  8
0
 10
162.64739121302111
 20
103.8806136995841
 30
0.0
  0
VERTEX
  5
4FAD
  8
0
 10
162.54415288108291
 20
104.1793589751707
 30
0.0
  0
VERTEX
  5
4FAE
  8
0
 10
162.51443073282121
 20
104.2649599298299
 30
0.0
  0
VERTEX
  5
4FAF
  8
0
 10
162.48462366149511
 20
104.3506244613157
 30
0.0
  0
VERTEX
  5
4FB0
  8
0
 10
162.4696909320723
 20
104.3934727975666
 30
0.0
  0
VERTEX
  5
4FB1
  8
0
 10
162.45474016754699
 20
104.43632769244159
 30
0.0
  0
VERTEX
  5
4FB2
  8
0
 10
162.42478884965109
 20
104.52204467333659
 30
0.0
  0
VERTEX
  5
4FB3
  8
0
 10
162.39477839092481
 20
104.6077504220608
 30
0.0
  0
VERTEX
  5
4FB4
  8
0
 10
162.36471754515759
 20
104.6934199645118
 30
0.0
  0
VERTEX
  5
4FB5
  8
0
 10
162.33461512303231
 20
104.77902837370441
 30
0.0
  0
VERTEX
  5
4FB6
  8
0
 10
162.30447997831169
 20
104.86455080849871
 30
0.0
  0
VERTEX
  5
4FB7
  8
0
 10
162.289402910148
 20
104.9072720555359
 30
0.0
  0
VERTEX
  5
4FB8
  8
0
 10
162.27432099397279
 20
104.94996255185249
 30
0.0
  0
VERTEX
  5
4FB9
  8
0
 10
162.2441470682613
 20
105.0352390486678
 30
0.0
  0
VERTEX
  5
4FBA
  8
0
 10
162.21396710064869
 20
105.1203559432977
 30
0.0
  0
VERTEX
  5
4FBB
  8
0
 10
162.18378997767331
 20
105.2052891167742
 30
0.0
  0
VERTEX
  5
4FBC
  8
0
 10
162.1536245586471
 20
105.290014723816
 30
0.0
  0
VERTEX
  5
4FBD
  8
0
 10
162.12347966121609
 20
105.374509229666
 30
0.0
  0
VERTEX
  5
4FBE
  8
0
 10
162.10841764862991
 20
105.4166625589783
 30
0.0
  0
VERTEX
  5
4FBF
  8
0
 10
162.0933635342937
 20
105.4587508788232
 30
0.0
  0
VERTEX
  5
4FC0
  8
0
 10
162.06328131025629
 20
105.5427267810724
 30
0.0
  0
VERTEX
  5
4FC1
  8
0
 10
162.0332410758524
 20
105.62641592509971
 30
0.0
  0
VERTEX
  5
4FC2
  8
0
 10
162.0032516793319
 20
105.709795350037
 30
0.0
  0
VERTEX
  5
4FC3
  8
0
 10
161.97332202038129
 20
105.7928421319745
 30
0.0
  0
VERTEX
  5
4FC4
  8
0
 10
161.94346103488081
 20
105.8755334242971
 30
0.0
  0
VERTEX
  5
4FC5
  8
0
 10
161.92855909330339
 20
105.91673865315229
 30
0.0
  0
VERTEX
  5
4FC6
  8
0
 10
161.91367767975359
 20
105.957846497161
 30
0.0
  0
VERTEX
  5
4FC7
  8
0
 10
161.88398091789051
 20
106.0397587761784
 30
0.0
  0
VERTEX
  5
4FC8
  8
0
 10
161.85437970313129
 20
106.1212478803773
 30
0.0
  0
VERTEX
  5
4FC9
  8
0
 10
161.82488296528271
 20
106.20229165950521
 30
0.0
  0
VERTEX
  5
4FCA
  8
0
 10
161.79549959516109
 20
106.2828682307421
 30
0.0
  0
VERTEX
  5
4FCB
  8
0
 10
161.76623842963861
 20
106.36295601489
 30
0.0
  0
VERTEX
  5
4FCC
  8
0
 10
161.75165641669119
 20
106.40280996012901
 30
0.0
  0
VERTEX
  5
4FCD
  8
0
 10
161.73710823667651
 20
106.4425337721016
 30
0.0
  0
VERTEX
  5
4FCE
  8
0
 10
161.7081177003331
 20
106.5215806372095
 30
0.0
  0
VERTEX
  5
4FCF
  8
0
 10
161.6792754057283
 20
106.6000761547166
 30
0.0
  0
VERTEX
  5
4FD0
  8
0
 10
161.66491250116201
 20
106.63911088634261
 30
0.0
  0
VERTEX
  5
4FD1
  8
0
 10
161.5796162922434
 20
106.8701829732863
 30
0.0
  0
VERTEX
  5
4FD2
  8
0
 10
161.41426571788969
 20
107.3145654711778
 30
0.0
  0
VERTEX
  5
4FD3
  8
0
 10
161.2573559367604
 20
107.7320153281788
 30
0.0
  0
VERTEX
  5
4FD4
  8
0
 10
161.1816155512881
 20
107.9320701249133
 30
0.0
  0
SEQEND
  5
4FD5
  8
0
  0
LINE
  5
440B
  8
0
 10
143.1219840780175
 20
110.0403136467102
 30
0.0
 11
143.1219840780175
 21
97.190290994999913
 31
0.0
  0
POLYLINE
  5
440C
  8
0
 66
     1
 10
0.0
 20
0.0
 30
0.0
  0
VERTEX
  5
4FD6
  8
0
 10
153.6219840780175
 20
97.190290994999913
 30
0.0
  0
VERTEX
  5
4FD7
  8
0
 10
153.7346143772549
 20
96.989763968989308
 30
0.0
  0
VERTEX
  5
4FD8
  8
0
 10
153.9597649890045
 20
96.584468646583304
 30
0.0
  0
VERTEX
  5
4FD9
  8
0
 10
154.18451606139249
 20
96.173823685429255
 30
0.0
  0
VERTEX
  5
4FDA
  8
0
 10
154.2966487942451
 20
95.966611401977133
 30
0.0
  0
VERTEX
  5
4FDB
  8
0
 10
154.4085713886729
 20
95.758201688900925
 30
0.0
  0
VERTEX
  5
4FDC
  8
0
 10
154.63164370032899
 20
95.337981657431399
 30
0.0
  0
VERTEX
  5
4FDD
  8
0
 10
154.8534523559469
 20
94.913553992658606
 30
0.0
  0
VERTEX
  5
4FDE
  8
0
 10
155.07372428686011
 20
94.485319561319855
 30
0.0
  0
VERTEX
  5
4FDF
  8
0
 10
155.2921949427602
 20
94.053688594063914
 30
0.0
  0
VERTEX
  5
4FE0
  8
0
 10
155.50860920569059
 20
93.619079476231121
 30
0.0
  0
VERTEX
  5
4FE1
  8
0
 10
155.6159682647571
 20
93.400790756386385
 30
0.0
  0
VERTEX
  5
4FE2
  8
0
 10
155.7227222833053
 20
93.181917394535375
 30
0.0
  0
VERTEX
  5
4FE3
  8
0
 10
155.9343092763138
 20
92.742614618833457
 30
0.0
  0
VERTEX
  5
4FE4
  8
0
 10
156.14316291893871
 20
92.301573876318756
 30
0.0
  0
VERTEX
  5
4FE5
  8
0
 10
156.34906752418121
 20
91.859243608553896
 30
0.0
  0
VERTEX
  5
4FE6
  8
0
 10
156.55181645323131
 20
91.416083056692031
 30
0.0
  0
VERTEX
  5
4FE7
  8
0
 10
156.75121343093451
 20
90.972559744944505
 30
0.0
  0
VERTEX
  5
4FE8
  8
0
 10
156.84959663496329
 20
90.750810005846645
 30
0.0
  0
VERTEX
  5
4FE9
  8
0
 10
156.94707334946219
 20
90.529147787780715
 30
0.0
  0
VERTEX
  5
4FEA
  8
0
 10
157.1392230088745
 20
90.086326089071775
 30
0.0
  0
VERTEX
  5
4FEB
  8
0
 10
157.32750182195969
 20
89.644576360782338
 30
0.0
  0
VERTEX
  5
4FEC
  8
0
 10
157.4201425975896
 20
89.424255437609744
 30
0.0
  0
SEQEND
  5
4FED
  8
0
  0
POLYLINE
  5
440D
  8
0
 66
     1
 10
0.0
 20
0.0
 30
0.0
  0
VERTEX
  5
4FEE
  8
0
 10
143.1219840780175
 20
110.0403136467102
 30
0.0
  0
VERTEX
  5
4FEF
  8
0
 10
143.13017042278889
 20
110.048499991482
 30
0.0
  0
VERTEX
  5
4FF0
  8
0
 10
143.14586100853811
 20
110.0641905772309
 30
0.0
  0
VERTEX
  5
4FF1
  8
0
 10
143.16064026660339
 20
110.07896983529621
 30
0.0
  0
VERTEX
  5
4FF2
  8
0
 10
143.1676874823097
 20
110.0860170510026
 30
0.0
  0
VERTEX
  5
4FF3
  8
0
 10
143.17450608387551
 20
110.0928356525683
 30
0.0
  0
VERTEX
  5
4FF4
  8
0
 10
143.18745647784721
 20
110.1057860465401
 30
0.0
  0
VERTEX
  5
4FF5
  8
0
 10
143.1994895968964
 20
110.1178191655893
 30
0.0
  0
VERTEX
  5
4FF6
  8
0
 10
143.21060372055149
 20
110.1289332892444
 30
0.0
  0
VERTEX
  5
4FF7
  8
0
 10
143.2207972597366
 20
110.1391268284295
 30
0.0
  0
VERTEX
  5
4FF8
  8
0
 10
143.2300687569996
 20
110.1483983256923
 30
0.0
  0
VERTEX
  5
4FF9
  8
0
 10
143.23435832049881
 20
110.1526878891916
 30
0.0
  0
VERTEX
  5
4FFA
  8
0
 10
143.2384168867197
 20
110.1567464554126
 30
0.0
  0
VERTEX
  5
4FFB
  8
0
 10
143.24584045529781
 20
110.16417002399081
 30
0.0
  0
VERTEX
  5
4FFC
  8
0
 10
143.25233840132699
 20
110.17066797001981
 30
0.0
  0
VERTEX
  5
4FFD
  8
0
 10
143.25790979574319
 20
110.176239364436
 30
0.0
  0
VERTEX
  5
4FFE
  8
0
 10
143.26255384195929
 20
110.1808834106521
 30
0.0
  0
VERTEX
  5
4FFF
  8
0
 10
143.26626987597911
 20
110.1845994446718
 30
0.0
  0
VERTEX
  5
5000
  8
0
 10
143.267779717195
 20
110.18610928588799
 30
0.0
  0
VERTEX
  5
5001
  8
0
 10
143.26905736649081
 20
110.1873869351837
 30
0.0
  0
VERTEX
  5
5002
  8
0
 10
143.27091591494491
 20
110.18924548363781
 30
0.0
  0
VERTEX
  5
5003
  8
0
 10
143.27184525560961
 20
110.1901748243025
 30
0.0
  0
VERTEX
  5
5004
  8
0
 10
143.27196142630709
 20
110.1902909949999
 30
0.0
  0
SEQEND
  5
5005
  8
0
  0
POLYLINE
  5
440E
  8
0
 66
     1
 10
0.0
 20
0.0
 30
0.0
  0
VERTEX
  5
5006
  8
0
 10
161.1816155512881
 20
107.9320701249133
 30
0.0
  0
VERTEX
  5
5007
  8
0
 10
161.1359918364999
 20
108.0462125886131
 30
0.0
  0
VERTEX
  5
5008
  8
0
 10
161.0341059949794
 20
108.26688512857829
 30
0.0
  0
VERTEX
  5
5009
  8
0
 10
160.91911177911101
 20
108.47665387999101
 30
0.0
  0
VERTEX
  5
500A
  8
0
 10
160.8571340874002
 20
108.5771752719386
 30
0.0
  0
VERTEX
  5
500B
  8
0
 10
160.79241532320719
 20
108.6746555883454
 30
0.0
  0
VERTEX
  5
500C
  8
0
 10
160.65551732532609
 20
108.8601629983676
 30
0.0
  0
VERTEX
  5
500D
  8
0
 10
160.50997542427851
 20
109.03262713203181
 30
0.0
  0
VERTEX
  5
500E
  8
0
 10
160.357407801265
 20
109.191653909217
 30
0.0
  0
VERTEX
  5
500F
  8
0
 10
160.19922074515279
 20
109.3372341563424
 30
0.0
  0
VERTEX
  5
5010
  8
0
 10
160.03074859351219
 20
109.4740829527652
 30
0.0
  0
VERTEX
  5
5011
  8
0
 10
159.94202767819641
 20
109.53951163181451
 30
0.0
  0
VERTEX
  5
5012
  8
0
 10
159.8504889799446
 20
109.6026480458268
 30
0.0
  0
VERTEX
  5
5013
  8
0
 10
159.65945214791071
 20
109.7212977489521
 30
0.0
  0
VERTEX
  5
5014
  8
0
 10
159.45854149971319
 20
109.82874304981
 30
0.0
  0
VERTEX
  5
5015
  8
0
 10
159.24844366186829
 20
109.9239762978815
 30
0.0
  0
VERTEX
  5
5016
  8
0
 10
159.12187818780509
 20
109.9735329949021
 30
0.0
  0
VERTEX
  5
5017
  8
0
 10
159.08520782021671
 20
109.9868443416478
 30
0.0
  0
VERTEX
  5
5018
  8
0
 10
159.04830703569289
 20
109.9997751563948
 30
0.0
  0
VERTEX
  5
5019
  8
0
 10
159.02976902840169
 20
110.0060972669371
 30
0.0
  0
VERTEX
  5
501A
  8
0
 10
159.011171872381
 20
110.01232351848
 30
0.0
  0
VERTEX
  5
501B
  8
0
 10
158.97379761002051
 20
110.0244874217384
 30
0.0
  0
VERTEX
  5
501C
  8
0
 10
158.93617875470699
 20
110.0362647330525
 30
0.0
  0
VERTEX
  5
501D
  8
0
 10
158.89830903422191
 20
110.0476531465532
 30
0.0
  0
VERTEX
  5
501E
  8
0
 10
158.86018140625171
 20
110.05865013358159
 30
0.0
  0
VERTEX
  5
501F
  8
0
 10
158.82178808211231
 20
110.0692528886526
 30
0.0
  0
VERTEX
  5
5020
  8
0
 10
158.80248915586611
 20
110.0744054626781
 30
0.0
  0
VERTEX
  5
5021
  8
0
 10
158.78312056885741
 20
110.0794582718285
 30
0.0
  0
VERTEX
  5
5022
  8
0
 10
158.74416973285491
 20
110.0892627481326
 30
0.0
  0
VERTEX
  5
5023
  8
0
 10
158.70492588804129
 20
110.0986623249
 30
0.0
  0
VERTEX
  5
5024
  8
0
 10
158.6851909373313
 20
110.1032088874686
 30
0.0
  0
VERTEX
  5
5025
  8
0
 10
158.66537891202091
 20
110.1076524882874
 30
0.0
  0
VERTEX
  5
5026
  8
0
 10
158.62551839295929
 20
110.1162281405439
 30
0.0
  0
VERTEX
  5
5027
  8
0
 10
158.5853351783046
 20
110.1243832706372
 30
0.0
  0
VERTEX
  5
5028
  8
0
 10
158.56512088345741
 20
110.12830086852181
 30
0.0
  0
VERTEX
  5
5029
  8
0
 10
158.54482264454509
 20
110.132110788357
 30
0.0
  0
VERTEX
  5
502A
  8
0
 10
158.50396673947299
 20
110.1394043862427
 30
0.0
  0
VERTEX
  5
502B
  8
0
 10
158.4627514236247
 20
110.146257202344
 30
0.0
  0
VERTEX
  5
502C
  8
0
 10
158.42115939540139
 20
110.15266157661929
 30
0.0
  0
VERTEX
  5
502D
  8
0
 10
158.37917227881891
 20
110.1586089301732
 30
0.0
  0
VERTEX
  5
502E
  8
0
 10
158.3367708801554
 20
110.16408964619239
 30
0.0
  0
VERTEX
  5
502F
  8
0
 10
158.3154086823383
 20
110.1666516983268
 30
0.0
  0
VERTEX
  5
5030
  8
0
 10
158.29393551431281
 20
110.16909295825501
 30
0.0
  0
VERTEX
  5
5031
  8
0
 10
158.25064639061699
 20
110.1736068530726
 30
0.0
  0
VERTEX
  5
5032
  8
0
 10
158.20688355807599
 20
110.1776180357558
 30
0.0
  0
VERTEX
  5
5033
  8
0
 10
158.1626258021069
 20
110.1811119627947
 30
0.0
  0
VERTEX
  5
5034
  8
0
 10
158.1178504623042
 20
110.1840727302644
 30
0.0
  0
VERTEX
  5
5035
  8
0
 10
158.07253378422291
 20
110.1864829159053
 30
0.0
  0
VERTEX
  5
5036
  8
0
 10
158.04966482713229
 20
110.1874756456626
 30
0.0
  0
VERTEX
  5
5037
  8
0
 10
158.0266513562471
 20
110.1883234378564
 30
0.0
  0
VERTEX
  5
5038
  8
0
 10
157.9801786030541
 20
110.1895734385961
 30
0.0
  0
VERTEX
  5
5039
  8
0
 10
157.93309130354621
 20
110.1902102001447
 30
0.0
  0
VERTEX
  5
503A
  8
0
 10
157.9093098515541
 20
110.1902909949999
 30
0.0
  0
SEQEND
  5
503B
  8
0
  0
POLYLINE
  5
440F
  8
0
 66
     1
 10
0.0
 20
0.0
 30
0.0
  0
VERTEX
  5
503C
  8
0
 10
161.162842965409
 20
107.98045465789311
 30
0.0
  0
VERTEX
  5
503D
  8
0
 10
161.15554622138751
 20
107.9987058493828
 30
0.0
  0
VERTEX
  5
503E
  8
0
 10
161.14482722109091
 20
108.0249922167817
 30
0.0
  0
VERTEX
  5
503F
  8
0
 10
161.1394658676256
 20
108.03791561329599
 30
0.0
  0
VERTEX
  5
5040
  8
0
 10
161.1388023476388
 20
108.039504920859
 30
0.0
  0
SEQEND
  5
5041
  8
0
  0
POLYLINE
  5
4410
  8
0
 66
     1
 10
0.0
 20
0.0
 30
0.0
  0
VERTEX
  5
5042
  8
0
 10
164.2114251840091
 20
99.052257403667539
 30
0.0
  0
VERTEX
  5
5043
  8
0
 10
164.2109667686193
 20
99.053766322086275
 30
0.0
  0
VERTEX
  5
5044
  8
0
 10
164.20723898554479
 20
99.066034386326095
 30
0.0
  0
VERTEX
  5
5045
  8
0
 10
164.1996540355787
 20
99.09098371908928
 30
0.0
  0
VERTEX
  5
5046
  8
0
 10
164.19438536367389
 20
99.10830414322001
 30
0.0
  0
VERTEX
  5
5047
  8
0
 10
164.18812242175659
 20
99.128882596326065
 30
0.0
  0
VERTEX
  5
5048
  8
0
 10
164.17259904201319
 20
99.179839130504519
 30
0.0
  0
VERTEX
  5
5049
  8
0
 10
164.15308072014111
 20
99.243809779982229
 30
0.0
  0
VERTEX
  5
504A
  8
0
 10
164.1296081384948
 20
99.320594203040713
 30
0.0
  0
VERTEX
  5
504B
  8
0
 10
164.10226432616241
 20
99.409842199305984
 30
0.0
  0
VERTEX
  5
504C
  8
0
 10
164.07115387256681
 20
99.511123983932151
 30
0.0
  0
VERTEX
  5
504D
  8
0
 10
164.0542269514026
 20
99.566114848328965
 30
0.0
  0
VERTEX
  5
504E
  8
0
 10
164.03641517422619
 20
99.623892816898305
 30
0.0
  0
VERTEX
  5
504F
  8
0
 10
163.99824193602919
 20
99.747418802526425
 30
0.0
  0
VERTEX
  5
5050
  8
0
 10
163.95686813768
 20
99.880842155769841
 30
0.0
  0
VERTEX
  5
5051
  8
0
 10
163.91256406217639
 20
100.0231903978507
 30
0.0
  0
VERTEX
  5
5052
  8
0
 10
163.86564313449111
 20
100.173360908443
 30
0.0
  0
VERTEX
  5
5053
  8
0
 10
163.8164642927681
 20
100.33011825642021
 30
0.0
  0
VERTEX
  5
5054
  8
0
 10
163.7911493232177
 20
100.4105567655217
 30
0.0
  0
VERTEX
  5
5055
  8
0
 10
163.76515039560761
 20
100.4929910507139
 30
0.0
  0
VERTEX
  5
5056
  8
0
 10
163.7106303690141
 20
100.6652772124189
 30
0.0
  0
VERTEX
  5
5057
  8
0
 10
163.652877090147
 20
100.8469336868877
 30
0.0
  0
VERTEX
  5
5058
  8
0
 10
163.6228439208212
 20
100.9410589482665
 30
0.0
  0
SEQEND
  5
5059
  8
0
  0
LINE
  5
4411
  8
0
 10
139.1219840780175
 20
98.980290994999876
 30
0.0
 11
139.1219840780175
 21
108.3802909949999
 31
0.0
  0
LINE
  5
4412
  8
0
 10
163.6219840780175
 20
100.94335610875579
 30
0.0
 11
163.6219840780175
 21
107.9802909949999
 31
0.0
  0
LINE
  5
4413
  8
0
 10
139.4219840780174
 20
98.680290994999922
 30
0.0
 11
139.4219840780174
 21
108.68029099499989
 31
0.0
  0
LINE
  5
4414
  8
2
 10
111.32198407801749
 20
191.4802909949999
 30
0.0
 11
111.32198407801749
 21
210.88029099499991
 31
0.0
  0
LINE
  5
4415
  8
1
 10
97.321984078017536
 20
213.18029099500001
 30
0.0
 11
97.321984078017536
 21
189.18029099500001
 31
0.0
  0
LINE
  5
4416
  8
1
 10
131.32198407801749
 20
213.18029099500001
 30
0.0
 11
131.32198407801749
 21
189.18029099500001
 31
0.0
  0
LINE
  5
4417
  8
0
 10
169.9890254970332
 20
197.81623885716121
 30
0.0
 11
169.9890254970332
 21
204.54434313283889
 31
0.0
  0
LINE
  5
4418
  8
0
 10
168.046768955
 20
205.26522631698259
 30
0.0
 11
165.57575480547709
 21
205.26522631698259
 31
0.0
  0
LINE
  5
4419
  8
0
 10
153.62198407801719
 20
194.18029099500009
 30
0.0
 11
162.7161902803586
 21
194.18029099500009
 31
0.0
  0
LINE
  5
441A
  8
0
 10
162.7161902803586
 20
208.18029099500009
 30
0.0
 11
153.62198407801719
 21
208.18029099500009
 31
0.0
  0
LINE
  5
441B
  8
0
 10
165.57575480547729
 20
197.09535567301759
 30
0.0
 11
168.046768955
 21
197.09535567301759
 31
0.0
  0
LINE
  5
441C
  8
0
 10
153.62198407801719
 20
207.68029099500009
 30
0.0
 11
143.12198407801719
 21
207.68029099500009
 31
0.0
  0
LINE
  5
441D
  8
0
 10
143.12198407801719
 20
194.68029099500009
 30
0.0
 11
153.62198407801719
 21
194.68029099500009
 31
0.0
  0
LINE
  5
441E
  8
0
 10
139.12198407801719
 20
196.48029099499999
 30
0.0
 11
139.4219840780174
 21
196.18029099500009
 31
0.0
  0
LINE
  5
441F
  8
0
 10
139.4219840780174
 20
206.18029099500009
 30
0.0
 11
139.12198407801719
 21
205.88029099500019
 31
0.0
  0
LINE
  5
4420
  8
0
 10
162.304875108879
 20
196.88029099500011
 30
0.0
 11
163.62198407801719
 21
196.88029099500011
 31
0.0
  0
LINE
  5
4421
  8
0
 10
163.62198407801719
 20
205.4802909950001
 30
0.0
 11
162.3048734635799
 21
205.4802909950001
 31
0.0
  0
LINE
  5
4422
  8
0
 10
139.4219840780174
 20
196.18029099500009
 30
0.0
 11
143.12198407801719
 21
196.18029099500009
 31
0.0
  0
LINE
  5
4423
  8
0
 10
143.12198407801719
 20
206.18029099500009
 30
0.0
 11
139.4219840780174
 21
206.18029099500009
 31
0.0
  0
POLYLINE
  5
4424
  8
0
 66
     1
 10
0.0
 20
0.0
 30
0.0
  0
VERTEX
  5
505A
  8
0
 10
167.8964631052759
 20
205.1959498424136
 30
0.0
  0
VERTEX
  5
505B
  8
0
 10
167.74181340639871
 20
205.0689698259477
 30
0.0
  0
VERTEX
  5
505C
  8
0
 10
167.4148641191932
 20
204.88396179282159
 30
0.0
  0
VERTEX
  5
505D
  8
0
 10
167.06608153858451
 20
204.79174101877771
 30
0.0
  0
VERTEX
  5
505E
  8
0
 10
166.88429926097751
 20
204.78029099500009
 30
0.0
  0
SEQEND
  5
505F
  8
0
  0
POLYLINE
  5
4425
  8
0
 66
     1
 10
0.0
 20
0.0
 30
0.0
  0
VERTEX
  5
5060
  8
0
 10
166.88429926097751
 20
204.78029099500009
 30
0.0
  0
VERTEX
  5
5061
  8
0
 10
166.81543831645149
 20
204.7818696802394
 30
0.0
  0
VERTEX
  5
5062
  8
0
 10
166.67597774111209
 20
204.79443898865449
 30
0.0
  0
VERTEX
  5
5063
  8
0
 10
166.534358367652
 20
204.81940297143751
 30
0.0
  0
VERTEX
  5
5064
  8
0
 10
166.4628013514386
 20
204.83646574570801
 30
0.0
  0
VERTEX
  5
5065
  8
0
 10
166.39078049016911
 20
204.85654168851451
 30
0.0
  0
VERTEX
  5
5066
  8
0
 10
166.24545448884371
 20
204.9055965743722
 30
0.0
  0
VERTEX
  5
5067
  8
0
 10
166.09860300626491
 20
204.9662700460872
 30
0.0
  0
VERTEX
  5
5068
  8
0
 10
165.95046101691241
 20
205.03822503454609
 30
0.0
  0
VERTEX
  5
5069
  8
0
 10
165.8012746259196
 20
205.1210850970912
 30
0.0
  0
VERTEX
  5
506A
  8
0
 10
165.6512997756395
 20
205.2144349313883
 30
0.0
  0
VERTEX
  5
506B
  8
0
 10
165.57609901592011
 20
205.26490331560609
 30
0.0
  0
VERTEX
  5
506C
  8
0
 10
165.50080088178279
 20
205.31782125973109
 30
0.0
  0
VERTEX
  5
506D
  8
0
 10
165.34999890577589
 20
205.43079342498251
 30
0.0
  0
VERTEX
  5
506E
  8
0
 10
165.19695181524361
 20
205.55469668836261
 30
0.0
  0
VERTEX
  5
506F
  8
0
 10
165.04065657029511
 20
205.6905188590967
 30
0.0
  0
VERTEX
  5
5070
  8
0
 10
164.88127186178141
 20
205.83838490975899
 30
0.0
  0
VERTEX
  5
5071
  8
0
 10
164.71896679924541
 20
205.99838424424149
 30
0.0
  0
VERTEX
  5
5072
  8
0
 10
164.63677460533469
 20
206.0829522974548
 30
0.0
  0
VERTEX
  5
5073
  8
0
 10
164.55391998718
 20
206.17057150386239
 30
0.0
  0
VERTEX
  5
5074
  8
0
 10
164.3863185098605
 20
206.3549677034564
 30
0.0
  0
VERTEX
  5
5075
  8
0
 10
164.2163568194903
 20
206.55156170421961
 30
0.0
  0
VERTEX
  5
5076
  8
0
 10
164.13055337929291
 20
206.6544210477069
 30
0.0
  0
SEQEND
  5
5077
  8
0
  0
POLYLINE
  5
4426
  8
0
 66
     1
 10
0.0
 20
0.0
 30
0.0
  0
VERTEX
  5
5078
  8
0
 10
168.0795764192471
 20
197.09877796387249
 30
0.0
  0
VERTEX
  5
5079
  8
0
 10
168.51374433803039
 20
197.19509227937351
 30
0.0
  0
VERTEX
  5
507A
  8
0
 10
169.23305119769469
 20
197.38855172185461
 30
0.0
  0
VERTEX
  5
507B
  8
0
 10
169.7528131647382
 20
197.5828848586788
 30
0.0
  0
VERTEX
  5
507C
  8
0
 10
169.93761782500471
 20
197.68029099500009
 30
0.0
  0
SEQEND
  5
507D
  8
0
  0
POLYLINE
  5
4427
  8
0
 66
     1
 10
0.0
 20
0.0
 30
0.0
  0
VERTEX
  5
507E
  8
0
 10
169.93761782500471
 20
197.68029099500009
 30
0.0
  0
VERTEX
  5
507F
  8
0
 10
169.9389759952451
 20
197.68036278287971
 30
0.0
  0
VERTEX
  5
5080
  8
0
 10
169.94169035374151
 20
197.68094000417011
 30
0.0
  0
VERTEX
  5
5081
  8
0
 10
169.94440109632291
 20
197.68210163831819
 30
0.0
  0
VERTEX
  5
5082
  8
0
 10
169.94575474943659
 20
197.68290382157321
 30
0.0
  0
VERTEX
  5
5083
  8
0
 10
169.94710706561321
 20
197.68385469684489
 30
0.0
  0
VERTEX
  5
5084
  8
0
 10
169.94980711849411
 20
197.6862056715444
 30
0.0
  0
VERTEX
  5
5085
  8
0
 10
169.95250012845281
 20
197.68916053170611
 30
0.0
  0
VERTEX
  5
5086
  8
0
 10
169.9551849878294
 20
197.6927247234226
 30
0.0
  0
VERTEX
  5
5087
  8
0
 10
169.95786060996099
 20
197.69690317097491
 30
0.0
  0
VERTEX
  5
5088
  8
0
 10
169.960525931235
 20
197.70170028030159
 30
0.0
  0
VERTEX
  5
5089
  8
0
 10
169.96185440345701
 20
197.70433206957699
 30
0.0
  0
VERTEX
  5
508A
  8
0
 10
169.9631799130434
 20
197.70711994455971
 30
0.0
  0
VERTEX
  5
508B
  8
0
 10
169.96582154365001
 20
197.7131655518038
 30
0.0
  0
VERTEX
  5
508C
  8
0
 10
169.96844983996559
 20
197.7198399948071
 30
0.0
  0
VERTEX
  5
508D
  8
0
 10
169.97106384923649
 20
197.72714568306409
 30
0.0
  0
VERTEX
  5
508E
  8
0
 10
169.97366265064579
 20
197.73508455701301
 30
0.0
  0
VERTEX
  5
508F
  8
0
 10
169.97624535682641
 20
197.74365810452599
 30
0.0
  0
VERTEX
  5
5090
  8
0
 10
169.9775304071272
 20
197.7481832292585
 30
0.0
  0
VERTEX
  5
5091
  8
0
 10
169.97881111909709
 20
197.7528673939072
 30
0.0
  0
VERTEX
  5
5092
  8
0
 10
169.9813591109077
 20
197.76271302871811
 30
0.0
  0
VERTEX
  5
5093
  8
0
 10
169.9838885116537
 20
197.7731950769421
 30
0.0
  0
VERTEX
  5
5094
  8
0
 10
169.985145991053
 20
197.77867464902729
 30
0.0
  0
SEQEND
  5
5095
  8
0
  0
POLYLINE
  5
4428
  8
0
 66
     1
 10
0.0
 20
0.0
 30
0.0
  0
VERTEX
  5
5096
  8
0
 10
169.985145991053
 20
197.77867464902729
 30
0.0
  0
VERTEX
  5
5097
  8
0
 10
169.98633481812041
 20
197.78450961412739
 30
0.0
  0
VERTEX
  5
5098
  8
0
 10
169.98805959624309
 20
197.79669310411271
 30
0.0
  0
VERTEX
  5
5099
  8
0
 10
169.9889185206448
 20
197.8095555815753
 30
0.0
  0
VERTEX
  5
509A
  8
0
 10
169.9890254970332
 20
197.8162388571684
 30
0.0
  0
SEQEND
  5
509B
  8
0
  0
POLYLINE
  5
4429
  8
0
 66
     1
 10
0.0
 20
0.0
 30
0.0
  0
VERTEX
  5
509C
  8
0
 10
169.9890254970332
 20
204.54434313283181
 30
0.0
  0
VERTEX
  5
509D
  8
0
 10
169.9889185206448
 20
204.55102640842489
 30
0.0
  0
VERTEX
  5
509E
  8
0
 10
169.98805959624309
 20
204.56388888588739
 30
0.0
  0
VERTEX
  5
509F
  8
0
 10
169.98633481812041
 20
204.5760723758728
 30
0.0
  0
VERTEX
  5
50A0
  8
0
 10
169.985145991053
 20
204.58190734097289
 30
0.0
  0
SEQEND
  5
50A1
  8
0
  0
POLYLINE
  5
442A
  8
0
 66
     1
 10
0.0
 20
0.0
 30
0.0
  0
VERTEX
  5
50A2
  8
0
 10
169.985145991053
 20
204.58190734097289
 30
0.0
  0
VERTEX
  5
50A3
  8
0
 10
169.9838885215386
 20
204.5873868706922
 30
0.0
  0
VERTEX
  5
50A4
  8
0
 10
169.98135914029029
 20
204.59786884365261
 30
0.0
  0
VERTEX
  5
50A5
  8
0
 10
169.97881116735741
 20
204.607714416275
 30
0.0
  0
VERTEX
  5
50A6
  8
0
 10
169.97753046449361
 20
204.61239855483899
 30
0.0
  0
VERTEX
  5
50A7
  8
0
 10
169.9762454230042
 20
204.61692365691161
 30
0.0
  0
VERTEX
  5
50A8
  8
0
 10
169.97366273336229
 20
204.62549716940711
 30
0.0
  0
VERTEX
  5
50A9
  8
0
 10
169.97106394684849
 20
204.63343602150269
 30
0.0
  0
VERTEX
  5
50AA
  8
0
 10
169.9684499505147
 20
204.6407417004136
 30
0.0
  0
VERTEX
  5
50AB
  8
0
 10
169.96582166484859
 20
204.6474161456965
 30
0.0
  0
VERTEX
  5
50AC
  8
0
 10
169.96318004225711
 20
204.65346176572891
 30
0.0
  0
VERTEX
  5
50AD
  8
0
 10
169.96185453557791
 20
204.6562496506312
 30
0.0
  0
VERTEX
  5
50AE
  8
0
 10
169.9605260654682
 20
204.65888145192341
 30
0.0
  0
VERTEX
  5
50AF
  8
0
 10
169.9578607458443
 20
204.66367859072011
 30
0.0
  0
VERTEX
  5
50B0
  8
0
 10
169.9551851216051
 20
204.66785707340341
 30
0.0
  0
VERTEX
  5
50B1
  8
0
 10
169.9525002559653
 20
204.6714213037742
 30
0.0
  0
VERTEX
  5
50B2
  8
0
 10
169.94980723517659
 20
204.67437620370879
 30
0.0
  0
VERTEX
  5
50B3
  8
0
 10
169.94710716648021
 20
204.6767272166249
 30
0.0
  0
VERTEX
  5
50B4
  8
0
 10
169.94575484039231
 20
204.67767810951119
 30
0.0
  0
VERTEX
  5
50B5
  8
0
 10
169.94440117595971
 20
204.6784803088658
 30
0.0
  0
VERTEX
  5
50B6
  8
0
 10
169.94169040629859
 20
204.67964196900911
 30
0.0
  0
VERTEX
  5
50B7
  8
0
 10
169.9389760144299
 20
204.68021920508971
 30
0.0
  0
VERTEX
  5
50B8
  8
0
 10
169.93761782500471
 20
204.68029099500009
 30
0.0
  0
SEQEND
  5
50B9
  8
0
  0
POLYLINE
  5
442B
  8
0
 66
     1
 10
0.0
 20
0.0
 30
0.0
  0
VERTEX
  5
50BA
  8
0
 10
169.93761782500471
 20
204.68029099500009
 30
0.0
  0
VERTEX
  5
50BB
  8
0
 10
169.7528131647382
 20
204.77769713132139
 30
0.0
  0
VERTEX
  5
50BC
  8
0
 10
169.23305119769469
 20
204.9720302681456
 30
0.0
  0
VERTEX
  5
50BD
  8
0
 10
168.51374433803039
 20
205.1654897106267
 30
0.0
  0
VERTEX
  5
50BE
  8
0
 10
168.0795764192471
 20
205.26180402612761
 30
0.0
  0
SEQEND
  5
50BF
  8
0
  0
POLYLINE
  5
442C
  8
0
 66
     1
 10
0.0
 20
0.0
 30
0.0
  0
VERTEX
  5
50C0
  8
0
 10
168.0795764192471
 20
205.26180402612761
 30
0.0
  0
VERTEX
  5
50C1
  8
0
 10
168.07409944150771
 20
205.262854685657
 30
0.0
  0
VERTEX
  5
50C2
  8
0
 10
168.06315485852519
 20
205.26437618881101
 30
0.0
  0
VERTEX
  5
50C3
  8
0
 10
168.05222611919359
 20
205.265132277974
 30
0.0
  0
VERTEX
  5
50C4
  8
0
 10
168.046768955
 20
205.26522631698259
 30
0.0
  0
SEQEND
  5
50C5
  8
0
  0
POLYLINE
  5
442D
  8
0
 66
     1
 10
0.0
 20
0.0
 30
0.0
  0
VERTEX
  5
50C6
  8
0
 10
168.046768955
 20
205.26522631698259
 30
0.0
  0
VERTEX
  5
50C7
  8
0
 10
168.02244034913451
 20
205.2633701874268
 30
0.0
  0
VERTEX
  5
50C8
  8
0
 10
167.9728029951911
 20
205.248242454337
 30
0.0
  0
VERTEX
  5
50C9
  8
0
 10
167.92210942765669
 20
205.21739783385081
 30
0.0
  0
VERTEX
  5
50CA
  8
0
 10
167.8964631052759
 20
205.1959498424136
 30
0.0
  0
SEQEND
  5
50CB
  8
0
  0
LINE
  5
442E
  8
0
 10
153.62198407801719
 20
198.6073743620716
 30
0.0
 11
157.9093098515541
 21
198.6073743620716
 31
0.0
  0
POLYLINE
  5
442F
  8
0
 66
     1
 10
0.0
 20
0.0
 30
0.0
  0
VERTEX
  5
50CC
  8
0
 10
161.1816155512879
 20
195.61950200148189
 30
0.0
  0
VERTEX
  5
50CD
  8
0
 10
161.21899025661651
 20
195.5454777709366
 30
0.0
  0
VERTEX
  5
50CE
  8
0
 10
161.29432803577691
 20
195.40378438923611
 30
0.0
  0
VERTEX
  5
50CF
  8
0
 10
161.3718242392776
 20
195.26796822936501
 30
0.0
  0
VERTEX
  5
50D0
  8
0
 10
161.41139917666479
 20
195.20230711868589
 30
0.0
  0
VERTEX
  5
50D1
  8
0
 10
161.45149185108059
 20
195.13824122271629
 30
0.0
  0
VERTEX
  5
50D2
  8
0
 10
161.53312630838991
 20
195.0151675887555
 30
0.0
  0
VERTEX
  5
50D3
  8
0
 10
161.61651524426219
 20
194.8992585054942
 30
0.0
  0
VERTEX
  5
50D4
  8
0
 10
161.7014423650844
 20
194.79096927539231
 30
0.0
  0
VERTEX
  5
50D5
  8
0
 10
161.7876888941127
 20
194.6907007944593
 30
0.0
  0
VERTEX
  5
50D6
  8
0
 10
161.87502954811811
 20
194.59880638920299
 30
0.0
  0
VERTEX
  5
50D7
  8
0
 10
161.91903814724671
 20
194.5560966619521
 30
0.0
  0
VERTEX
  5
50D8
  8
0
 10
161.96323344389199
 20
194.5155906833655
 30
0.0
  0
VERTEX
  5
50D9
  8
0
 10
162.05206749485251
 20
194.4413062855844
 30
0.0
  0
VERTEX
  5
50DA
  8
0
 10
162.14130290803629
 20
194.37614974107629
 30
0.0
  0
VERTEX
  5
50DB
  8
0
 10
162.23074184650699
 20
194.32024922695479
 30
0.0
  0
VERTEX
  5
50DC
  8
0
 10
162.32016228855261
 20
194.27370645417739
 30
0.0
  0
VERTEX
  5
50DD
  8
0
 10
162.40933271532549
 20
194.23657790547921
 30
0.0
  0
VERTEX
  5
50DE
  8
0
 10
162.4537522097971
 20
194.22154679152649
 30
0.0
  0
VERTEX
  5
50DF
  8
0
 10
162.498023339659
 20
194.20886566446319
 30
0.0
  0
VERTEX
  5
50E0
  8
0
 10
162.58600927969329
 20
194.19051593093869
 30
0.0
  0
VERTEX
  5
50E1
  8
0
 10
162.6730723213918
 20
194.18141903571561
 30
0.0
  0
VERTEX
  5
50E2
  8
0
 10
162.7161902803586
 20
194.18029099500009
 30
0.0
  0
SEQEND
  5
50E3
  8
0
  0
POLYLINE
  5
4430
  8
0
 66
     1
 10
0.0
 20
0.0
 30
0.0
  0
VERTEX
  5
50E4
  8
0
 10
162.7161902803586
 20
194.18029099500009
 30
0.0
  0
VERTEX
  5
50E5
  8
0
 10
162.76001879835189
 20
194.1814639117072
 30
0.0
  0
VERTEX
  5
50E6
  8
0
 10
162.8465811471946
 20
194.19074517832789
 30
0.0
  0
VERTEX
  5
50E7
  8
0
 10
162.9314969596962
 20
194.2090121661754
 30
0.0
  0
VERTEX
  5
50E8
  8
0
 10
162.9732692980528
 20
194.2214015987355
 30
0.0
  0
VERTEX
  5
50E9
  8
0
 10
163.014639390838
 20
194.23592673690291
 30
0.0
  0
VERTEX
  5
50EA
  8
0
 10
163.09753561966181
 20
194.27192896800901
 30
0.0
  0
VERTEX
  5
50EB
  8
0
 10
163.18058401327099
 20
194.3174948104658
 30
0.0
  0
VERTEX
  5
50EC
  8
0
 10
163.26350158078549
 20
194.3728429075864
 30
0.0
  0
VERTEX
  5
50ED
  8
0
 10
163.34601520110891
 20
194.4381215794341
 30
0.0
  0
VERTEX
  5
50EE
  8
0
 10
163.4278652524892
 20
194.5134124346547
 30
0.0
  0
VERTEX
  5
50EF
  8
0
 10
163.4684645093775
 20
194.55482074566851
 30
0.0
  0
VERTEX
  5
50F0
  8
0
 10
163.50880687723429
 20
194.5987338724911
 30
0.0
  0
VERTEX
  5
50F1
  8
0
 10
163.5886047294598
 20
194.69403724667151
 30
0.0
  0
VERTEX
  5
50F2
  8
0
 10
163.6670328931111
 20
194.7992055751746
 30
0.0
  0
VERTEX
  5
50F3
  8
0
 10
163.7438782013669
 20
194.91405692699891
 30
0.0
  0
VERTEX
  5
50F4
  8
0
 10
163.81894833623659
 20
195.03835871888131
 30
0.0
  0
VERTEX
  5
50F5
  8
0
 10
163.89209117695009
 20
195.17187161409399
 30
0.0
  0
VERTEX
  5
50F6
  8
0
 10
163.9278870218613
 20
195.24197909648001
 30
0.0
  0
VERTEX
  5
50F7
  8
0
 10
163.9631378908079
 20
195.31425554161399
 30
0.0
  0
VERTEX
  5
50F8
  8
0
 10
164.03192584181849
 20
195.4650962978036
 30
0.0
  0
VERTEX
  5
50F9
  8
0
 10
164.09830697556819
 20
195.62391922376821
 30
0.0
  0
VERTEX
  5
50FA
  8
0
 10
164.13055337929291
 20
195.7061609422932
 30
0.0
  0
SEQEND
  5
50FB
  8
0
  0
LINE
  5
4431
  8
0
 10
153.62198407801719
 20
194.18029099500009
 30
0.0
 11
153.62198407801719
 21
208.18029099500009
 31
0.0
  0
POLYLINE
  5
4432
  8
0
 66
     1
 10
0.0
 20
0.0
 30
0.0
  0
VERTEX
  5
50FC
  8
0
 10
164.13055337929291
 20
206.6544210477069
 30
0.0
  0
VERTEX
  5
50FD
  8
0
 10
164.09830697556751
 20
206.73666276623399
 30
0.0
  0
VERTEX
  5
50FE
  8
0
 10
164.03192584181781
 20
206.89548569219841
 30
0.0
  0
VERTEX
  5
50FF
  8
0
 10
163.9631378908075
 20
207.04632644838779
 30
0.0
  0
VERTEX
  5
5100
  8
0
 10
163.9278870218609
 20
207.1186028935216
 30
0.0
  0
VERTEX
  5
5101
  8
0
 10
163.89209117694921
 20
207.1887103759075
 30
0.0
  0
VERTEX
  5
5102
  8
0
 10
163.81894833623571
 20
207.32222327112009
 30
0.0
  0
VERTEX
  5
5103
  8
0
 10
163.74387820136641
 20
207.44652506300221
 30
0.0
  0
VERTEX
  5
5104
  8
0
 10
163.66703289311039
 20
207.5613764148265
 30
0.0
  0
VERTEX
  5
5105
  8
0
 10
163.58860472945929
 20
207.66654474332941
 30
0.0
  0
VERTEX
  5
5106
  8
0
 10
163.50880687723381
 20
207.7618481175096
 30
0.0
  0
VERTEX
  5
5107
  8
0
 10
163.4684645093771
 20
207.80576124433219
 30
0.0
  0
VERTEX
  5
5108
  8
0
 10
163.4278652524888
 20
207.84716955534591
 30
0.0
  0
VERTEX
  5
5109
  8
0
 10
163.3460152011084
 20
207.9224604105664
 30
0.0
  0
VERTEX
  5
510A
  8
0
 10
163.263501580785
 20
207.98773908241421
 30
0.0
  0
VERTEX
  5
510B
  8
0
 10
163.18058401327059
 20
208.04308717953461
 30
0.0
  0
VERTEX
  5
510C
  8
0
 10
163.09753561966161
 20
208.08865302199129
 30
0.0
  0
VERTEX
  5
510D
  8
0
 10
163.0146393908378
 20
208.12465525309739
 30
0.0
  0
VERTEX
  5
510E
  8
0
 10
162.9732692980528
 20
208.13918039126469
 30
0.0
  0
VERTEX
  5
510F
  8
0
 10
162.9314969596962
 20
208.15156982382479
 30
0.0
  0
VERTEX
  5
5110
  8
0
 10
162.8465811471946
 20
208.16983681167221
 30
0.0
  0
VERTEX
  5
5111
  8
0
 10
162.76001879835161
 20
208.17911807829299
 30
0.0
  0
VERTEX
  5
5112
  8
0
 10
162.7161902803586
 20
208.18029099500009
 30
0.0
  0
SEQEND
  5
5113
  8
0
  0
POLYLINE
  5
4433
  8
0
 66
     1
 10
0.0
 20
0.0
 30
0.0
  0
VERTEX
  5
5114
  8
0
 10
162.7161902803586
 20
208.18029099500009
 30
0.0
  0
VERTEX
  5
5115
  8
0
 10
162.6730723213918
 20
208.17916295428449
 30
0.0
  0
VERTEX
  5
5116
  8
0
 10
162.58600927969329
 20
208.1700660590615
 30
0.0
  0
VERTEX
  5
5117
  8
0
 10
162.498023339659
 20
208.15171632553691
 30
0.0
  0
VERTEX
  5
5118
  8
0
 10
162.4537522097971
 20
208.13903519847361
 30
0.0
  0
VERTEX
  5
5119
  8
0
 10
162.40933271532549
 20
208.124004084521
 30
0.0
  0
VERTEX
  5
511A
  8
0
 10
162.32016228855261
 20
208.0868755358228
 30
0.0
  0
VERTEX
  5
511B
  8
0
 10
162.23074184650699
 20
208.04033276304531
 30
0.0
  0
VERTEX
  5
511C
  8
0
 10
162.14130290803629
 20
207.98443224892381
 30
0.0
  0
VERTEX
  5
511D
  8
0
 10
162.05206749485251
 20
207.91927570441581
 30
0.0
  0
VERTEX
  5
511E
  8
0
 10
161.96323344389199
 20
207.8449913066346
 30
0.0
  0
VERTEX
  5
511F
  8
0
 10
161.91903814724671
 20
207.80448532804809
 30
0.0
  0
VERTEX
  5
5120
  8
0
 10
161.87502954811811
 20
207.76177560079719
 30
0.0
  0
VERTEX
  5
5121
  8
0
 10
161.7876888941127
 20
207.66988119554091
 30
0.0
  0
VERTEX
  5
5122
  8
0
 10
161.7014423650844
 20
207.5696127146079
 30
0.0
  0
VERTEX
  5
5123
  8
0
 10
161.61651524426219
 20
207.4613234845059
 30
0.0
  0
VERTEX
  5
5124
  8
0
 10
161.53312630838991
 20
207.34541440124471
 30
0.0
  0
VERTEX
  5
5125
  8
0
 10
161.45149185108059
 20
207.2223407672839
 30
0.0
  0
VERTEX
  5
5126
  8
0
 10
161.41139917666479
 20
207.15827487131429
 30
0.0
  0
VERTEX
  5
5127
  8
0
 10
161.3718242392776
 20
207.0926137606352
 30
0.0
  0
VERTEX
  5
5128
  8
0
 10
161.29432803577691
 20
206.95679760076411
 30
0.0
  0
VERTEX
  5
5129
  8
0
 10
161.21899025661651
 20
206.81510421906361
 30
0.0
  0
VERTEX
  5
512A
  8
0
 10
161.1816155512879
 20
206.74107998851821
 30
0.0
  0
SEQEND
  5
512B
  8
0
  0
LINE
  5
4434
  8
0
 10
157.9093098515541
 20
203.75320762792859
 30
0.0
 11
153.62198407801719
 21
203.75320762792859
 31
0.0
  0
POLYLINE
  5
4435
  8
0
 66
     1
 10
0.0
 20
0.0
 30
0.0
  0
VERTEX
  5
512C
  8
0
 10
167.8964631052759
 20
197.1646321475865
 30
0.0
  0
VERTEX
  5
512D
  8
0
 10
167.92210942765669
 20
197.1431841561494
 30
0.0
  0
VERTEX
  5
512E
  8
0
 10
167.9728029951911
 20
197.11233953566321
 30
0.0
  0
VERTEX
  5
512F
  8
0
 10
168.02244034913451
 20
197.09721180257341
 30
0.0
  0
VERTEX
  5
5130
  8
0
 10
168.046768955
 20
197.09535567301759
 30
0.0
  0
SEQEND
  5
5131
  8
0
  0
POLYLINE
  5
4436
  8
0
 66
     1
 10
0.0
 20
0.0
 30
0.0
  0
VERTEX
  5
5132
  8
0
 10
168.046768955
 20
197.09535567301759
 30
0.0
  0
VERTEX
  5
5133
  8
0
 10
168.05222611919359
 20
197.09544971202621
 30
0.0
  0
VERTEX
  5
5134
  8
0
 10
168.06315485852519
 20
197.0962058011892
 30
0.0
  0
VERTEX
  5
5135
  8
0
 10
168.07409944150771
 20
197.09772730434321
 30
0.0
  0
VERTEX
  5
5136
  8
0
 10
168.0795764192471
 20
197.09877796387249
 30
0.0
  0
SEQEND
  5
5137
  8
0
  0
POLYLINE
  5
4437
  8
0
 66
     1
 10
0.0
 20
0.0
 30
0.0
  0
VERTEX
  5
5138
  8
0
 10
164.13055337929291
 20
195.7061609422932
 30
0.0
  0
VERTEX
  5
5139
  8
0
 10
164.21635681949641
 20
195.80902028578811
 30
0.0
  0
VERTEX
  5
513A
  8
0
 10
164.38631850986661
 20
196.0056142865503
 30
0.0
  0
VERTEX
  5
513B
  8
0
 10
164.55391998718551
 20
196.19001048614359
 30
0.0
  0
VERTEX
  5
513C
  8
0
 10
164.63677460534021
 20
196.27762969255079
 30
0.0
  0
VERTEX
  5
513D
  8
0
 10
164.71896679925061
 20
196.36219774576361
 30
0.0
  0
VERTEX
  5
513E
  8
0
 10
164.88127186178619
 20
196.5221970802456
 30
0.0
  0
VERTEX
  5
513F
  8
0
 10
165.04065657029921
 20
196.67006313090721
 30
0.0
  0
VERTEX
  5
5140
  8
0
 10
165.1969518152475
 20
196.8058853016407
 30
0.0
  0
VERTEX
  5
5141
  8
0
 10
165.3499989057791
 20
196.92978856502029
 30
0.0
  0
VERTEX
  5
5142
  8
0
 10
165.50080088178581
 20
197.0427607302712
 30
0.0
  0
VERTEX
  5
5143
  8
0
 10
165.57609901592281
 20
197.09567867439611
 30
0.0
  0
VERTEX
  5
5144
  8
0
 10
165.6512997756422
 20
197.14614705861371
 30
0.0
  0
VERTEX
  5
5145
  8
0
 10
165.8012746259221
 20
197.2394968929103
 30
0.0
  0
VERTEX
  5
5146
  8
0
 10
165.9504610169142
 20
197.32235695545509
 30
0.0
  0
VERTEX
  5
5147
  8
0
 10
166.09860300626681
 20
197.39431194391381
 30
0.0
  0
VERTEX
  5
5148
  8
0
 10
166.2454544888451
 20
197.45498541562841
 30
0.0
  0
VERTEX
  5
5149
  8
0
 10
166.3907804901701
 20
197.5040403014859
 30
0.0
  0
VERTEX
  5
514A
  8
0
 10
166.46280135143951
 20
197.5241162442924
 30
0.0
  0
VERTEX
  5
514B
  8
0
 10
166.5343583676526
 20
197.5411790185629
 30
0.0
  0
VERTEX
  5
514C
  8
0
 10
166.67597774111249
 20
197.56614300134569
 30
0.0
  0
VERTEX
  5
514D
  8
0
 10
166.81543831645149
 20
197.5787123097607
 30
0.0
  0
VERTEX
  5
514E
  8
0
 10
166.88429926097751
 20
197.5802909950001
 30
0.0
  0
SEQEND
  5
514F
  8
0
  0
POLYLINE
  5
4438
  8
0
 66
     1
 10
0.0
 20
0.0
 30
0.0
  0
VERTEX
  5
5150
  8
0
 10
166.88429926097751
 20
197.5802909950001
 30
0.0
  0
VERTEX
  5
5151
  8
0
 10
167.06608153858451
 20
197.5688409712225
 30
0.0
  0
VERTEX
  5
5152
  8
0
 10
167.4148641191932
 20
197.47662019717859
 30
0.0
  0
VERTEX
  5
5153
  8
0
 10
167.74181340639871
 20
197.29161216405251
 30
0.0
  0
VERTEX
  5
5154
  8
0
 10
167.8964631052759
 20
197.1646321475865
 30
0.0
  0
SEQEND
  5
5155
  8
0
  0
LINE
  5
4439
  8
0
 10
143.12198407801719
 20
194.68029099500009
 30
0.0
 11
143.12198407801719
 21
207.68029099500009
 31
0.0
  0
LINE
  5
443A
  8
0
 10
161.1816155512879
 20
195.61950200148189
 30
0.0
 11
161.1816155512879
 21
200.20162319372281
 31
0.0
  0
POLYLINE
  5
443B
  8
0
 66
     1
 10
0.0
 20
0.0
 30
0.0
  0
VERTEX
  5
5156
  8
0
 10
157.9093098515541
 20
198.6073743620716
 30
0.0
  0
VERTEX
  5
5157
  8
0
 10
157.93309130354601
 20
198.60716994411911
 30
0.0
  0
VERTEX
  5
5158
  8
0
 10
157.9801786030541
 20
198.60555953919939
 30
0.0
  0
VERTEX
  5
5159
  8
0
 10
158.0266513562469
 20
198.60240160196409
 30
0.0
  0
VERTEX
  5
515A
  8
0
 10
158.04966482713229
 20
198.6002623280701
 30
0.0
  0
VERTEX
  5
515B
  8
0
 10
158.07253378422271
 20
198.5977599325837
 30
0.0
  0
VERTEX
  5
515C
  8
0
 10
158.11785046230389
 20
198.591696175404
 30
0.0
  0
VERTEX
  5
515D
  8
0
 10
158.1626258021069
 20
198.5842696652187
 30
0.0
  0
VERTEX
  5
515E
  8
0
 10
158.20688355807579
 20
198.5755373933205
 30
0.0
  0
VERTEX
  5
515F
  8
0
 10
158.25064639061699
 20
198.5655540737589
 30
0.0
  0
VERTEX
  5
5160
  8
0
 10
158.29393551431281
 20
198.55437228307139
 30
0.0
  0
VERTEX
  5
5161
  8
0
 10
158.3154086823383
 20
198.54834782951639
 30
0.0
  0
VERTEX
  5
5162
  8
0
 10
158.3367708801552
 20
198.54204251337561
 30
0.0
  0
VERTEX
  5
5163
  8
0
 10
158.37917227881891
 20
198.52861289786759
 30
0.0
  0
VERTEX
  5
5164
  8
0
 10
158.42115939540139
 20
198.5141291367874
 30
0.0
  0
VERTEX
  5
5165
  8
0
 10
158.46275142362441
 20
198.498634602864
 30
0.0
  0
VERTEX
  5
5166
  8
0
 10
158.50396673947299
 20
198.48217050119931
 30
0.0
  0
VERTEX
  5
5167
  8
0
 10
158.54482264454509
 20
198.46477606150299
 30
0.0
  0
VERTEX
  5
5168
  8
0
 10
158.56512088345741
 20
198.4557417348536
 30
0.0
  0
VERTEX
  5
5169
  8
0
 10
158.5853351783046
 20
198.4464887448234
 30
0.0
  0
VERTEX
  5
516A
  8
0
 10
158.62551839295929
 20
198.42734474441571
 30
0.0
  0
VERTEX
  5
516B
  8
0
 10
158.66537891202091
 20
198.4073820108097
 30
0.0
  0
VERTEX
  5
516C
  8
0
 10
158.6851909373313
 20
198.39710473702081
 30
0.0
  0
VERTEX
  5
516D
  8
0
 10
158.704925888041
 20
198.38663577799181
 30
0.0
  0
VERTEX
  5
516E
  8
0
 10
158.74416973285491
 20
198.36513894448009
 30
0.0
  0
VERTEX
  5
516F
  8
0
 10
158.7831205688571
 20
198.3429228195308
 30
0.0
  0
VERTEX
  5
5170
  8
0
 10
158.80248915586611
 20
198.3315544023632
 30
0.0
  0
VERTEX
  5
5171
  8
0
 10
158.82178808211231
 20
198.32001724560939
 30
0.0
  0
VERTEX
  5
5172
  8
0
 10
158.86018140625171
 20
198.29645072562471
 30
0.0
  0
VERTEX
  5
5173
  8
0
 10
158.89830903422171
 20
198.27225054979181
 30
0.0
  0
VERTEX
  5
5174
  8
0
 10
158.93617875470679
 20
198.24744291826889
 30
0.0
  0
VERTEX
  5
5175
  8
0
 10
158.9737976100202
 20
198.22205305680791
 30
0.0
  0
VERTEX
  5
5176
  8
0
 10
159.011171872381
 20
198.19610532356629
 30
0.0
  0
VERTEX
  5
5177
  8
0
 10
159.02976902840169
 20
198.18292965376671
 30
0.0
  0
VERTEX
  5
5178
  8
0
 10
159.04830703569289
 20
198.16962330595189
 30
0.0
  0
VERTEX
  5
5179
  8
0
 10
159.08520782021651
 20
198.1426299069449
 30
0.0
  0
VERTEX
  5
517A
  8
0
 10
159.12187818780509
 20
198.11514742076619
 30
0.0
  0
VERTEX
  5
517B
  8
0
 10
159.24844366186829
 20
198.01542230284559
 30
0.0
  0
VERTEX
  5
517C
  8
0
 10
159.45854149971319
 20
197.8341682641815
 30
0.0
  0
VERTEX
  5
517D
  8
0
 10
159.65945214791051
 20
197.64387509769611
 30
0.0
  0
VERTEX
  5
517E
  8
0
 10
159.8504889799446
 20
197.4485773186147
 30
0.0
  0
VERTEX
  5
517F
  8
0
 10
159.94202767819641
 20
197.35020828974089
 30
0.0
  0
VERTEX
  5
5180
  8
0
 10
160.03074859351219
 20
197.25193577301039
 30
0.0
  0
VERTEX
  5
5181
  8
0
 10
160.19922074515279
 20
197.05730735819759
 30
0.0
  0
VERTEX
  5
5182
  8
0
 10
160.357407801265
 20
196.86463590824999
 30
0.0
  0
VERTEX
  5
5183
  8
0
 10
160.50997542427851
 20
196.66891671699759
 30
0.0
  0
VERTEX
  5
5184
  8
0
 10
160.65551732532589
 20
196.47190209552201
 30
0.0
  0
VERTEX
  5
5185
  8
0
 10
160.79241532320719
 20
196.2755665064343
 30
0.0
  0
VERTEX
  5
5186
  8
0
 10
160.8571340874
 20
196.17823897825031
 30
0.0
  0
VERTEX
  5
5187
  8
0
 10
160.91911177911101
 20
196.08177130047309
 30
0.0
  0
VERTEX
  5
5188
  8
0
 10
161.0341059949792
 20
195.8922711147591
 30
0.0
  0
VERTEX
  5
5189
  8
0
 10
161.13599183649961
 20
195.70866156324749
 30
0.0
  0
VERTEX
  5
518A
  8
0
 10
161.1816155512879
 20
195.61950200148189
 30
0.0
  0
SEQEND
  5
518B
  8
0
  0
LINE
  5
443C
  8
0
 10
157.9093098515541
 20
198.6073743620716
 30
0.0
 11
157.9093098515541
 21
203.75320762792859
 31
0.0
  0
POLYLINE
  5
443D
  8
0
 66
     1
 10
0.0
 20
0.0
 30
0.0
  0
VERTEX
  5
518C
  8
0
 10
161.1816155512879
 20
206.74107998851821
 30
0.0
  0
VERTEX
  5
518D
  8
0
 10
161.13599183649961
 20
206.6519204267527
 30
0.0
  0
VERTEX
  5
518E
  8
0
 10
161.0341059949792
 20
206.46831087524109
 30
0.0
  0
VERTEX
  5
518F
  8
0
 10
160.91911177911101
 20
206.27881068952709
 30
0.0
  0
VERTEX
  5
5190
  8
0
 10
160.8571340874
 20
206.18234301174979
 30
0.0
  0
VERTEX
  5
5191
  8
0
 10
160.79241532320719
 20
206.0850154835658
 30
0.0
  0
VERTEX
  5
5192
  8
0
 10
160.65551732532589
 20
205.8886798944782
 30
0.0
  0
VERTEX
  5
5193
  8
0
 10
160.50997542427851
 20
205.69166527300251
 30
0.0
  0
VERTEX
  5
5194
  8
0
 10
160.357407801265
 20
205.49594608175019
 30
0.0
  0
VERTEX
  5
5195
  8
0
 10
160.19922074515279
 20
205.30327463180259
 30
0.0
  0
VERTEX
  5
5196
  8
0
 10
160.03074859351219
 20
205.1086462169898
 30
0.0
  0
VERTEX
  5
5197
  8
0
 10
159.94202767819641
 20
205.01037370025929
 30
0.0
  0
VERTEX
  5
5198
  8
0
 10
159.8504889799446
 20
204.9120046713854
 30
0.0
  0
VERTEX
  5
5199
  8
0
 10
159.65945214791051
 20
204.7167068923041
 30
0.0
  0
VERTEX
  5
519A
  8
0
 10
159.45854149971319
 20
204.52641372581871
 30
0.0
  0
VERTEX
  5
519B
  8
0
 10
159.24844366186829
 20
204.34515968715451
 30
0.0
  0
VERTEX
  5
519C
  8
0
 10
159.12187818780509
 20
204.24543456923391
 30
0.0
  0
VERTEX
  5
519D
  8
0
 10
159.08520782021651
 20
204.21795208305531
 30
0.0
  0
VERTEX
  5
519E
  8
0
 10
159.04830703569289
 20
204.1909586840483
 30
0.0
  0
VERTEX
  5
519F
  8
0
 10
159.02976902840169
 20
204.17765233623351
 30
0.0
  0
VERTEX
  5
51A0
  8
0
 10
159.011171872381
 20
204.1644766664339
 30
0.0
  0
VERTEX
  5
51A1
  8
0
 10
158.9737976100202
 20
204.13852893319219
 30
0.0
  0
VERTEX
  5
51A2
  8
0
 10
158.93617875470679
 20
204.11313907173121
 30
0.0
  0
VERTEX
  5
51A3
  8
0
 10
158.89830903422171
 20
204.08833144020829
 30
0.0
  0
VERTEX
  5
51A4
  8
0
 10
158.86018140625171
 20
204.06413126437539
 30
0.0
  0
VERTEX
  5
51A5
  8
0
 10
158.82178808211231
 20
204.04056474439079
 30
0.0
  0
VERTEX
  5
51A6
  8
0
 10
158.80248915586611
 20
204.0290275876371
 30
0.0
  0
VERTEX
  5
51A7
  8
0
 10
158.7831205688571
 20
204.0176591704693
 30
0.0
  0
VERTEX
  5
51A8
  8
0
 10
158.74416973285491
 20
203.99544304552001
 30
0.0
  0
VERTEX
  5
51A9
  8
0
 10
158.704925888041
 20
203.97394621200829
 30
0.0
  0
VERTEX
  5
51AA
  8
0
 10
158.6851909373313
 20
203.96347725297949
 30
0.0
  0
VERTEX
  5
51AB
  8
0
 10
158.66537891202091
 20
203.95319997919049
 30
0.0
  0
VERTEX
  5
51AC
  8
0
 10
158.62551839295929
 20
203.93323724558451
 30
0.0
  0
VERTEX
  5
51AD
  8
0
 10
158.5853351783046
 20
203.91409324517679
 30
0.0
  0
VERTEX
  5
51AE
  8
0
 10
158.56512088345741
 20
203.9048402551465
 30
0.0
  0
VERTEX
  5
51AF
  8
0
 10
158.54482264454509
 20
203.8958059284972
 30
0.0
  0
VERTEX
  5
51B0
  8
0
 10
158.50396673947299
 20
203.87841148880079
 30
0.0
  0
VERTEX
  5
51B1
  8
0
 10
158.46275142362441
 20
203.86194738713621
 30
0.0
  0
VERTEX
  5
51B2
  8
0
 10
158.42115939540139
 20
203.84645285321281
 30
0.0
  0
VERTEX
  5
51B3
  8
0
 10
158.37917227881891
 20
203.8319690921326
 30
0.0
  0
VERTEX
  5
51B4
  8
0
 10
158.3367708801552
 20
203.81853947662461
 30
0.0
  0
VERTEX
  5
51B5
  8
0
 10
158.3154086823383
 20
203.8122341604838
 30
0.0
  0
VERTEX
  5
51B6
  8
0
 10
158.29393551431281
 20
203.80620970692871
 30
0.0
  0
VERTEX
  5
51B7
  8
0
 10
158.25064639061699
 20
203.79502791624139
 30
0.0
  0
VERTEX
  5
51B8
  8
0
 10
158.20688355807579
 20
203.78504459667971
 30
0.0
  0
VERTEX
  5
51B9
  8
0
 10
158.1626258021069
 20
203.77631232478149
 30
0.0
  0
VERTEX
  5
51BA
  8
0
 10
158.11785046230389
 20
203.76888581459619
 30
0.0
  0
VERTEX
  5
51BB
  8
0
 10
158.07253378422271
 20
203.7628220574164
 30
0.0
  0
VERTEX
  5
51BC
  8
0
 10
158.04966482713229
 20
203.76031966193
 30
0.0
  0
VERTEX
  5
51BD
  8
0
 10
158.0266513562469
 20
203.7581803880361
 30
0.0
  0
VERTEX
  5
51BE
  8
0
 10
157.9801786030541
 20
203.75502245080079
 30
0.0
  0
VERTEX
  5
51BF
  8
0
 10
157.93309130354601
 20
203.75341204588119
 30
0.0
  0
VERTEX
  5
51C0
  8
0
 10
157.9093098515541
 20
203.75320762792859
 30
0.0
  0
SEQEND
  5
51C1
  8
0
  0
LINE
  5
443E
  8
0
 10
161.1816155512879
 20
202.1589587962774
 30
0.0
 11
161.1816155512879
 21
206.74107998851821
 31
0.0
  0
POLYLINE
  5
443F
  8
0
 66
     1
 10
0.0
 20
0.0
 30
0.0
  0
VERTEX
  5
51C2
  8
0
 10
161.1816155512879
 20
200.20162319372281
 30
0.0
  0
VERTEX
  5
51C3
  8
0
 10
161.17712552009061
 20
200.2560867447975
 30
0.0
  0
VERTEX
  5
51C4
  8
0
 10
161.16881158912199
 20
200.36522094719231
 30
0.0
  0
VERTEX
  5
51C5
  8
0
 10
161.16143476975179
 20
200.4745288483424
 30
0.0
  0
VERTEX
  5
51C6
  8
0
 10
161.15811385064259
 20
200.52920888893669
 30
0.0
  0
VERTEX
  5
51C7
  8
0
 10
161.1550452554095
 20
200.5838849154531
 30
0.0
  0
VERTEX
  5
51C8
  8
0
 10
161.1496831356219
 20
200.69315931069531
 30
0.0
  0
VERTEX
  5
51C9
  8
0
 10
161.14537791626751
 20
200.80221908663259
 30
0.0
  0
VERTEX
  5
51CA
  8
0
 10
161.14214820998359
 20
200.91092944146419
 30
0.0
  0
VERTEX
  5
51CB
  8
0
 10
161.14000161568899
 20
201.0191550455786
 30
0.0
  0
VERTEX
  5
51CC
  8
0
 10
161.13893480084289
 20
201.126761434038
 30
0.0
  0
VERTEX
  5
51CD
  8
0
 10
161.1388023476388
 20
201.18029099500009
 30
0.0
  0
VERTEX
  5
51CE
  8
0
 10
161.13893480084289
 20
201.2338205559621
 30
0.0
  0
VERTEX
  5
51CF
  8
0
 10
161.14000161568899
 20
201.3414269444215
 30
0.0
  0
VERTEX
  5
51D0
  8
0
 10
161.14214820998359
 20
201.44965254853591
 30
0.0
  0
VERTEX
  5
51D1
  8
0
 10
161.14537791626751
 20
201.55836290336759
 30
0.0
  0
VERTEX
  5
51D2
  8
0
 10
161.1496831356219
 20
201.66742267930491
 30
0.0
  0
VERTEX
  5
51D3
  8
0
 10
161.1550452554095
 20
201.77669707454709
 30
0.0
  0
VERTEX
  5
51D4
  8
0
 10
161.15811385064259
 20
201.83137310106349
 30
0.0
  0
VERTEX
  5
51D5
  8
0
 10
161.16143476975179
 20
201.8860531416577
 30
0.0
  0
VERTEX
  5
51D6
  8
0
 10
161.16881158912199
 20
201.9953610428079
 30
0.0
  0
VERTEX
  5
51D7
  8
0
 10
161.17712552009061
 20
202.10449524520271
 30
0.0
  0
VERTEX
  5
51D8
  8
0
 10
161.1816155512879
 20
202.1589587962774
 30
0.0
  0
SEQEND
  5
51D9
  8
0
  0
POLYLINE
  5
4440
  8
0
 66
     1
 10
0.0
 20
0.0
 30
0.0
  0
VERTEX
  5
51DA
  8
0
 10
161.1816155512879
 20
202.1589587962774
 30
0.0
  0
VERTEX
  5
51DB
  8
0
 10
161.18400120618199
 20
202.18678738253621
 30
0.0
  0
VERTEX
  5
51DC
  8
0
 10
161.18897600172161
 20
202.2423676102274
 30
0.0
  0
VERTEX
  5
51DD
  8
0
 10
161.19422134310611
 20
202.29783095820591
 30
0.0
  0
VERTEX
  5
51DE
  8
0
 10
161.19694512995011
 20
202.3255134431239
 30
0.0
  0
VERTEX
  5
51DF
  8
0
 10
161.19973612029111
 20
202.35316027964041
 30
0.0
  0
VERTEX
  5
51E0
  8
0
 10
161.20551901018661
 20
202.40833845960631
 30
0.0
  0
VERTEX
  5
51E1
  8
0
 10
161.2115684792675
 20
202.463348453219
 30
0.0
  0
VERTEX
  5
51E2
  8
0
 10
161.21788278701251
 20
202.51817332270181
 30
0.0
  0
VERTEX
  5
51E3
  8
0
 10
161.22445999016051
 20
202.57279627341589
 30
0.0
  0
VERTEX
  5
51E4
  8
0
 10
161.2312979477633
 20
202.62720068887489
 30
0.0
  0
VERTEX
  5
51E5
  8
0
 10
161.23481398780541
 20
202.65431581033991
 30
0.0
  0
VERTEX
  5
51E6
  8
0
 10
161.2383943270265
 20
202.68137016477559
 30
0.0
  0
VERTEX
  5
51E7
  8
0
 10
161.24574660992349
 20
202.7352885420633
 30
0.0
  0
VERTEX
  5
51E8
  8
0
 10
161.25335210057071
 20
202.7889399390555
 30
0.0
  0
VERTEX
  5
51E9
  8
0
 10
161.26120793336301
 20
202.84230878264381
 30
0.0
  0
VERTEX
  5
51EA
  8
0
 10
161.26931132787649
 20
202.8953814212708
 30
0.0
  0
VERTEX
  5
51EB
  8
0
 10
161.27766061997951
 20
202.9481522257413
 30
0.0
  0
VERTEX
  5
51EC
  8
0
 10
161.28192658120039
 20
202.97442038210929
 30
0.0
  0
VERTEX
  5
51ED
  8
0
 10
161.2862528710279
 20
203.00060791328241
 30
0.0
  0
VERTEX
  5
51EE
  8
0
 10
161.2950847186375
 20
203.0527337437733
 30
0.0
  0
VERTEX
  5
51EF
  8
0
 10
161.3041526066533
 20
203.10451506939549
 30
0.0
  0
VERTEX
  5
51F0
  8
0
 10
161.30877390251359
 20
203.13027199972089
 30
0.0
  0
VERTEX
  5
51F1
  8
0
 10
161.31345278919929
 20
203.15593737125971
 30
0.0
  0
VERTEX
  5
51F2
  8
0
 10
161.32298133540411
 20
203.20698629453869
 30
0.0
  0
VERTEX
  5
51F3
  8
0
 10
161.33273413478261
 20
203.25764768213969
 30
0.0
  0
VERTEX
  5
51F4
  8
0
 10
161.33769329723731
 20
203.28282868800409
 30
0.0
  0
VERTEX
  5
51F5
  8
0
 10
161.34270690324129
 20
203.3079076069607
 30
0.0
  0
VERTEX
  5
51F6
  8
0
 10
161.35289518969941
 20
203.35775240276931
 30
0.0
  0
VERTEX
  5
51F7
  8
0
 10
161.36329438329631
 20
203.4071686937549
 30
0.0
  0
VERTEX
  5
51F8
  8
0
 10
161.3738997211799
 20
203.45614342279731
 30
0.0
  0
VERTEX
  5
51F9
  8
0
 10
161.38470629686299
 20
203.50466387850261
 30
0.0
  0
VERTEX
  5
51FA
  8
0
 10
161.39570906913471
 20
203.55271772105209
 30
0.0
  0
VERTEX
  5
51FB
  8
0
 10
161.4012824190936
 20
203.57656591390639
 30
0.0
  0
VERTEX
  5
51FC
  8
0
 10
161.40690287153069
 20
203.60029300691301
 30
0.0
  0
VERTEX
  5
51FD
  8
0
 10
161.41828242235101
 20
203.64737821243881
 30
0.0
  0
VERTEX
  5
51FE
  8
0
 10
161.42984232799921
 20
203.69396222766761
 30
0.0
  0
VERTEX
  5
51FF
  8
0
 10
161.4415770455571
 20
203.74003419335119
 30
0.0
  0
VERTEX
  5
5200
  8
0
 10
161.4534808579715
 20
203.7855834106214
 30
0.0
  0
VERTEX
  5
5201
  8
0
 10
161.46554787805729
 20
203.83059937137051
 30
0.0
  0
VERTEX
  5
5202
  8
0
 10
161.47164070619189
 20
203.8529041575303
 30
0.0
  0
VERTEX
  5
5203
  8
0
 10
161.47777205455421
 20
203.87507179304589
 30
0.0
  0
VERTEX
  5
5204
  8
0
 10
161.49014717866589
 20
203.9189906514838
 30
0.0
  0
VERTEX
  5
5205
  8
0
 10
161.5026668910609
 20
203.96234621183771
 30
0.0
  0
VERTEX
  5
5206
  8
0
 10
161.5153246893021
 20
204.0051290576657
 30
0.0
  0
VERTEX
  5
5207
  8
0
 10
161.52811393568521
 20
204.047330118243
 30
0.0
  0
VERTEX
  5
5208
  8
0
 10
161.54102786547401
 20
204.08894069417011
 30
0.0
  0
VERTEX
  5
5209
  8
0
 10
161.5475294400421
 20
204.10952193929481
 30
0.0
  0
VERTEX
  5
520A
  8
0
 10
161.5540595955149
 20
204.1299524813503
 30
0.0
  0
VERTEX
  5
520B
  8
0
 10
161.56720213323109
 20
204.17035759341039
 30
0.0
  0
VERTEX
  5
520C
  8
0
 10
161.5804483859892
 20
204.2101485826411
 30
0.0
  0
VERTEX
  5
520D
  8
0
 10
161.59379117084521
 20
204.2493184595337
 30
0.0
  0
VERTEX
  5
520E
  8
0
 10
161.60722322467561
 20
204.28786071098949
 30
0.0
  0
VERTEX
  5
520F
  8
0
 10
161.62078621725749
 20
204.32590522771221
 30
0.0
  0
VERTEX
  5
5210
  8
0
 10
161.6276422145383
 20
204.34481221475801
 30
0.0
  0
VERTEX
  5
5211
  8
0
 10
161.6345476181657
 20
204.36364039366191
 30
0.0
  0
VERTEX
  5
5212
  8
0
 10
161.64850517334961
 20
204.40105273278931
 30
0.0
  0
VERTEX
  5
5213
  8
0
 10
161.6626558543141
 20
204.43812721220891
 30
0.0
  0
VERTEX
  5
5214
  8
0
 10
161.67699649968361
 20
204.4748490622375
 30
0.0
  0
VERTEX
  5
5215
  8
0
 10
161.69152382273751
 20
204.5112037955858
 30
0.0
  0
VERTEX
  5
5216
  8
0
 10
161.7062344191668
 20
204.54717722512979
 30
0.0
  0
VERTEX
  5
5217
  8
0
 10
161.7136573508555
 20
204.5650166036408
 30
0.0
  0
VERTEX
  5
5218
  8
0
 10
161.72112477504899
 20
204.58275548032009
 30
0.0
  0
VERTEX
  5
5219
  8
0
 10
161.73619127504429
 20
204.61792502227939
 30
0.0
  0
VERTEX
  5
521A
  8
0
 10
161.75143021081021
 20
204.6526726576335
 30
0.0
  0
VERTEX
  5
521B
  8
0
 10
161.75911315993969
 20
204.6698842350032
 30
0.0
  0
VERTEX
  5
521C
  8
0
 10
161.7668377896357
 20
204.68698555111121
 30
0.0
  0
VERTEX
  5
521D
  8
0
 10
161.78241014329839
 20
204.72085123694239
 30
0.0
  0
VERTEX
  5
521E
  8
0
 10
161.79814333714239
 20
204.75425762907889
 30
0.0
  0
VERTEX
  5
521F
  8
0
 10
161.8060690036709
 20
204.7707849192048
 30
0.0
  0
VERTEX
  5
5220
  8
0
 10
161.81403337937761
 20
204.78719303025329
 30
0.0
  0
VERTEX
  5
5221
  8
0
 10
161.83007623060121
 20
204.81964613988691
 30
0.0
  0
VERTEX
  5
5222
  8
0
 10
161.8462678135426
 20
204.85160606084929
 30
0.0
  0
VERTEX
  5
5223
  8
0
 10
161.86260402072821
 20
204.88306230068881
 30
0.0
  0
VERTEX
  5
5224
  8
0
 10
161.8790806870324
 20
204.91400470684269
 30
0.0
  0
VERTEX
  5
5225
  8
0
 10
161.8956935503947
 20
204.9444233893698
 30
0.0
  0
VERTEX
  5
5226
  8
0
 10
161.90404969783961
 20
204.95943331685419
 30
0.0
  0
VERTEX
  5
5227
  8
0
 10
161.91243825352191
 20
204.9743087276554
 30
0.0
  0
VERTEX
  5
5228
  8
0
 10
161.92931035119639
 20
205.00365138677071
 30
0.0
  0
VERTEX
  5
5229
  8
0
 10
161.9463053176637
 20
205.0324423325151
 30
0.0
  0
VERTEX
  5
522A
  8
0
 10
161.96341855410489
 20
205.06067284519699
 30
0.0
  0
VERTEX
  5
522B
  8
0
 10
161.98064539619389
 20
205.0883345321981
 30
0.0
  0
VERTEX
  5
522C
  8
0
 10
161.99798112174261
 20
205.11541933935911
 30
0.0
  0
VERTEX
  5
522D
  8
0
 10
162.00668832620971
 20
205.12874299116541
 30
0.0
  0
VERTEX
  5
522E
  8
0
 10
162.01542095843291
 20
205.14191956122141
 30
0.0
  0
VERTEX
  5
522F
  8
0
 10
162.03296009164109
 20
205.1678278501555
 30
0.0
  0
VERTEX
  5
5230
  8
0
 10
162.0505936723589
 20
205.19313722439981
 30
0.0
  0
VERTEX
  5
5231
  8
0
 10
162.0683168252144
 20
205.21784107502961
 30
0.0
  0
VERTEX
  5
5232
  8
0
 10
162.0861246565951
 20
205.2419331718728
 30
0.0
  0
VERTEX
  5
5233
  8
0
 10
162.10401226288559
 20
205.2654076683821
 30
0.0
  0
VERTEX
  5
5234
  8
0
 10
162.11298444855899
 20
205.2769115953275
 30
0.0
  0
VERTEX
  5
5235
  8
0
 10
162.12197473881719
 20
205.28825910546851
 30
0.0
  0
VERTEX
  5
5236
  8
0
 10
162.1400079283203
 20
205.31048331454909
 30
0.0
  0
VERTEX
  5
5237
  8
0
 10
162.1581091026805
 20
205.3320780593865
 30
0.0
  0
VERTEX
  5
5238
  8
0
 10
162.17627346890549
 20
205.35303879351679
 30
0.0
  0
VERTEX
  5
5239
  8
0
 10
162.19449603337529
 20
205.37336110226749
 30
0.0
  0
VERTEX
  5
523A
  8
0
 10
162.21277174676601
 20
205.39304088952849
 30
0.0
  0
VERTEX
  5
523B
  8
0
 10
162.22192794295191
 20
205.40263864793491
 30
0.0
  0
VERTEX
  5
523C
  8
0
 10
162.23109551132691
 20
205.41207439090661
 30
0.0
  0
VERTEX
  5
523D
  8
0
 10
162.24946218818101
 20
205.43045818567921
 30
0.0
  0
VERTEX
  5
523E
  8
0
 10
162.26786660464259
 20
205.4481892075766
 30
0.0
  0
VERTEX
  5
523F
  8
0
 10
162.3325040466429
 20
205.50507156732701
 30
0.0
  0
VERTEX
  5
5240
  8
0
 10
162.38805496962729
 20
205.54737885721431
 30
0.0
  0
VERTEX
  5
5241
  8
0
 10
162.44359359140111
 20
205.58371544462011
 30
0.0
  0
VERTEX
  5
5242
  8
0
 10
162.55407598660031
 20
205.6385725859295
 30
0.0
  0
VERTEX
  5
5243
  8
0
 10
162.662821862275
 20
205.67014809285021
 30
0.0
  0
VERTEX
  5
5244
  8
0
 10
162.7161902803586
 20
205.67750848295481
 30
0.0
  0
SEQEND
  5
5245
  8
0
  0
POLYLINE
  5
4441
  8
0
 66
     1
 10
0.0
 20
0.0
 30
0.0
  0
VERTEX
  5
5246
  8
0
 10
162.7161902803586
 20
205.67750848295481
 30
0.0
  0
VERTEX
  5
5247
  8
0
 10
162.72967457392929
 20
205.6785158356364
 30
0.0
  0
VERTEX
  5
5248
  8
0
 10
162.75674013963609
 20
205.6794948621727
 30
0.0
  0
VERTEX
  5
5249
  8
0
 10
162.78391947439599
 20
205.67907067041151
 30
0.0
  0
VERTEX
  5
524A
  8
0
 10
162.7975459631075
 20
205.67832451576299
 30
0.0
  0
VERTEX
  5
524B
  8
0
 10
162.8111938805373
 20
205.67721841127661
 30
0.0
  0
VERTEX
  5
524C
  8
0
 10
162.83854465455761
 20
205.6739154556555
 30
0.0
  0
VERTEX
  5
524D
  8
0
 10
162.8659531489956
 20
205.6691414008456
 30
0.0
  0
VERTEX
  5
524E
  8
0
 10
162.89340083316071
 20
205.66287806228439
 30
0.0
  0
VERTEX
  5
524F
  8
0
 10
162.92086935294029
 20
205.65510945042709
 30
0.0
  0
VERTEX
  5
5250
  8
0
 10
162.94834058986359
 20
205.6458217324894
 30
0.0
  0
VERTEX
  5
5251
  8
0
 10
162.9620716440599
 20
205.64060446281991
 30
0.0
  0
VERTEX
  5
5252
  8
0
 10
162.97579671954921
 20
205.63500317863949
 30
0.0
  0
VERTEX
  5
5253
  8
0
 10
163.00322026962061
 20
205.6226440921057
 30
0.0
  0
VERTEX
  5
5254
  8
0
 10
163.03059417335609
 20
205.6087367245803
 30
0.0
  0
VERTEX
  5
5255
  8
0
 10
163.05790168711701
 20
205.5932752563152
 30
0.0
  0
VERTEX
  5
5256
  8
0
 10
163.0851261475463
 20
205.5762559122519
 30
0.0
  0
VERTEX
  5
5257
  8
0
 10
163.1122509620682
 20
205.55767700165481
 30
0.0
  0
VERTEX
  5
5258
  8
0
 10
163.12577085058541
 20
205.54780274993189
 30
0.0
  0
VERTEX
  5
5259
  8
0
 10
163.1392596668486
 20
205.53753891471439
 30
0.0
  0
VERTEX
  5
525A
  8
0
 10
163.16613598305051
 20
205.5158441053041
 30
0.0
  0
VERTEX
  5
525B
  8
0
 10
163.19286387125109
 20
205.49259705992671
 30
0.0
  0
VERTEX
  5
525C
  8
0
 10
163.20616722100999
 20
205.48039339577701
 30
0.0
  0
SEQEND
  5
525D
  8
0
  0
POLYLINE
  5
4442
  8
0
 66
     1
 10
0.0
 20
0.0
 30
0.0
  0
VERTEX
  5
525E
  8
0
 10
163.62185868601631
 20
204.84872621613559
 30
0.0
  0
VERTEX
  5
525F
  8
0
 10
163.6319700723684
 20
204.82600812775419
 30
0.0
  0
VERTEX
  5
5260
  8
0
 10
163.65194286279529
 20
204.779834128316
 30
0.0
  0
VERTEX
  5
5261
  8
0
 10
163.67157619088451
 20
204.7327038745529
 30
0.0
  0
VERTEX
  5
5262
  8
0
 10
163.6812633149743
 20
204.70879082677911
 30
0.0
  0
VERTEX
  5
5263
  8
0
 10
163.69086292195919
 20
204.684651710899
 30
0.0
  0
VERTEX
  5
5264
  8
0
 10
163.7097962393334
 20
204.63571345080931
 30
0.0
  0
VERTEX
  5
5265
  8
0
 10
163.72836968007229
 20
204.58592630663301
 30
0.0
  0
VERTEX
  5
5266
  8
0
 10
163.7465771686152
 20
204.5353288092216
 30
0.0
  0
VERTEX
  5
5267
  8
0
 10
163.76441304833591
 20
204.4839607169761
 30
0.0
  0
VERTEX
  5
5268
  8
0
 10
163.78187211112021
 20
204.43186291393189
 30
0.0
  0
VERTEX
  5
5269
  8
0
 10
163.79045883811159
 20
204.40555342725571
 30
0.0
  0
VERTEX
  5
526A
  8
0
 10
163.79895965917851
 20
204.37904573205921
 30
0.0
  0
VERTEX
  5
526B
  8
0
 10
163.815809526322
 20
204.32509877038581
 30
0.0
  0
VERTEX
  5
526C
  8
0
 10
163.8324527404493
 20
204.26989654441559
 30
0.0
  0
VERTEX
  5
526D
  8
0
 10
163.8488740400571
 20
204.21345722510961
 30
0.0
  0
VERTEX
  5
526E
  8
0
 10
163.86505858282129
 20
204.15580079429461
 30
0.0
  0
VERTEX
  5
526F
  8
0
 10
163.88099198281429
 20
204.09694893347529
 30
0.0
  0
VERTEX
  5
5270
  8
0
 10
163.8888601418289
 20
204.06708192720649
 30
0.0
  0
VERTEX
  5
5271
  8
0
 10
163.8966603442054
 20
204.03692490165119
 30
0.0
  0
VERTEX
  5
5272
  8
0
 10
163.91205029155361
 20
203.97575340154719
 30
0.0
  0
VERTEX
  5
5273
  8
0
 10
163.92714899675019
 20
203.91346043368051
 30
0.0
  0
VERTEX
  5
5274
  8
0
 10
163.93458528029279
 20
203.88190184059221
 30
0.0
  0
VERTEX
  5
5275
  8
0
 10
163.94194420260601
 20
203.85007313772451
 30
0.0
  0
VERTEX
  5
5276
  8
0
 10
163.9564242430387
 20
203.78561962067661
 30
0.0
  0
VERTEX
  5
5277
  8
0
 10
163.97057805974731
 20
203.72012877142831
 30
0.0
  0
VERTEX
  5
5278
  8
0
 10
163.97752934593521
 20
203.6870035497665
 30
0.0
  0
VERTEX
  5
5279
  8
0
 10
163.98439519508699
 20
203.6536301602786
 30
0.0
  0
VERTEX
  5
527A
  8
0
 10
163.997865658725
 20
203.58615457417091
 30
0.0
  0
VERTEX
  5
527B
  8
0
 10
164.01097985039951
 20
203.5177344040606
 30
0.0
  0
VERTEX
  5
527C
  8
0
 10
164.02372858925719
 20
203.44840354787931
 30
0.0
  0
VERTEX
  5
527D
  8
0
 10
164.03610314575849
 20
203.37819727575689
 30
0.0
  0
VERTEX
  5
527E
  8
0
 10
164.04809526966031
 20
203.3071520872339
 30
0.0
  0
VERTEX
  5
527F
  8
0
 10
164.0539454782627
 20
203.2713266045929
 30
0.0
  0
VERTEX
  5
5280
  8
0
 10
164.05969721416
 20
203.23530556019341
 30
0.0
  0
VERTEX
  5
5281
  8
0
 10
164.07090175624671
 20
203.16269619123489
 30
0.0
  0
VERTEX
  5
5282
  8
0
 10
164.0817022132737
 20
203.08936322720609
 30
0.0
  0
VERTEX
  5
5283
  8
0
 10
164.0920924557326
 20
203.01534648763101
 30
0.0
  0
VERTEX
  5
5284
  8
0
 10
164.1020669161698
 20
202.94068617779141
 30
0.0
  0
VERTEX
  5
5285
  8
0
 10
164.11162182164199
 20
202.8654127649601
 30
0.0
  0
VERTEX
  5
5286
  8
0
 10
164.1162410953755
 20
202.8275536018206
 30
0.0
  0
VERTEX
  5
5287
  8
0
 10
164.12075414272789
 20
202.78955299815721
 30
0.0
  0
VERTEX
  5
5288
  8
0
 10
164.12945938245571
 20
202.71314864897019
 30
0.0
  0
VERTEX
  5
5289
  8
0
 10
164.13773346864579
 20
202.63624281628461
 30
0.0
  0
VERTEX
  5
528A
  8
0
 10
164.1455727962036
 20
202.55887967138941
 30
0.0
  0
VERTEX
  5
528B
  8
0
 10
164.1529742523355
 20
202.4811042956556
 30
0.0
  0
VERTEX
  5
528C
  8
0
 10
164.15993523754281
 20
202.4029625126667
 30
0.0
  0
VERTEX
  5
528D
  8
0
 10
164.16324988578461
 20
202.3637686986871
 30
0.0
  0
VERTEX
  5
528E
  8
0
 10
164.1664536824396
 20
202.324500714702
 30
0.0
  0
VERTEX
  5
528F
  8
0
 10
164.17252806041691
 20
202.24576568341459
 30
0.0
  0
VERTEX
  5
5290
  8
0
 10
164.17815739615841
 20
202.16680440451859
 30
0.0
  0
VERTEX
  5
5291
  8
0
 10
164.18334126996069
 20
202.08766387625579
 30
0.0
  0
VERTEX
  5
5292
  8
0
 10
164.1880798170445
 20
202.0083909247777
 30
0.0
  0
VERTEX
  5
5293
  8
0
 10
164.19237369884689
 20
201.92903248304171
 30
0.0
  0
VERTEX
  5
5294
  8
0
 10
164.19435422899369
 20
201.8893361198019
 30
0.0
  0
VERTEX
  5
5295
  8
0
 10
164.19622406094589
 20
201.84963641168829
 30
0.0
  0
VERTEX
  5
5296
  8
0
 10
164.1996325513478
 20
201.77025153886481
 30
0.0
  0
VERTEX
  5
5297
  8
0
 10
164.20260134905311
 20
201.6909274723676
 30
0.0
  0
VERTEX
  5
5298
  8
0
 10
164.20513318762781
 20
201.6117144091576
 30
0.0
  0
VERTEX
  5
5299
  8
0
 10
164.2072313738372
 20
201.5326629433012
 30
0.0
  0
VERTEX
  5
529A
  8
0
 10
164.20889980143801
 20
201.45382387235159
 30
0.0
  0
VERTEX
  5
529B
  8
0
 10
164.20957423537899
 20
201.4144998668194
 30
0.0
  0
VERTEX
  5
529C
  8
0
 10
164.21014296018839
 20
201.37524800204881
 30
0.0
  0
VERTEX
  5
529D
  8
0
 10
164.21096594011709
 20
201.29698594907879
 30
0.0
  0
VERTEX
  5
529E
  8
0
 10
164.21137443104431
 20
201.21908794150579
 30
0.0
  0
VERTEX
  5
529F
  8
0
 10
164.2114251840089
 20
201.180290995007
 30
0.0
  0
VERTEX
  5
52A0
  8
0
 10
164.21137443104431
 20
201.14149404850821
 30
0.0
  0
VERTEX
  5
52A1
  8
0
 10
164.2109659401176
 20
201.06359604093521
 30
0.0
  0
VERTEX
  5
52A2
  8
0
 10
164.21014296018839
 20
200.9853339879653
 30
0.0
  0
VERTEX
  5
52A3
  8
0
 10
164.20957423537939
 20
200.94608212319491
 30
0.0
  0
VERTEX
  5
52A4
  8
0
 10
164.20889980143829
 20
200.9067581176626
 30
0.0
  0
VERTEX
  5
52A5
  8
0
 10
164.2072313738376
 20
200.82791904671311
 30
0.0
  0
VERTEX
  5
52A6
  8
0
 10
164.20513318762801
 20
200.74886758085671
 30
0.0
  0
VERTEX
  5
52A7
  8
0
 10
164.20260134905359
 20
200.66965451764671
 30
0.0
  0
VERTEX
  5
52A8
  8
0
 10
164.1996325513482
 20
200.5903304511495
 30
0.0
  0
VERTEX
  5
52A9
  8
0
 10
164.19622406094641
 20
200.51094557832599
 30
0.0
  0
VERTEX
  5
52AA
  8
0
 10
164.19435422899409
 20
200.4712458702125
 30
0.0
  0
VERTEX
  5
52AB
  8
0
 10
164.1923736988474
 20
200.4315495069726
 30
0.0
  0
VERTEX
  5
52AC
  8
0
 10
164.18807981704501
 20
200.35219106523661
 30
0.0
  0
VERTEX
  5
52AD
  8
0
 10
164.1833412699616
 20
200.27291811375861
 30
0.0
  0
VERTEX
  5
52AE
  8
0
 10
164.17815739615929
 20
200.1937775854957
 30
0.0
  0
VERTEX
  5
52AF
  8
0
 10
164.17252806041779
 20
200.11481630659969
 30
0.0
  0
VERTEX
  5
52B0
  8
0
 10
164.1664536824405
 20
200.0360812753122
 30
0.0
  0
VERTEX
  5
52B1
  8
0
 10
164.16324988578569
 20
199.99681329132699
 30
0.0
  0
VERTEX
  5
52B2
  8
0
 10
164.1599352375442
 20
199.95761947734729
 30
0.0
  0
VERTEX
  5
52B3
  8
0
 10
164.15297425233661
 20
199.8794776943586
 30
0.0
  0
VERTEX
  5
52B4
  8
0
 10
164.1455727962047
 20
199.80170231862459
 30
0.0
  0
VERTEX
  5
52B5
  8
0
 10
164.13773346864721
 20
199.72433917372931
 30
0.0
  0
VERTEX
  5
52B6
  8
0
 10
164.1294593824573
 20
199.64743334104369
 30
0.0
  0
VERTEX
  5
52B7
  8
0
 10
164.12075414272979
 20
199.57102899185659
 30
0.0
  0
VERTEX
  5
52B8
  8
0
 10
164.11624109537701
 20
199.53302838819309
 30
0.0
  0
VERTEX
  5
52B9
  8
0
 10
164.11162182164389
 20
199.49516922505359
 30
0.0
  0
VERTEX
  5
52BA
  8
0
 10
164.10206691617171
 20
199.41989581222219
 30
0.0
  0
VERTEX
  5
52BB
  8
0
 10
164.0920924557345
 20
199.34523550238251
 30
0.0
  0
VERTEX
  5
52BC
  8
0
 10
164.08170221327549
 20
199.27121876280719
 30
0.0
  0
VERTEX
  5
52BD
  8
0
 10
164.0709017562485
 20
199.19788579877829
 30
0.0
  0
VERTEX
  5
52BE
  8
0
 10
164.05969721416199
 20
199.12527642981951
 30
0.0
  0
VERTEX
  5
52BF
  8
0
 10
164.05394547826469
 20
199.0892553854201
 30
0.0
  0
VERTEX
  5
52C0
  8
0
 10
164.0480952696625
 20
199.0534299027791
 30
0.0
  0
VERTEX
  5
52C1
  8
0
 10
164.03610314576051
 20
198.98238471425589
 30
0.0
  0
VERTEX
  5
52C2
  8
0
 10
164.02372858925941
 20
198.91217844213341
 30
0.0
  0
VERTEX
  5
52C3
  8
0
 10
164.01097985040181
 20
198.84284758595189
 30
0.0
  0
VERTEX
  5
52C4
  8
0
 10
163.99786565872719
 20
198.77442741584139
 30
0.0
  0
VERTEX
  5
52C5
  8
0
 10
163.98439519508969
 20
198.7069518297335
 30
0.0
  0
VERTEX
  5
52C6
  8
0
 10
163.97752934593771
 20
198.67357844024559
 30
0.0
  0
VERTEX
  5
52C7
  8
0
 10
163.9705780597501
 20
198.6404532185837
 30
0.0
  0
VERTEX
  5
52C8
  8
0
 10
163.95642424304131
 20
198.57496236933511
 30
0.0
  0
VERTEX
  5
52C9
  8
0
 10
163.94194420260871
 20
198.51050885228699
 30
0.0
  0
VERTEX
  5
52CA
  8
0
 10
163.93458528029529
 20
198.4786801494194
 30
0.0
  0
VERTEX
  5
52CB
  8
0
 10
163.92714899675269
 20
198.4471215563309
 30
0.0
  0
VERTEX
  5
52CC
  8
0
 10
163.9120502915564
 20
198.38482858846399
 30
0.0
  0
VERTEX
  5
52CD
  8
0
 10
163.8966603442081
 20
198.32365708835971
 30
0.0
  0
VERTEX
  5
52CE
  8
0
 10
163.8888601418316
 20
198.29350006280441
 30
0.0
  0
VERTEX
  5
52CF
  8
0
 10
163.88099198281719
 20
198.2636330565355
 30
0.0
  0
VERTEX
  5
52D0
  8
0
 10
163.8650585828241
 20
198.2047811957159
 30
0.0
  0
VERTEX
  5
52D1
  8
0
 10
163.8488740400598
 20
198.14712476490081
 30
0.0
  0
VERTEX
  5
52D2
  8
0
 10
163.832452740452
 20
198.0906854455946
 30
0.0
  0
VERTEX
  5
52D3
  8
0
 10
163.81580952632521
 20
198.03548321962401
 30
0.0
  0
VERTEX
  5
52D4
  8
0
 10
163.79895965918149
 20
197.98153625795061
 30
0.0
  0
VERTEX
  5
52D5
  8
0
 10
163.79045883811449
 20
197.95502856275391
 30
0.0
  0
VERTEX
  5
52D6
  8
0
 10
163.78187211112299
 20
197.9287190760775
 30
0.0
  0
VERTEX
  5
52D7
  8
0
 10
163.76441304833901
 20
197.87662127303329
 30
0.0
  0
VERTEX
  5
52D8
  8
0
 10
163.74657716861859
 20
197.8252531807876
 30
0.0
  0
VERTEX
  5
52D9
  8
0
 10
163.7283696800757
 20
197.77465568337621
 30
0.0
  0
VERTEX
  5
52DA
  8
0
 10
163.70979623933681
 20
197.72486853919969
 30
0.0
  0
VERTEX
  5
52DB
  8
0
 10
163.69086292196261
 20
197.67593027910979
 30
0.0
  0
VERTEX
  5
52DC
  8
0
 10
163.68126331497751
 20
197.65179116322949
 30
0.0
  0
VERTEX
  5
52DD
  8
0
 10
163.67157619088809
 20
197.62787811545579
 30
0.0
  0
VERTEX
  5
52DE
  8
0
 10
163.65194286279871
 20
197.5807478616924
 30
0.0
  0
VERTEX
  5
52DF
  8
0
 10
163.63197007237201
 20
197.53457386225409
 30
0.0
  0
VERTEX
  5
52E0
  8
0
 10
163.62185868602
 20
197.51185577387261
 30
0.0
  0
SEQEND
  5
52E1
  8
0
  0
POLYLINE
  5
4443
  8
0
 66
     1
 10
0.0
 20
0.0
 30
0.0
  0
VERTEX
  5
52E2
  8
0
 10
163.20616722100931
 20
196.8801885942226
 30
0.0
  0
VERTEX
  5
52E3
  8
0
 10
163.1928638712584
 20
196.8679849300797
 30
0.0
  0
VERTEX
  5
52E4
  8
0
 10
163.16613598307271
 20
196.84473788471499
 30
0.0
  0
VERTEX
  5
52E5
  8
0
 10
163.1392596668868
 20
196.82304307531541
 30
0.0
  0
VERTEX
  5
52E6
  8
0
 10
163.1257708506314
 20
196.8127792401026
 30
0.0
  0
VERTEX
  5
52E7
  8
0
 10
163.11225096212181
 20
196.802904988384
 30
0.0
  0
VERTEX
  5
52E8
  8
0
 10
163.08512614761611
 20
196.78432607779399
 30
0.0
  0
VERTEX
  5
52E9
  8
0
 10
163.0579016872029
 20
196.76730673373601
 30
0.0
  0
VERTEX
  5
52EA
  8
0
 10
163.0305941734577
 20
196.7518452654746
 30
0.0
  0
VERTEX
  5
52EB
  8
0
 10
163.00322026973839
 20
196.7379378979509
 30
0.0
  0
VERTEX
  5
52EC
  8
0
 10
162.97579671968279
 20
196.72557881141711
 30
0.0
  0
VERTEX
  5
52ED
  8
0
 10
162.96207164420159
 20
196.7199775272361
 30
0.0
  0
VERTEX
  5
52EE
  8
0
 10
162.9483405900132
 20
196.71476025756559
 30
0.0
  0
VERTEX
  5
52EF
  8
0
 10
162.9208693531059
 20
196.70547253962451
 30
0.0
  0
VERTEX
  5
52F0
  8
0
 10
162.89340083334221
 20
196.69770392776221
 30
0.0
  0
VERTEX
  5
52F1
  8
0
 10
162.86595314919259
 20
196.69144058919429
 30
0.0
  0
VERTEX
  5
52F2
  8
0
 10
162.83854465477
 20
196.686666534376
 30
0.0
  0
VERTEX
  5
52F3
  8
0
 10
162.8111938807649
 20
196.683363578745
 30
0.0
  0
VERTEX
  5
52F4
  8
0
 10
162.7975459633426
 20
196.68225747425311
 30
0.0
  0
VERTEX
  5
52F5
  8
0
 10
162.7839194746384
 20
196.6815113195988
 30
0.0
  0
VERTEX
  5
52F6
  8
0
 10
162.7567401398932
 20
196.6810871278249
 30
0.0
  0
VERTEX
  5
52F7
  8
0
 10
162.729674574201
 20
196.6820661543469
 30
0.0
  0
VERTEX
  5
52F8
  8
0
 10
162.71619028063739
 20
196.68307350702091
 30
0.0
  0
SEQEND
  5
52F9
  8
0
  0
POLYLINE
  5
4444
  8
0
 66
     1
 10
0.0
 20
0.0
 30
0.0
  0
VERTEX
  5
52FA
  8
0
 10
162.71619028063739
 20
196.68307350702091
 30
0.0
  0
VERTEX
  5
52FB
  8
0
 10
162.6628236392398
 20
196.69043356267039
 30
0.0
  0
VERTEX
  5
52FC
  8
0
 10
162.5541270156329
 20
196.72198938173551
 30
0.0
  0
VERTEX
  5
52FD
  8
0
 10
162.44373615053061
 20
196.7767808687224
 30
0.0
  0
VERTEX
  5
52FE
  8
0
 10
162.3882524191435
 20
196.81306344850489
 30
0.0
  0
VERTEX
  5
52FF
  8
0
 10
162.33275880980219
 20
196.85530262860351
 30
0.0
  0
VERTEX
  5
5300
  8
0
 10
162.26818742634461
 20
196.9120897912338
 30
0.0
  0
VERTEX
  5
5301
  8
0
 10
162.24980114937421
 20
196.92979101679069
 30
0.0
  0
VERTEX
  5
5302
  8
0
 10
162.23145210870459
 20
196.9481440748759
 30
0.0
  0
VERTEX
  5
5303
  8
0
 10
162.22229314099189
 20
196.95756413843631
 30
0.0
  0
VERTEX
  5
5304
  8
0
 10
162.2131453856484
 20
196.9671460334807
 30
0.0
  0
VERTEX
  5
5305
  8
0
 10
162.1948860312616
 20
196.98679361603379
 30
0.0
  0
VERTEX
  5
5306
  8
0
 10
162.17667905929551
 20
197.0070832114931
 30
0.0
  0
VERTEX
  5
5307
  8
0
 10
162.1585294391752
 20
197.0280108855483
 30
0.0
  0
VERTEX
  5
5308
  8
0
 10
162.14044208899981
 20
197.04957239295911
 30
0.0
  0
VERTEX
  5
5309
  8
0
 10
162.1224218685652
 20
197.07176319106361
 30
0.0
  0
VERTEX
  5
530A
  8
0
 10
162.11343828337681
 20
197.08309326705131
 30
0.0
  0
VERTEX
  5
530B
  8
0
 10
162.10447256706669
 20
197.09457975256259
 30
0.0
  0
VERTEX
  5
530C
  8
0
 10
162.086596980032
 20
197.11801967243889
 30
0.0
  0
VERTEX
  5
530D
  8
0
 10
162.0687998575699
 20
197.14207782187339
 30
0.0
  0
VERTEX
  5
530E
  8
0
 10
162.05108600573249
 20
197.1667486305536
 30
0.0
  0
VERTEX
  5
530F
  8
0
 10
162.0334602250027
 20
197.19202615672739
 30
0.0
  0
VERTEX
  5
5310
  8
0
 10
162.0159273023018
 20
197.2179040914277
 30
0.0
  0
VERTEX
  5
5311
  8
0
 10
162.00719715297461
 20
197.23106614127789
 30
0.0
  0
VERTEX
  5
5312
  8
0
 10
161.99849200310561
 20
197.24437576369681
 30
0.0
  0
VERTEX
  5
5313
  8
0
 10
161.9811590636611
 20
197.27143414681649
 30
0.0
  0
VERTEX
  5
5314
  8
0
 10
161.96393318330681
 20
197.29907186556011
 30
0.0
  0
VERTEX
  5
5315
  8
0
 10
161.94681901688361
 20
197.3272812044759
 30
0.0
  0
VERTEX
  5
5316
  8
0
 10
161.9298211672405
 20
197.35605411722929
 30
0.0
  0
VERTEX
  5
5317
  8
0
 10
161.91294417782819
 20
197.3853822370244
 30
0.0
  0
VERTEX
  5
5318
  8
0
 10
161.9045524074927
 20
197.40025180012739
 30
0.0
  0
VERTEX
  5
5319
  8
0
 10
161.89619252538159
 20
197.41525688813601
 30
0.0
  0
VERTEX
  5
531A
  8
0
 10
161.8795706126871
 20
197.44566909858551
 30
0.0
  0
VERTEX
  5
531B
  8
0
 10
161.86308276143879
 20
197.47660961399851
 30
0.0
  0
VERTEX
  5
531C
  8
0
 10
161.84673320517999
 20
197.5080689126859
 30
0.0
  0
VERTEX
  5
531D
  8
0
 10
161.8305260823654
 20
197.54003722193389
 30
0.0
  0
VERTEX
  5
531E
  8
0
 10
161.814465442017
 20
197.57250451002321
 30
0.0
  0
VERTEX
  5
531F
  8
0
 10
161.8064913053808
 20
197.5889220414885
 30
0.0
  0
VERTEX
  5
5320
  8
0
 10
161.7985552890168
 20
197.605460392943
 30
0.0
  0
VERTEX
  5
5321
  8
0
 10
161.78279959781551
 20
197.6388940944837
 30
0.0
  0
VERTEX
  5
5322
  8
0
 10
161.76720230336809
 20
197.67279445097211
 30
0.0
  0
VERTEX
  5
5323
  8
0
 10
161.75946427148929
 20
197.68991603189079
 30
0.0
  0
VERTEX
  5
5324
  8
0
 10
161.7517672917586
 20
197.70714991812559
 30
0.0
  0
VERTEX
  5
5325
  8
0
 10
161.73649839103919
 20
197.74194857901759
 30
0.0
  0
VERTEX
  5
5326
  8
0
 10
161.72139936228061
 20
197.77717815315819
 30
0.0
  0
VERTEX
  5
5327
  8
0
 10
161.71391470475049
 20
197.79495059812041
 30
0.0
  0
VERTEX
  5
5328
  8
0
 10
161.706473890832
 20
197.81282600670161
 30
0.0
  0
VERTEX
  5
5329
  8
0
 10
161.6917255777978
 20
197.84887916379631
 30
0.0
  0
VERTEX
  5
532A
  8
0
 10
161.67715793172459
 20
197.8853243191021
 30
0.0
  0
VERTEX
  5
532B
  8
0
 10
161.66277436050271
 20
197.92214785150151
 30
0.0
  0
VERTEX
  5
532C
  8
0
 10
161.6485781634801
 20
197.95933583904241
 30
0.0
  0
VERTEX
  5
532D
  8
0
 10
161.63457252379379
 20
197.9968740751525
 30
0.0
  0
VERTEX
  5
532E
  8
0
 10
161.62764212406589
 20
198.01577002332891
 30
0.0
  0
VERTEX
  5
532F
  8
0
 10
161.62076050091309
 20
198.03474808617551
 30
0.0
  0
VERTEX
  5
5330
  8
0
 10
161.60714502340579
 20
198.07294315028301
 30
0.0
  0
VERTEX
  5
5331
  8
0
 10
161.5937279340753
 20
198.11144706899131
 30
0.0
  0
VERTEX
  5
5332
  8
0
 10
161.58044040746989
 20
198.1504570996816
 30
0.0
  0
VERTEX
  5
5333
  8
0
 10
161.56724395603459
 20
198.19009730850519
 30
0.0
  0
VERTEX
  5
5334
  8
0
 10
161.55414599190161
 20
198.23036080301111
 30
0.0
  0
VERTEX
  5
5335
  8
0
 10
161.54763623551179
 20
198.25072399485839
 30
0.0
  0
VERTEX
  5
5336
  8
0
 10
161.54115384074339
 20
198.2712402038691
 30
0.0
  0
VERTEX
  5
5337
  8
0
 10
161.52827473132629
 20
198.3127276640279
 30
0.0
  0
VERTEX
  5
5338
  8
0
 10
161.51551578546881
 20
198.354814889263
 30
0.0
  0
VERTEX
  5
5339
  8
0
 10
161.5028840083996
 20
198.39749316019811
 30
0.0
  0
VERTEX
  5
533A
  8
0
 10
161.4903862795108
 20
198.44075335588221
 30
0.0
  0
VERTEX
  5
533B
  8
0
 10
161.47802934350781
 20
198.48458597900569
 30
0.0
  0
VERTEX
  5
533C
  8
0
 10
161.47190574164341
 20
198.50671388663011
 30
0.0
  0
VERTEX
  5
533D
  8
0
 10
161.46581980196331
 20
198.5289811828379
 30
0.0
  0
VERTEX
  5
533E
  8
0
 10
161.45376410528979
 20
198.57392879996169
 30
0.0
  0
VERTEX
  5
533F
  8
0
 10
161.44186854514689
 20
198.61941837288441
 30
0.0
  0
VERTEX
  5
5340
  8
0
 10
161.43013924730531
 20
198.6654391865969
 30
0.0
  0
VERTEX
  5
5341
  8
0
 10
161.41858216499801
 20
198.71198030314659
 30
0.0
  0
VERTEX
  5
5342
  8
0
 10
161.4072030727875
 20
198.75903059828599
 30
0.0
  0
VERTEX
  5
5343
  8
0
 10
161.40158202768771
 20
198.78274316833171
 30
0.0
  0
VERTEX
  5
5344
  8
0
 10
161.39600756583971
 20
198.80657877938771
 30
0.0
  0
VERTEX
  5
5345
  8
0
 10
161.38500109624599
 20
198.8546132407555
 30
0.0
  0
VERTEX
  5
5346
  8
0
 10
161.37418899916861
 20
198.90312193900419
 30
0.0
  0
VERTEX
  5
5347
  8
0
 10
161.36357648469539
 20
198.95209240648049
 30
0.0
  0
VERTEX
  5
5348
  8
0
 10
161.3531686276574
 20
199.0015117764714
 30
0.0
  0
VERTEX
  5
5349
  8
0
 10
161.34297035803229
 20
199.05136680955519
 30
0.0
  0
VERTEX
  5
534A
  8
0
 10
161.33795131728081
 20
199.0764534672783
 30
0.0
  0
VERTEX
  5
534B
  8
0
 10
161.33298645193869
 20
199.10164392114629
 30
0.0
  0
VERTEX
  5
534C
  8
0
 10
161.32322152322311
 20
199.15232921028851
 30
0.0
  0
VERTEX
  5
534D
  8
0
 10
161.3136800156467
 20
199.20340848974689
 30
0.0
  0
VERTEX
  5
534E
  8
0
 10
161.30899438517011
 20
199.22909137176489
 30
0.0
  0
VERTEX
  5
534F
  8
0
 10
161.3043661956913
 20
199.25486731745519
 30
0.0
  0
VERTEX
  5
5350
  8
0
 10
161.2952841459946
 20
199.30669102936741
 30
0.0
  0
VERTEX
  5
5351
  8
0
 10
161.2864377594328
 20
199.35886477376479
 30
0.0
  0
VERTEX
  5
5352
  8
0
 10
161.2821041031589
 20
199.38507822444811
 30
0.0
  0
VERTEX
  5
5353
  8
0
 10
161.27783073387761
 20
199.41137354706751
 30
0.0
  0
VERTEX
  5
5354
  8
0
 10
161.2694665676492
 20
199.46420223119159
 30
0.0
  0
VERTEX
  5
5355
  8
0
 10
161.26134855548841
 20
199.5173356338745
 30
0.0
  0
VERTEX
  5
5356
  8
0
 10
161.2534788717382
 20
199.5707648503095
 30
0.0
  0
VERTEX
  5
5357
  8
0
 10
161.24585970663469
 20
199.62448035515499
 30
0.0
  0
VERTEX
  5
5358
  8
0
 10
161.23849401724831
 20
199.67846627461179
 30
0.0
  0
VERTEX
  5
5359
  8
0
 10
161.23490710261689
 20
199.7055555889122
 30
0.0
  0
VERTEX
  5
535A
  8
0
 10
161.23138458635799
 20
199.7327064076911
 30
0.0
  0
VERTEX
  5
535B
  8
0
 10
161.2245340138293
 20
199.7871842585985
 30
0.0
  0
VERTEX
  5
535C
  8
0
 10
161.21794470878351
 20
199.84188307005459
 30
0.0
  0
VERTEX
  5
535D
  8
0
 10
161.21161888257029
 20
199.8967858575767
 30
0.0
  0
VERTEX
  5
535E
  8
0
 10
161.20555854254599
 20
199.95187544474459
 30
0.0
  0
VERTEX
  5
535F
  8
0
 10
161.1997654866754
 20
200.00713449948049
 30
0.0
  0
VERTEX
  5
5360
  8
0
 10
161.19696969376579
 20
200.0348221275126
 30
0.0
  0
VERTEX
  5
5361
  8
0
 10
161.194241298967
 20
200.06254557137231
 30
0.0
  0
VERTEX
  5
5362
  8
0
 10
161.1889873457562
 20
200.11809113007121
 30
0.0
  0
VERTEX
  5
5363
  8
0
 10
161.18400477285579
 20
200.17375360479639
 30
0.0
  0
VERTEX
  5
5364
  8
0
 10
161.1816155512879
 20
200.20162319372281
 30
0.0
  0
SEQEND
  5
5365
  8
0
  0
LINE
  5
4445
  8
0
 10
139.12198407801719
 20
205.88029099500019
 30
0.0
 11
139.12198407801719
 21
196.48029099499999
 31
0.0
  0
LINE
  5
4446
  8
0
 10
163.62198407801719
 20
205.4802909950001
 30
0.0
 11
163.62198407801719
 21
196.88029099500011
 31
0.0
  0
LINE
  5
4447
  8
0
 10
139.4219840780174
 20
206.18029099500009
 30
0.0
 11
139.4219840780174
 21
196.18029099500009
 31
0.0
  0
LINE
  5
4448
  8
1
 10
172.9890254970334
 20
201.18029099500009
 30
0.0
 11
95.821984078017294
 21
201.18029099500009
 31
0.0
  0
LINE
  5
4645
  8
0
 10
20.921984078017658
 20
93.782922618398203
 30
0.0
 11
40.321984078017522
 21
93.782922618398203
 31
0.0
  0
TEXT
  5
46EC
  8
0
 62
     3
 10
0.0
 20
0.0
 30
0.0
 40
10.0
  1
SKPZN09-14
  7
STANDARD1
  0
ENDSEC
  0
EOF
