  0
SECTION
  2
HEADER
  9
$ACADVER
  1
AC1009
  9
$INSBASE
 10
0.0
 20
0.0
 30
0.0
  9
$EXTMIN
 10
0.0
 20
-2.960436562073669
 30
0.0
  9
$EXTMAX
 10
241.6890254970338106
 20
213.8802909949999105
 30
0.0
  9
$LIMMIN
 10
0.0
 20
0.0
  9
$LIMMAX
 10
375.0
 20
270.0
  9
$ORTHOMODE
 70
     1
  9
$REGENMODE
 70
     1
  9
$FILLMODE
 70
     1
  9
$QTEXTMODE
 70
     0
  9
$MIRRTEXT
 70
     0
  9
$DRAGMODE
 70
     2
  9
$LTSCALE
 40
10.0
  9
$OSMODE
 70
    37
  9
$ATTMODE
 70
     1
  9
$TEXTSIZE
 40
4.000000000000048
  9
$TRACEWID
 40
0.05
  9
$TEXTSTYLE
  7
STANDARD
  9
$CLAYER
  8
0
  9
$CELTYPE
  6
BYLAYER
  9
$CECOLOR
 62
   256
  9
$DIMSCALE
 40
1.0
  9
$DIMASZ
 40
3.0
  9
$DIMEXO
 40
2.0
  9
$DIMDLI
 40
0.38
  9
$DIMRND
 40
0.0
  9
$DIMDLE
 40
0.0
  9
$DIMEXE
 40
2.0
  9
$DIMTP
 40
0.0
  9
$DIMTM
 40
0.0
  9
$DIMTXT
 40
3.2000000000000002
  9
$DIMCEN
 40
0.0
  9
$DIMTSZ
 40
0.0
  9
$DIMTOL
 70
     0
  9
$DIMLIM
 70
     0
  9
$DIMTIH
 70
     0
  9
$DIMTOH
 70
     0
  9
$DIMSE1
 70
     0
  9
$DIMSE2
 70
     0
  9
$DIMTAD
 70
     1
  9
$DIMZIN
 70
     0
  9
$DIMBLK
  1

  9
$DIMASO
 70
     0
  9
$DIMSHO
 70
     0
  9
$DIMPOST
  1

  9
$DIMAPOST
  1

  9
$DIMALT
 70
     0
  9
$DIMALTD
 70
     2
  9
$DIMALTF
 40
25.3999999999999986
  9
$DIMLFAC
 40
1.0
  9
$DIMTOFL
 70
     0
  9
$DIMTVP
 40
1.6000000000000001
  9
$DIMTIX
 70
     1
  9
$DIMSOXD
 70
     0
  9
$DIMSAH
 70
     0
  9
$DIMBLK1
  1

  9
$DIMBLK2
  1

  9
$DIMSTYLE
  2
STANDARD
  9
$DIMCLRD
 70
     4
  9
$DIMCLRE
 70
     4
  9
$DIMCLRT
 70
     4
  9
$DIMTFAC
 40
1.0
  9
$DIMGAP
 40
0.09
  9
$LUNITS
 70
     2
  9
$LUPREC
 70
     1
  9
$SKETCHINC
 40
0.1
  9
$FILLETRAD
 40
22.0
  9
$AUNITS
 70
     0
  9
$AUPREC
 70
     0
  9
$MENU
  1
E:\r13\win\SUPPORT\ACAD
  9
$ELEVATION
 40
0.0
  9
$PELEVATION
 40
0.0
  9
$THICKNESS
 40
0.0
  9
$LIMCHECK
 70
     0
  9
$BLIPMODE
 70
     0
  9
$CHAMFERA
 40
1.1999999999999991
  9
$CHAMFERB
 40
1.1999999999999991
  9
$SKPOLY
 70
     0
  9
$TDCREATE
 40
2449954.6020138887688518
  9
$TDUPDATE
 40
2460812.3757986109703779
  9
$TDINDWG
 40
0.7873546065
  9
$TDUSRTIMER
 40
0.7873546065
  9
$USRTIMER
 70
     1
  9
$ANGBASE
 50
0.0
  9
$ANGDIR
 70
     0
  9
$PDMODE
 70
     0
  9
$PDSIZE
 40
0.0
  9
$PLINEWID
 40
0.0
  9
$COORDS
 70
     1
  9
$SPLFRAME
 70
     0
  9
$SPLINETYPE
 70
     6
  9
$SPLINESEGS
 70
     8
  9
$ATTDIA
 70
     1
  9
$ATTREQ
 70
     1
  9
$HANDLING
 70
     1
  9
$HANDSEED
  5
538A
  9
$SURFTAB1
 70
     6
  9
$SURFTAB2
 70
     6
  9
$SURFTYPE
 70
     6
  9
$SURFU
 70
     6
  9
$SURFV
 70
     6
  9
$UCSNAME
  2

  9
$UCSORG
 10
0.0
 20
0.0
 30
0.0
  9
$UCSXDIR
 10
1.0
 20
0.0
 30
0.0
  9
$UCSYDIR
 10
0.0
 20
1.0
 30
0.0
  9
$PUCSNAME
  2

  9
$PUCSORG
 10
0.0
 20
0.0
 30
0.0
  9
$PUCSXDIR
 10
1.0
 20
0.0
 30
0.0
  9
$PUCSYDIR
 10
0.0
 20
1.0
 30
0.0
  9
$USERI1
 70
     0
  9
$USERI2
 70
     1
  9
$USERI3
 70
     0
  9
$USERI4
 70
     0
  9
$USERI5
 70
     0
  9
$USERR1
 40
0.0
  9
$USERR2
 40
0.0
  9
$USERR3
 40
0.0
  9
$USERR4
 40
0.0
  9
$USERR5
 40
0.0
  9
$WORLDVIEW
 70
     1
  9
$SHADEDGE
 70
     3
  9
$SHADEDIF
 70
    70
  9
$TILEMODE
 70
     1
  9
$MAXACTVP
 70
    16
  9
$PLIMCHECK
 70
     0
  9
$PEXTMIN
 10
1.0000000000000000E+20
 20
1.0000000000000000E+20
 30
1.0000000000000000E+20
  9
$PEXTMAX
 10
-1.0000000000000000E+20
 20
-1.0000000000000000E+20
 30
-1.0000000000000000E+20
  9
$PLIMMIN
 10
0.0
 20
0.0
  9
$PLIMMAX
 10
12.0
 20
9.0
  9
$UNITMODE
 70
     0
  9
$VISRETAIN
 70
     0
  9
$PLINEGEN
 70
     0
  9
$PSLTSCALE
 70
     0
  0
ENDSEC
  0
SECTION
  2
TABLES
  0
TABLE
  2
VPORT
 70
     1
  0
VPORT
  2
*ACTIVE
 70
     0
 10
0.0
 20
0.0
 11
1.0
 21
1.0
 12
428.1021897810218775
 22
182.2857777148346941
 13
0.0
 23
0.0
 14
10.0
 24
10.0
 15
10.0
 25
10.0
 16
0.0
 26
0.0
 36
1.0
 17
0.0
 27
0.0
 37
0.0
 40
364.5715554296695018
 41
2.3485221674876842
 42
50.0
 43
0.0
 44
0.0
 50
0.0
 51
0.0
 71
     0
 72
   500
 73
     1
 74
     0
 75
     0
 76
     0
 77
     0
 78
     2
  0
ENDTAB
  0
TABLE
  2
LTYPE
 70
     3
  0
LTYPE
  2
CONTINUOUS
 70
     0
  3
Solid Line
 72
    65
 73
     0
 40
0.0
  0
LTYPE
  2
CENTER
 70
     0
  3
____ _ ____ _ ____ _ ____ _ ____ _ ____ _ ____
 72
    65
 73
     4
 40
2.0
 49
1.25
 49
-0.25
 49
0.25
 49
-0.25
  0
LTYPE
  2
HIDDEN
 70
     0
  3
_ _ _ _ _ _ _ _ _ _ _ _ _ _ _ _ _ _ _ _ _ _ _
 72
    65
 73
     2
 40
0.375
 49
0.25
 49
-0.125
  0
ENDTAB
  0
TABLE
  2
LAYER
 70
     5
  0
LAYER
  2
0
 70
     0
 62
     7
  6
CONTINUOUS
  0
LAYER
  2
1
 70
     0
 62
     1
  6
CENTER
  0
LAYER
  2
3
 70
     0
 62
     3
  6
CONTINUOUS
  0
LAYER
  2
2
 70
     0
 62
     2
  6
HIDDEN
  0
LAYER
  2
DEFPOINTS
 70
     0
 62
     7
  6
CONTINUOUS
  0
ENDTAB
  0
TABLE
  2
STYLE
 70
     2
  0
STYLE
  2
STANDARD
 70
     0
 40
0.0
 41
1.0
 50
0.0
 71
     0
 42
4.000000000000048
  3
SIMPLEX
  4
BIGFONT
  0
STYLE
  2
STANDARD1
 70
     0
 40
0.0
 41
1.0
 50
0.0
 71
     0
 42
3.0
  3
txt
  4

  0
ENDTAB
  0
TABLE
  2
VIEW
 70
     1
  0
VIEW
  2
ALL
 70
     0
 40
270.0
 10
220.785953177257511
 20
135.0
 41
441.571906354515022
 11
0.0
 21
0.0
 31
1.0
 12
0.0
 22
0.0
 32
0.0
 42
50.0
 43
0.0
 44
0.0
 50
0.0
 71
     0
  0
ENDTAB
  0
TABLE
  2
UCS
 70
     0
  0
ENDTAB
  0
TABLE
  2
APPID
 70
     4
  0
APPID
  2
ACAD
 70
     0
  0
APPID
  2
ACAD_EXEMPT_FROM_CAD_STANDARDS
 70
     0
  0
APPID
  2
ACAD_MLEADERVER
 70
     0
  0
APPID
  2
ACAD_NAV_VCDISPLAY
 70
     0
  0
ENDTAB
  0
TABLE
  2
DIMSTYLE
 70
     1
  0
DIMSTYLE
  2
STANDARD
 70
     0
  3

  4

  5

  6

  7

 40
1.0
 41
0.18
 42
0.0625
 43
0.38
 44
0.18
 45
0.0
 46
0.0
 47
0.0
 48
0.0
140
0.18
141
0.09
142
0.0
143
25.3999999999999986
144
1.0
145
0.0
146
1.0
147
0.09
 71
     0
 72
     0
 73
     1
 74
     1
 75
     0
 76
     0
 77
     0
 78
     0
170
     0
171
     2
172
     0
173
     0
174
     0
175
     0
176
     0
177
     0
178
     0
  0
ENDTAB
  0
ENDSEC
  0
SECTION
  2
BLOCKS
  0
BLOCK
  8
0
  2
$MODEL_SPACE
 70
     0
 10
0.0
 20
0.0
 30
0.0
  3
$MODEL_SPACE
  1

  0
ENDBLK
  5
F3C
  8
0
  0
BLOCK
 67
     1
  8
0
  2
$PAPER_SPACE
 70
     0
 10
0.0
 20
0.0
 30
0.0
  3
$PAPER_SPACE
  1

  0
ENDBLK
  5
F3A
 67
     1
  8
0
  0
ENDSEC
  0
SECTION
  2
ENTITIES
  0
ARC
  5
3362
  8
0
 10
114.3219840780174934
 20
119.1802909949999929
 30
0.0
 40
7.0
 50
270.0
 51
0.0
  0
LINE
  5
3363
  8
0
 10
131.5719840780174934
 20
119.1802909949999929
 30
0.0
 11
121.3219840780174934
 21
119.1802909949999929
 31
0.0
  0
ARC
  5
3364
  8
0
 10
131.5719840780174934
 20
120.9302909949999929
 30
0.0
 40
1.75
 50
270.0
 51
90.0
  0
LINE
  5
3365
  8
0
 10
120.384161904508602
 20
122.6802909949999929
 30
0.0
 11
131.5719840780174934
 21
122.6802909949999929
 31
0.0
  0
ARC
  5
3366
  8
0
 10
114.3219840780174934
 20
119.1802909949999929
 30
0.0
 40
7.0000000000000071
 50
30.0000000000006501
 51
253.3984504009837053
  0
LINE
  5
42EC
  8
0
 10
138.3219840780174934
 20
99.1802909949999787
 30
0.0
 11
139.1219840780175048
 21
99.1802909949999787
 31
0.0
  0
LINE
  5
42ED
  8
0
 10
139.1219840780175048
 20
108.1802909949998934
 30
0.0
 11
138.3219840780174934
 21
108.1802909949998934
 31
0.0
  0
LINE
  5
42EE
  8
0
 10
114.3219840780174934
 20
105.6802909949999929
 30
0.0
 11
112.3219840780079011
 21
105.6802909949999929
 31
0.0
  0
LINE
  5
42EF
  8
0
 10
112.3219840780079011
 20
101.6802909949999929
 30
0.0
 11
114.3219840780174934
 21
101.6802909949999929
 31
0.0
  0
CIRCLE
  5
42F0
  8
0
 10
97.321984078017536
 20
136.1802909949998934
 30
0.0
 40
5.0000000000000142
  0
LINE
  5
42F1
  8
0
 10
90.9974287576808365
 20
139.1802909950000071
 30
0.0
 11
90.3219840780175218
 21
139.1802909950000071
 31
0.0
  0
ARC
  5
42F2
  8
0
 10
97.321984078017536
 20
136.1802909949998934
 30
0.0
 40
7.000000000000016
 50
205.3769335251550103
 51
154.6230664748449044
  0
LINE
  5
42F3
  8
0
 10
90.3219840780175218
 20
133.1802909949998934
 30
0.0
 11
90.9974287576808365
 21
133.1802909949998934
 31
0.0
  0
CIRCLE
  5
42F4
  8
0
 10
131.3219840780174934
 20
136.1802909949998934
 30
0.0
 40
5.0000000000000284
  0
LINE
  5
42F5
  8
0
 10
137.6465393983544061
 20
133.1802909949998934
 30
0.0
 11
138.3219840780174934
 21
133.1802909949998934
 31
0.0
  0
ARC
  5
42F6
  8
0
 10
131.3219840780174934
 20
136.1802909949998934
 30
0.0
 40
7.000000000000016
 50
25.3769335251550601
 51
334.6230664748449044
  0
LINE
  5
42F7
  8
0
 10
138.3219840780174934
 20
139.1802909950000071
 30
0.0
 11
137.6465393983544061
 21
139.1802909950000071
 31
0.0
  0
ARC
  5
42F9
  8
0
 10
134.3219840780174934
 20
154.5015021142934017
 30
0.0
 40
4.0000000000000071
 50
0.0
 51
74.7424767095414921
  0
ARC
  5
42FA
  8
0
 10
134.3219840780174934
 20
100.3590798757064988
 30
0.0
 40
4.0000000000000284
 50
285.2575232904584936
 51
0.0
  0
ARC
  5
42FB
  8
0
 10
114.3219840780174934
 20
173.6802909949998934
 30
0.0
 40
80.0
 50
271.4692835813585248
 51
285.2575232904584936
  0
ARC
  5
42FC
  8
0
 10
116.3219840780174934
 20
95.705936236528288
 30
0.0
 40
2.0000000000000102
 50
180.0
 51
271.4692835813585248
  0
LINE
  5
42FD
  8
0
 10
114.3219840780174934
 20
112.1802909949999929
 30
0.0
 11
114.3219840780174934
 21
95.705936236528288
 31
0.0
  0
LINE
  5
4303
  8
0
 10
112.3219840780174934
 20
95.782922618398203
 30
0.0
 11
112.3219840780174934
 21
112.4720870625006057
 31
0.0
  0
ARC
  5
4304
  8
0
 10
110.3219840780174934
 20
95.782922618398203
 30
0.0
 40
2.0
 50
267.0604655135693974
 51
0.0
  0
ARC
  5
4305
  8
0
 10
114.3219840780174934
 20
173.6802909949998934
 30
0.0
 40
80.0
 50
254.7424767095415064
 51
267.0604655135693974
  0
ARC
  5
4306
  8
0
 10
94.3219840780175218
 20
100.3590798757064988
 30
0.0
 40
4.0000000000000151
 50
180.0
 51
254.7424767095415064
  0
ARC
  5
4307
  8
0
 10
94.3219840780175218
 20
154.5015021142934017
 30
0.0
 40
4.0000000000000178
 50
105.2575232904584936
 51
180.0
  0
ARC
  5
4308
  8
0
 10
114.3219840780174934
 20
81.1802909949999645
 30
0.0
 40
80.0000000000000142
 50
74.7424767095414921
 51
105.2575232904584936
  0
LINE
  5
4309
  8
0
 10
138.3219840780174934
 20
100.3590798757064988
 30
0.0
 11
138.3219840780174934
 21
154.5015021142934017
 31
0.0
  0
LINE
  5
430A
  8
0
 10
90.3219840780175218
 20
154.5015021142934017
 30
0.0
 11
90.3219840780175218
 21
100.3590798757064988
 31
0.0
  0
LINE
  5
430B
  8
0
 10
138.3219840780174934
 20
100.3590798757064988
 30
0.0
 11
138.3219840780174934
 21
99.1802909949999787
 31
0.0
  0
CIRCLE
  5
430C
  8
0
 10
97.321984078017536
 20
136.1802909949998934
 30
0.0
 40
2.75
  0
CIRCLE
  5
430D
  8
0
 10
131.3219840780174934
 20
136.1802909949998934
 30
0.0
 40
2.75
  0
LINE
  5
430E
  8
0
 10
124.3219840780174934
 20
211.1802909950000071
 30
0.0
 11
124.3219840780174934
 21
210.8802909949999957
 31
0.0
  0
LINE
  5
430F
  8
0
 10
104.3219840780174934
 20
210.8802909949999957
 30
0.0
 11
104.3219840780174934
 21
211.1802909950000071
 31
0.0
  0
LINE
  5
4310
  8
0
 10
104.3219840780174934
 20
191.1802909949998934
 30
0.0
 11
104.3219840780174934
 21
191.4802909949999901
 31
0.0
  0
LINE
  5
4311
  8
0
 10
124.3219840780174934
 20
191.4802909949999901
 30
0.0
 11
124.3219840780174934
 21
191.1802909949998934
 31
0.0
  0
LINE
  5
4312
  8
0
 10
138.3219840780174934
 20
196.6802909950000924
 30
0.0
 11
139.1219840780175048
 21
196.6802909950000924
 31
0.0
  0
LINE
  5
4313
  8
0
 10
139.1219840780175048
 20
205.6802909950000924
 30
0.0
 11
138.3219840780174934
 21
205.6802909950000924
 31
0.0
  0
LINE
  5
4314
  8
0
 10
90.3219840780175218
 20
191.4802909949999048
 30
0.0
 11
138.3219840780174934
 21
191.4802909949999048
 31
0.0
  0
LINE
  5
4315
  8
0
 10
90.3219840780175218
 20
210.8802909949999105
 30
0.0
 11
138.3219840780172945
 21
210.8802909949999105
 31
0.0
  0
LINE
  5
4316
  8
0
 10
137.6465393983544061
 20
210.8802909949999957
 30
0.0
 11
137.6465393983544061
 21
211.1802909950000071
 31
0.0
  0
LINE
  5
4317
  8
0
 10
138.3219840780174934
 20
211.1802909950000071
 30
0.0
 11
124.3219840780174934
 21
211.1802909950000071
 31
0.0
  0
LINE
  5
4318
  8
0
 10
90.9974287576808365
 20
211.1802909950000071
 30
0.0
 11
90.9974287576808365
 21
210.8802909949999957
 31
0.0
  0
LINE
  5
4319
  8
0
 10
104.3219840780174934
 20
211.1802909950000071
 30
0.0
 11
90.3219840780172945
 21
211.1802909950000071
 31
0.0
  0
LINE
  5
431A
  8
0
 10
104.3219840780174934
 20
191.1802909949998934
 30
0.0
 11
90.3219840780175218
 21
191.1802909949998934
 31
0.0
  0
LINE
  5
431B
  8
0
 10
90.9974287576808365
 20
191.4802909949999901
 30
0.0
 11
90.9974287576808365
 21
191.1802909949998934
 31
0.0
  0
LINE
  5
431C
  8
0
 10
137.6465393983544061
 20
191.1802909949998934
 30
0.0
 11
137.6465393983544061
 21
191.4802909949999901
 31
0.0
  0
LINE
  5
431D
  8
0
 10
138.3219840780176924
 20
191.1802909949998934
 30
0.0
 11
124.3219840780174934
 21
191.1802909949998934
 31
0.0
  0
LINE
  5
431E
  8
0
 10
138.3219840780174934
 20
191.1802909949998934
 30
0.0
 11
138.3219840780172945
 21
211.1802909950000071
 31
0.0
  0
LINE
  5
431F
  8
0
 10
90.3219840780172945
 20
211.1802909950000071
 30
0.0
 11
90.3219840780175218
 21
191.1802909949998934
 31
0.0
  0
LINE
  5
4320
  8
2
 10
126.3219840780174934
 20
205.6802909950000071
 30
0.0
 11
136.3219840780174934
 21
205.6802909950000071
 31
0.0
  0
LINE
  5
4321
  8
2
 10
92.3219840780175076
 20
205.6802909950000071
 30
0.0
 11
102.3219840780174934
 21
205.6802909950000071
 31
0.0
  0
LINE
  5
4322
  8
2
 10
136.3219840780174934
 20
196.6802909950000071
 30
0.0
 11
126.3219840780174934
 21
196.6802909950000071
 31
0.0
  0
LINE
  5
4323
  8
2
 10
102.3219840780174934
 20
196.6802909950000071
 30
0.0
 11
92.3219840780175076
 21
196.6802909950000071
 31
0.0
  0
LINE
  5
4324
  8
2
 10
121.3219840780174934
 20
191.4802909949999048
 30
0.0
 11
121.3219840780174934
 21
210.8802909949999105
 31
0.0
  0
LINE
  5
4325
  8
2
 10
117.4219840780175019
 20
191.4802909949999901
 30
0.0
 11
117.4219840780175019
 21
210.8802909949999957
 31
0.0
  0
LINE
  5
4326
  8
2
 10
126.3219840780174934
 20
211.1802909950000071
 30
0.0
 11
126.3219840780174934
 21
205.6802909950000071
 31
0.0
  0
LINE
  5
4327
  8
2
 10
136.3219840780174934
 20
205.6802909950000071
 30
0.0
 11
136.3219840780174934
 21
211.1802909950000071
 31
0.0
  0
LINE
  5
4328
  8
2
 10
92.3219840780175076
 20
211.1802909950000071
 30
0.0
 11
92.3219840780175076
 21
205.6802909950000071
 31
0.0
  0
LINE
  5
4329
  8
2
 10
102.3219840780174934
 20
205.6802909950000071
 30
0.0
 11
102.3219840780174934
 21
211.1802909950000071
 31
0.0
  0
LINE
  5
432A
  8
2
 10
136.3219840780174934
 20
191.1802909950000071
 30
0.0
 11
136.3219840780174934
 21
196.6802909950000071
 31
0.0
  0
LINE
  5
432B
  8
2
 10
126.3219840780174934
 20
196.6802909950000071
 30
0.0
 11
126.3219840780174934
 21
191.1802909950000071
 31
0.0
  0
LINE
  5
432C
  8
2
 10
102.3219840780174934
 20
191.1802909950000071
 30
0.0
 11
102.3219840780174934
 21
196.6802909950000071
 31
0.0
  0
LINE
  5
432D
  8
2
 10
92.3219840780175076
 20
196.6802909950000071
 30
0.0
 11
92.3219840780175076
 21
191.1802909950000071
 31
0.0
  0
LINE
  5
432E
  8
2
 10
128.5719840780174934
 20
205.6802909950000071
 30
0.0
 11
128.5719840780174934
 21
196.6802909950000071
 31
0.0
  0
LINE
  5
432F
  8
2
 10
134.0719840780174934
 20
196.6802909950000071
 30
0.0
 11
134.0719840780174934
 21
205.6802909950000071
 31
0.0
  0
LINE
  5
4330
  8
2
 10
94.571984078017536
 20
205.6802909950000071
 30
0.0
 11
94.571984078017536
 21
196.6802909950000071
 31
0.0
  0
LINE
  5
4331
  8
2
 10
100.0719840780174934
 20
196.6802909950000071
 30
0.0
 11
100.0719840780174934
 21
205.6802909950000071
 31
0.0
  0
LINE
  5
4332
  8
2
 10
107.3219840780174934
 20
210.8802909949999105
 30
0.0
 11
107.3219840780174934
 21
191.4802909949999048
 31
0.0
  0
LINE
  5
4333
  8
0
 10
138.3219840780174934
 20
29.2059362365283803
 30
0.0
 11
139.1219840780175048
 21
29.2059362365283803
 31
0.0
  0
LINE
  5
4334
  8
0
 10
139.1219840780175048
 20
38.2059362365283803
 30
0.0
 11
138.3219840780174934
 21
38.2059362365283803
 31
0.0
  0
LINE
  5
4335
  8
0
 10
114.3219840780174934
 20
35.7059362365283732
 30
0.0
 11
112.3219840780079011
 21
35.7059362365283732
 31
0.0
  0
LINE
  5
4336
  8
0
 10
112.3219840780079011
 20
31.7059362365283803
 30
0.0
 11
114.3219840780174934
 21
31.7059362365283803
 31
0.0
  0
LINE
  5
4337
  8
0
 10
124.3219840780174934
 20
24.0059362365282709
 30
0.0
 11
124.3219840780174934
 21
23.7059362365281991
 31
0.0
  0
LINE
  5
4338
  8
0
 10
104.3219840780174934
 20
23.7059362365281991
 30
0.0
 11
104.3219840780174934
 21
24.0059362365282709
 31
0.0
  0
LINE
  5
4339
  8
0
 10
104.3219840780174934
 20
43.4059362365282411
 30
0.0
 11
104.3219840780174934
 21
43.7059362365282524
 31
0.0
  0
LINE
  5
433A
  8
0
 10
124.3219840780174934
 20
43.7059362365282524
 30
0.0
 11
124.3219840780174934
 21
43.4059362365282411
 31
0.0
  0
LINE
  5
433B
  8
0
 10
114.3219840780174934
 20
43.4059362365283832
 30
0.0
 11
114.3219840780174934
 21
24.005936236528381
 31
0.0
  0
LINE
  5
433C
  8
0
 10
112.3219840780174934
 20
24.005936236528381
 30
0.0
 11
112.3219840780174934
 21
43.4059362365283832
 31
0.0
  0
LINE
  5
433D
  8
0
 10
138.3219840780174934
 20
43.4059362365283619
 30
0.0
 11
90.3219840780175218
 21
43.4059362365283619
 31
0.0
  0
LINE
  5
433E
  8
0
 10
138.3219840780174934
 20
24.005936236528381
 30
0.0
 11
90.3219840780175218
 21
24.005936236528381
 31
0.0
  0
LINE
  5
433F
  8
0
 10
137.6465393983544061
 20
23.7059362365282595
 30
0.0
 11
137.6465393983544061
 21
24.0059362365282709
 31
0.0
  0
LINE
  5
4340
  8
0
 10
124.3219840780174934
 20
23.7059362365281991
 30
0.0
 11
138.3219840780174934
 21
23.7059362365281991
 31
0.0
  0
LINE
  5
4341
  8
0
 10
90.9974287576808365
 20
24.0059362365282709
 30
0.0
 11
90.9974287576808365
 21
23.7059362365282595
 31
0.0
  0
LINE
  5
4342
  8
0
 10
90.3219840780172945
 20
23.7059362365282595
 30
0.0
 11
104.3219840780174934
 21
23.7059362365281991
 31
0.0
  0
LINE
  5
4343
  8
0
 10
90.9974287576808365
 20
43.7059362365282524
 30
0.0
 11
90.9974287576808365
 21
43.4059362365282411
 31
0.0
  0
LINE
  5
4344
  8
0
 10
90.3219840780172945
 20
43.7059362365282524
 30
0.0
 11
104.3219840780174934
 21
43.7059362365282524
 31
0.0
  0
LINE
  5
4345
  8
0
 10
137.6465393983544061
 20
43.4059362365282411
 30
0.0
 11
137.6465393983544061
 21
43.7059362365282524
 31
0.0
  0
LINE
  5
4346
  8
0
 10
124.3219840780174934
 20
43.7059362365282524
 30
0.0
 11
138.3219840780174934
 21
43.7059362365282524
 31
0.0
  0
LINE
  5
4347
  8
0
 10
138.3219840780174934
 20
23.7059362365282595
 30
0.0
 11
138.3219840780174934
 21
43.7059362365282524
 31
0.0
  0
LINE
  5
4348
  8
0
 10
90.3219840780175218
 20
43.705936236528288
 30
0.0
 11
90.3219840780175218
 21
23.7059362365282595
 31
0.0
  0
LINE
  5
4349
  8
0
 10
20.6219840780174799
 20
129.1802909950000071
 30
0.0
 11
20.9219840780176582
 21
129.1802909950000071
 31
0.0
  0
LINE
  5
434A
  8
0
 10
20.9219840780176582
 20
143.1802909950000071
 30
0.0
 11
20.6219840780174799
 21
143.1802909950000071
 31
0.0
  0
LINE
  5
434B
  8
0
 10
40.6219840780176966
 20
143.1802909950000071
 30
0.0
 11
40.3219840780175218
 21
143.1802909950000071
 31
0.0
  0
LINE
  5
434C
  8
0
 10
40.3219840780175218
 20
129.1802909950000071
 30
0.0
 11
40.6219840780176966
 21
129.1802909950000071
 31
0.0
  0
LINE
  5
434D
  8
0
 10
40.3219840780175218
 20
161.1802909950000071
 30
0.0
 11
20.9219840780174309
 21
161.1802909950000071
 31
0.0
  0
LINE
  5
434E
  8
0
 10
20.9219840780174309
 20
93.7059362365282738
 30
0.0
 11
40.3219840780175218
 21
93.7059362365282738
 31
0.0
  0
LINE
  5
434F
  8
0
 10
40.3219840780175218
 20
139.1802909950000071
 30
0.0
 11
40.6219840780176966
 21
139.1802909950000071
 31
0.0
  0
LINE
  5
4350
  8
0
 10
40.6219840780176966
 20
133.1802909949998934
 30
0.0
 11
40.3219840780175218
 21
133.1802909949998934
 31
0.0
  0
LINE
  5
4351
  8
0
 10
40.3219840780175218
 20
133.1802909949998934
 30
0.0
 11
40.3219840780175218
 21
93.7059362365283164
 31
0.0
  0
LINE
  5
4352
  8
0
 10
40.3219840780175218
 20
100.3590798757064988
 30
0.0
 11
20.9219840780176582
 21
100.3590798757064988
 31
0.0
  0
LINE
  5
4353
  8
0
 10
20.9219840780176582
 20
93.7059362365283164
 30
0.0
 11
20.9219840780176582
 21
133.1802909949998934
 31
0.0
  0
LINE
  5
4354
  8
0
 10
20.9219840780176582
 20
133.1802909949998934
 30
0.0
 11
20.6219840780177002
 21
133.1802909949998934
 31
0.0
  0
LINE
  5
4355
  8
0
 10
20.6219840780177002
 20
139.1802909950000071
 30
0.0
 11
20.9219840780176582
 21
139.1802909950000071
 31
0.0
  0
LINE
  5
4356
  8
0
 10
20.9219840780176582
 20
139.1802909950000071
 30
0.0
 11
20.9219840780176582
 21
161.1802909950000071
 31
0.0
  0
LINE
  5
4357
  8
0
 10
20.9219840780176582
 20
154.5015021142934017
 30
0.0
 11
40.3219840780175218
 21
154.5015021142934017
 31
0.0
  0
LINE
  5
4358
  8
0
 10
40.3219840780175218
 20
161.1802909950000071
 30
0.0
 11
40.3219840780175218
 21
139.1802909950000071
 31
0.0
  0
LINE
  5
4359
  8
0
 10
20.9219840780176582
 20
158.3605132258352057
 30
0.0
 11
40.3219840780175218
 21
158.3605132258352057
 31
0.0
  0
LINE
  5
435A
  8
0
 10
20.9219840780176582
 20
96.5000687641647801
 30
0.0
 11
40.3219840780175218
 21
96.5000687641647801
 31
0.0
  0
LINE
  5
435B
  8
0
 10
20.6219840780183787
 20
143.1802909949998934
 30
0.0
 11
20.6219840780174799
 21
129.1802909950000071
 31
0.0
  0
LINE
  5
435C
  8
0
 10
40.6219840780176966
 20
143.1802909949998934
 30
0.0
 11
40.6219840780176966
 21
129.1802909950000071
 31
0.0
  0
LINE
  5
435D
  8
0
 10
239.6890254970338106
 20
143.1802909950000071
 30
0.0
 11
239.3890254970336002
 21
143.1802909950000071
 31
0.0
  0
LINE
  5
435E
  8
0
 10
239.3890254970336002
 20
129.1802909950000071
 30
0.0
 11
239.6890254970338106
 21
129.1802909950000071
 31
0.0
  0
LINE
  5
435F
  8
0
 10
219.6890254970336969
 20
129.1802909950000071
 30
0.0
 11
219.9890254970337082
 21
129.1802909950000071
 31
0.0
  0
LINE
  5
4360
  8
0
 10
219.9890254970337082
 20
143.1802909950000071
 30
0.0
 11
219.6890254970336969
 21
143.1802909950000071
 31
0.0
  0
LINE
  5
4361
  8
0
 10
239.3890254970337992
 20
161.1802909950000071
 30
0.0
 11
219.9890254970337082
 21
161.1802909950000071
 31
0.0
  0
LINE
  5
4362
  8
0
 10
219.9890254970337082
 20
93.7059362365282738
 30
0.0
 11
225.6955391635102046
 21
93.7059362365282738
 31
0.0
  0
LINE
  5
4363
  8
0
 10
233.682511830557587
 20
93.7059362365282738
 30
0.0
 11
239.3890254970337992
 21
93.7059362365282738
 31
0.0
  0
LINE
  5
4364
  8
0
 10
223.5272290632140084
 20
100.3590798757064988
 30
0.0
 11
219.9890254970337082
 21
100.3590798757064988
 31
0.0
  0
LINE
  5
4365
  8
0
 10
219.9890254970337082
 20
93.7059362365283164
 30
0.0
 11
219.9890254970337082
 21
133.1802909949998934
 31
0.0
  0
LINE
  5
4366
  8
0
 10
219.9890254970337082
 20
133.1802909949998934
 30
0.0
 11
219.6890254970336969
 21
133.1802909949998934
 31
0.0
  0
LINE
  5
4367
  8
0
 10
219.6890254970336969
 20
139.1802909950000071
 30
0.0
 11
219.9890254970337082
 21
139.1802909950000071
 31
0.0
  0
LINE
  5
4368
  8
0
 10
219.9890254970337082
 20
139.1802909950000071
 30
0.0
 11
219.9890254970339072
 21
161.1802909950000071
 31
0.0
  0
LINE
  5
4369
  8
0
 10
219.9890254970337082
 20
154.5015021142934017
 30
0.0
 11
239.3890254970336002
 21
154.5015021142934017
 31
0.0
  0
LINE
  5
436A
  8
0
 10
239.3890254970336002
 20
161.1802909950000071
 30
0.0
 11
239.3890254970336002
 21
139.1802909950000071
 31
0.0
  0
LINE
  5
436B
  8
0
 10
239.3890254970336002
 20
139.1802909950000071
 30
0.0
 11
239.6890254970338106
 21
139.1802909950000071
 31
0.0
  0
LINE
  5
436C
  8
0
 10
239.6890254970338106
 20
133.1802909949998934
 30
0.0
 11
239.3890254970336002
 21
133.1802909949998934
 31
0.0
  0
LINE
  5
436D
  8
0
 10
239.3890254970336002
 20
133.1802909949998934
 30
0.0
 11
239.3890254970336002
 21
93.7059362365283164
 31
0.0
  0
LINE
  5
436E
  8
0
 10
239.3890254970336002
 20
100.3590798757064988
 30
0.0
 11
235.850821930853499
 21
100.3590798757064988
 31
0.0
  0
LINE
  5
436F
  8
0
 10
239.3890254970336002
 20
158.3605132258352057
 30
0.0
 11
219.9890254970337082
 21
158.3605132258352057
 31
0.0
  0
LINE
  5
4370
  8
0
 10
239.3890254970336002
 20
96.5000687641647801
 30
0.0
 11
234.273122301496187
 21
96.5000687641647801
 31
0.0
  0
LINE
  5
4371
  8
0
 10
225.104928692571292
 20
96.5000687641647801
 30
0.0
 11
219.9890254970337082
 21
96.5000687641647801
 31
0.0
  0
LINE
  5
4372
  8
0
 10
239.6890254970338106
 20
129.1802909950000071
 30
0.0
 11
239.6890254970338106
 21
143.1802909950000071
 31
0.0
  0
LINE
  5
4373
  8
0
 10
219.6890254970336969
 20
129.1802909950000071
 30
0.0
 11
219.6890254970336969
 21
143.1802909950000071
 31
0.0
  0
ARC
  5
4374
  8
0
 10
114.3219840780174934
 20
173.6802909949500133
 30
0.0
 40
78.0000000000000568
 50
271.4692835813975762
 51
285.257523290499023
  0
LINE
  5
4375
  8
0
 10
136.3219840779175058
 20
100.3590798757498987
 30
0.0
 11
136.3219840779175058
 21
105.9302909950499014
 31
0.0
  0
ARC
  5
4376
  8
0
 10
94.3219840779174774
 20
100.3590798757498987
 30
0.0
 40
2.000000000000008
 50
180.0
 51
254.7424767095010054
  0
ARC
  5
4377
  8
0
 10
114.3219840780174934
 20
173.6802909949500133
 30
0.0
 40
78.0000000000000142
 50
254.7424767095010054
 51
267.0604655135953749
  0
LINE
  5
4378
  8
0
 10
92.3219840779674854
 20
105.9302909950499014
 30
0.0
 11
110.3219840779674996
 21
105.9302909950499014
 31
0.0
  0
LINE
  5
4379
  8
0
 10
92.3219840779674854
 20
105.9302909950499014
 30
0.0
 11
92.3219840779674854
 21
100.3590798757498987
 31
0.0
  0
ARC
  5
437A
  8
0
 10
134.3219840779674996
 20
100.3590798757498987
 30
0.0
 40
2.0000000000000142
 50
285.257523290499023
 51
0.0
  0
LINE
  5
437B
  8
0
 10
116.3219840779674996
 20
105.9302909950499014
 30
0.0
 11
116.3219840779674996
 21
95.7059362364998947
 31
0.0
  0
LINE
  5
437C
  8
0
 10
136.3219840779175058
 20
105.9302909950499014
 30
0.0
 11
116.3219840779674996
 21
105.9302909950499014
 31
0.0
  0
LINE
  5
437D
  8
0
 10
110.3219840779674996
 20
95.7829226183999367
 30
0.0
 11
110.3219840779674996
 21
105.9302909950499014
 31
0.0
  0
LINE
  5
437E
  8
0
 10
96.8219840779674996
 20
97.668778709099854
 30
0.0
 11
96.8219840777617264
 21
105.9302909950499014
 31
0.0
  0
LINE
  5
437F
  8
0
 10
97.8219840780175218
 20
103.6802909950499014
 30
0.0
 11
92.3219840779674854
 21
103.6802909950499014
 31
0.0
  0
LINE
  5
4380
  8
0
 10
97.8219840780175218
 20
105.9302909950499014
 30
0.0
 11
97.8219840780175218
 21
97.4454564375000132
 31
0.0
  0
LINE
  5
4381
  8
0
 10
136.1508535413175025
 20
99.5496130844999811
 30
0.0
 11
116.3219840779674996
 21
99.5496130844999811
 31
0.0
  0
LINE
  5
4382
  8
0
 10
97.8219840780175218
 20
99.5496130844999811
 30
0.0
 11
110.3219840779674996
 21
99.5496130844999811
 31
0.0
  0
LINE
  5
4383
  8
1
 10
18.9219840780176582
 20
149.1802909950000071
 30
0.0
 11
42.3219840780175218
 21
149.1802909950000071
 31
0.0
  0
LINE
  5
4384
  8
1
 10
109.3219840780174934
 20
149.1802909950000071
 30
0.0
 11
119.3219840780174934
 21
149.1802909950000071
 31
0.0
  0
LINE
  5
4385
  8
1
 10
217.9890254970337082
 20
149.1802909950000071
 30
0.0
 11
241.3890254970336002
 21
149.1802909950000071
 31
0.0
  0
LINE
  5
4386
  8
1
 10
18.6219840780179311
 20
136.1802909949998934
 30
0.0
 11
42.6219840780176966
 21
136.1802909949998934
 31
0.0
  0
LINE
  5
4387
  8
1
 10
90.3219840780175218
 20
136.1802909949998934
 30
0.0
 11
104.3219840780174934
 21
136.1802909949998934
 31
0.0
  0
LINE
  5
4388
  8
1
 10
124.3219840780174934
 20
136.1802909949998934
 30
0.0
 11
138.3219840780174934
 21
136.1802909949998934
 31
0.0
  0
LINE
  5
4389
  8
1
 10
217.6890254970336969
 20
136.1802909949998934
 30
0.0
 11
241.6890254970338106
 21
136.1802909949998934
 31
0.0
  0
LINE
  5
438A
  8
1
 10
18.9219840780176582
 20
119.1802909949999929
 30
0.0
 11
42.3219840780175218
 21
119.1802909949999929
 31
0.0
  0
LINE
  5
438B
  8
1
 10
104.3219840780174934
 20
119.1802909949999929
 30
0.0
 11
124.3219840780174934
 21
119.1802909949999929
 31
0.0
  0
LINE
  5
438C
  8
1
 10
217.9890254970337082
 20
119.1802909949999929
 30
0.0
 11
241.3890254970336002
 21
119.1802909949999929
 31
0.0
  0
LINE
  5
438D
  8
1
 10
18.9219840780176582
 20
103.6802909949999929
 30
0.0
 11
42.3219840780175218
 21
103.6802909949999929
 31
0.0
  0
LINE
  5
438E
  8
1
 10
219.6896355680775912
 20
103.6802909949999929
 30
0.0
 11
239.6884154259900868
 21
103.6802909949999929
 31
0.0
  0
LINE
  5
438F
  8
1
 10
30.6219840780174799
 20
113.190290994999998
 30
0.0
 11
30.6219840780177002
 21
60.6798664281204765
 31
0.0
  0
POLYLINE
  5
4390
  8
0
 66
     1
 10
0.0
 20
0.0
 30
0.0
  0
VERTEX
  5
4768
  8
0
 10
34.1219840780177108
 20
67.1802909949999929
 30
0.0
  0
VERTEX
  5
4769
  8
0
 10
34.1277761558362727
 20
67.3367580479498997
 30
0.0
  0
VERTEX
  5
476A
  8
0
 10
34.1395722408183175
 20
67.6554172081526417
 30
0.0
  0
VERTEX
  5
476B
  8
0
 10
34.1516199094396598
 20
67.9808726428184968
 30
0.0
  0
VERTEX
  5
476C
  8
0
 10
34.1577262814344067
 20
68.1458300311947482
 30
0.0
  0
SEQEND
  5
476D
  8
0
  0
LINE
  5
4391
  8
0
 10
34.1577262814344067
 20
68.1458300311947482
 30
0.0
 11
34.5287807323038578
 21
78.1694861749104462
 31
0.0
  0
POLYLINE
  5
4392
  8
0
 66
     1
 10
0.0
 20
0.0
 30
0.0
  0
VERTEX
  5
476E
  8
0
 10
34.5287807323038578
 20
78.1694861749104462
 30
0.0
  0
VERTEX
  5
476F
  8
0
 10
34.5312526367351893
 20
78.2362621426502187
 30
0.0
  0
VERTEX
  5
4770
  8
0
 10
34.5362119219339476
 20
78.3702321554985133
 30
0.0
  0
VERTEX
  5
4771
  8
0
 10
34.5411908717878831
 20
78.504733388871216
 30
0.0
  0
VERTEX
  5
4772
  8
0
 10
34.5436873559560809
 20
78.572173353044775
 30
0.0
  0
VERTEX
  5
4773
  8
0
 10
34.546188317730639
 20
78.6397342751608335
 30
0.0
  0
VERTEX
  5
4774
  8
0
 10
34.5512030868560487
 20
78.7752031294902935
 30
0.0
  0
VERTEX
  5
4775
  8
0
 10
34.5562340021913315
 20
78.911108157149954
 30
0.0
  0
VERTEX
  5
4776
  8
0
 10
34.5612798829742971
 20
79.0474174610599647
 30
0.0
  0
VERTEX
  5
4777
  8
0
 10
34.5663395449305426
 20
79.1840990492559627
 30
0.0
  0
VERTEX
  5
4778
  8
0
 10
34.5714118005507771
 20
79.3211208423984431
 30
0.0
  0
VERTEX
  5
4779
  8
0
 10
34.5739522790727278
 20
79.3897492689914657
 30
0.0
  0
VERTEX
  5
477A
  8
0
 10
34.5764954593705625
 20
79.458450681300917
 30
0.0
  0
VERTEX
  5
477B
  8
0
 10
34.5815893282488105
 20
79.5960563344784191
 30
0.0
  0
VERTEX
  5
477C
  8
0
 10
34.5866922116479216
 20
79.73390550571213
 30
0.0
  0
VERTEX
  5
477D
  8
0
 10
34.5918029119152379
 20
79.8719658416289917
 30
0.0
  0
VERTEX
  5
477E
  8
0
 10
34.596920229562329
 20
80.0102049392955337
 30
0.0
  0
VERTEX
  5
477F
  8
0
 10
34.6020429635486906
 20
80.1485903538224846
 30
0.0
  0
VERTEX
  5
4780
  8
0
 10
34.6046059859886626
 20
80.2178277812823239
 30
0.0
  0
VERTEX
  5
4781
  8
0
 10
34.6071699115623233
 20
80.2870896059799293
 30
0.0
  0
VERTEX
  5
4782
  8
0
 10
34.6122998703019675
 20
80.4256701898202095
 30
0.0
  0
VERTEX
  5
4783
  8
0
 10
34.6174316357601199
 20
80.5642995803068942
 30
0.0
  0
VERTEX
  5
4784
  8
0
 10
34.6199978196323173
 20
80.6336224106276518
 30
0.0
  0
SEQEND
  5
4785
  8
0
  0
LINE
  5
4393
  8
0
 10
34.6199978196323173
 20
80.6336224106276518
 30
0.0
 11
34.7034971091452533
 21
82.889270239026871
 31
0.0
  0
POLYLINE
  5
4394
  8
0
 66
     1
 10
0.0
 20
0.0
 30
0.0
  0
VERTEX
  5
4786
  8
0
 10
27.1219840780177002
 20
67.1802909949999929
 30
0.0
  0
VERTEX
  5
4787
  8
0
 10
27.1221000514615298
 20
67.1517988792904248
 30
0.0
  0
VERTEX
  5
4788
  8
0
 10
27.1230250647327011
 20
67.0949339604257347
 30
0.0
  0
VERTEX
  5
4789
  8
0
 10
27.1248678049928493
 20
67.0382425069948908
 30
0.0
  0
VERTEX
  5
478A
  8
0
 10
27.1261308469588585
 20
67.0099672242141082
 30
0.0
  0
VERTEX
  5
478B
  8
0
 10
27.1276203007541916
 20
66.9817417765444247
 30
0.0
  0
VERTEX
  5
478C
  8
0
 10
27.1312741868871399
 20
66.9254489734183267
 30
0.0
  0
VERTEX
  5
478D
  8
0
 10
27.1358207004427712
 20
66.8693811932011499
 30
0.0
  0
VERTEX
  5
478E
  8
0
 10
27.1412506809592813
 20
66.8135553700577134
 30
0.0
  0
VERTEX
  5
478F
  8
0
 10
27.1475545748794502
 20
66.7579882271635938
 30
0.0
  0
VERTEX
  5
4790
  8
0
 10
27.1547224437022088
 20
66.7026962303671667
 30
0.0
  0
VERTEX
  5
4791
  8
0
 10
27.1586271604351204
 20
66.6751584763134701
 30
0.0
  0
VERTEX
  5
4792
  8
0
 10
27.1627439755075102
 20
66.6476955451651634
 30
0.0
  0
VERTEX
  5
4793
  8
0
 10
27.1716084994950506
 20
66.5930019970313083
 30
0.0
  0
VERTEX
  5
4794
  8
0
 10
27.1813050032055799
 20
66.5386310350909866
 30
0.0
  0
VERTEX
  5
4795
  8
0
 10
27.1918221520954795
 20
66.4845976991035172
 30
0.0
  0
VERTEX
  5
4796
  8
0
 10
27.2031483111729813
 20
66.4309165896833633
 30
0.0
  0
VERTEX
  5
4797
  8
0
 10
27.2152715684098894
 20
66.3776018416647844
 30
0.0
  0
VERTEX
  5
4798
  8
0
 10
27.2216283166694701
 20
66.3510861371601663
 30
0.0
  0
VERTEX
  5
4799
  8
0
 10
27.2281797580062701
 20
66.3246671071421474
 30
0.0
  0
VERTEX
  5
479A
  8
0
 10
27.2418604465788086
 20
66.2721256817507651
 30
0.0
  0
VERTEX
  5
479B
  8
0
 10
27.256300886911049
 20
66.2199906997259831
 30
0.0
  0
VERTEX
  5
479C
  8
0
 10
27.263801943415281
 20
66.1940796835476135
 30
0.0
  0
VERTEX
  5
479D
  8
0
 10
27.271488013911501
 20
66.1682751233802833
 30
0.0
  0
VERTEX
  5
479E
  8
0
 10
27.2874084506406689
 20
66.1169917025604832
 30
0.0
  0
VERTEX
  5
479F
  8
0
 10
27.3040485167034603
 20
66.0661529375907435
 30
0.0
  0
VERTEX
  5
47A0
  8
0
 10
27.3126340551771207
 20
66.0409041307943312
 30
0.0
  0
VERTEX
  5
47A1
  8
0
 10
27.3213942387303597
 20
66.0157710454956828
 30
0.0
  0
VERTEX
  5
47A2
  8
0
 10
27.3394313626513394
 20
65.9658579293921434
 30
0.0
  0
VERTEX
  5
47A3
  8
0
 10
27.3581453675174089
 20
65.9164251509164956
 30
0.0
  0
VERTEX
  5
47A4
  8
0
 10
27.3775214806287295
 20
65.8674839055368579
 30
0.0
  0
VERTEX
  5
47A5
  8
0
 10
27.3975446937674896
 20
65.8190450005901653
 30
0.0
  0
VERTEX
  5
47A6
  8
0
 10
27.4181997803543709
 20
65.771118835877175
 30
0.0
  0
VERTEX
  5
47A7
  8
0
 10
27.4287594625736801
 20
65.7473511653759601
 30
0.0
  0
VERTEX
  5
47A8
  8
0
 10
27.4394713133706283
 20
65.7237153866435051
 30
0.0
  0
VERTEX
  5
47A9
  8
0
 10
27.4613436839115401
 20
65.6768441887761014
 30
0.0
  0
VERTEX
  5
47AA
  8
0
 10
27.4838011202591588
 20
65.6305143260457839
 30
0.0
  0
VERTEX
  5
47AB
  8
0
 10
27.5068290502188084
 20
65.5847317974834709
 30
0.0
  0
VERTEX
  5
47AC
  8
0
 10
27.530413818549281
 20
65.5395005358702178
 30
0.0
  0
VERTEX
  5
47AD
  8
0
 10
27.5545394681607902
 20
65.4948285761187634
 30
0.0
  0
VERTEX
  5
47AE
  8
0
 10
27.5668000625169007
 20
65.4727047947077949
 30
0.0
  0
VERTEX
  5
47AF
  8
0
 10
27.5791897759554594
 20
65.4507237556774157
 30
0.0
  0
VERTEX
  5
47B0
  8
0
 10
27.6043482972550009
 20
65.4071936218528549
 30
0.0
  0
VERTEX
  5
47B1
  8
0
 10
27.6299983774133615
 20
65.3642454098400663
 30
0.0
  0
VERTEX
  5
47B2
  8
0
 10
27.7233997464577406
 20
65.2186057825268222
 30
0.0
  0
VERTEX
  5
47B3
  8
0
 10
27.8949018550233596
 20
64.9864308014079342
 30
0.0
  0
VERTEX
  5
47B4
  8
0
 10
28.0774524890418888
 20
64.7770933350676046
 30
0.0
  0
VERTEX
  5
47B5
  8
0
 10
28.1716220385865199
 20
64.681145966051929
 30
0.0
  0
VERTEX
  5
47B6
  8
0
 10
28.2670353394655613
 20
64.5910408257827271
 30
0.0
  0
VERTEX
  5
47B7
  8
0
 10
28.4612959212363386
 20
64.4268519291869666
 30
0.0
  0
VERTEX
  5
47B8
  8
0
 10
28.6634430552476189
 20
64.2795812435551142
 30
0.0
  0
VERTEX
  5
47B9
  8
0
 10
28.87104107630012
 20
64.1497467196699631
 30
0.0
  0
VERTEX
  5
47BA
  8
0
 10
29.0808564103367715
 20
64.0378515744369565
 30
0.0
  0
VERTEX
  5
47BB
  8
0
 10
29.2895623757683587
 20
63.9438342275805667
 30
0.0
  0
VERTEX
  5
47BC
  8
0
 10
29.3924338807305503
 20
63.9033707469085925
 30
0.0
  0
VERTEX
  5
47BD
  8
0
 10
29.4937444790880399
 20
63.867124019520638
 30
0.0
  0
VERTEX
  5
47BE
  8
0
 10
29.6908151381239804
 20
63.8064320167115397
 30
0.0
  0
VERTEX
  5
47BF
  8
0
 10
29.8803527632671795
 20
63.7597672057272007
 30
0.0
  0
VERTEX
  5
47C0
  8
0
 10
29.971204890368881
 20
63.74132509680868
 30
0.0
  0
SEQEND
  5
47C1
  8
0
  0
POLYLINE
  5
4395
  8
0
 66
     1
 10
0.0
 20
0.0
 30
0.0
  0
VERTEX
  5
47C2
  8
0
 10
29.971204890368881
 20
63.74132509680868
 30
0.0
  0
VERTEX
  5
47C3
  8
0
 10
30.0069712468130092
 20
63.734749061217542
 30
0.0
  0
VERTEX
  5
47C4
  8
0
 10
30.0786992766052208
 20
63.722713573660883
 30
0.0
  0
VERTEX
  5
47C5
  8
0
 10
30.1206509578018995
 20
63.716382061067911
 30
0.0
  0
VERTEX
  5
47C6
  8
0
 10
30.1326509528835196
 20
63.7146665068815423
 30
0.0
  0
VERTEX
  5
47C7
  8
0
 10
30.1446568176863785
 20
63.7129925240655481
 30
0.0
  0
VERTEX
  5
47C8
  8
0
 10
30.150661906231111
 20
63.7121711282158572
 30
0.0
  0
VERTEX
  5
47C9
  8
0
 10
30.1566684081954008
 20
63.7113601326998875
 30
0.0
  0
VERTEX
  5
47CA
  8
0
 10
30.1686855803277503
 20
63.7097693523658677
 30
0.0
  0
VERTEX
  5
47CB
  8
0
 10
30.1807081899332807
 20
63.7082202021452417
 30
0.0
  0
VERTEX
  5
47CC
  8
0
 10
30.1867214887233786
 20
63.7074612441539898
 30
0.0
  0
VERTEX
  5
47CD
  8
0
 10
30.1927360927961708
 20
63.7067127006206988
 30
0.0
  0
VERTEX
  5
47CE
  8
0
 10
30.2047691446382487
 20
63.7052468658751465
 30
0.0
  0
VERTEX
  5
47CF
  8
0
 10
30.2168072011181685
 20
63.7038227154918602
 30
0.0
  0
VERTEX
  5
47D0
  8
0
 10
30.2228280609745106
 20
63.7031262772941815
 30
0.0
  0
VERTEX
  5
47D1
  8
0
 10
30.2288501178354707
 20
63.702440266554099
 30
0.0
  0
VERTEX
  5
47D2
  8
0
 10
30.2408977503314382
 20
63.701099535644687
 30
0.0
  0
VERTEX
  5
47D3
  8
0
 10
30.2529499540905817
 20
63.6998005388462119
 30
0.0
  0
VERTEX
  5
47D4
  8
0
 10
30.2650065845421103
 20
63.6985432917406911
 30
0.0
  0
VERTEX
  5
47D5
  8
0
 10
30.2770674970627205
 20
63.6973278094089324
 30
0.0
  0
VERTEX
  5
47D6
  8
0
 10
30.2891325469777293
 20
63.6961541064313792
 30
0.0
  0
VERTEX
  5
47D7
  8
0
 10
30.2951665782334203
 20
63.6955829266196929
 30
0.0
  0
VERTEX
  5
47D8
  8
0
 10
30.3012015895624209
 20
63.695022196886903
 30
0.0
  0
VERTEX
  5
47D9
  8
0
 10
30.3132744800445799
 20
63.6939320943532223
 30
0.0
  0
VERTEX
  5
47DA
  8
0
 10
30.3253510736058196
 20
63.692883811906249
 30
0.0
  0
VERTEX
  5
47DB
  8
0
 10
30.3374312253829395
 20
63.691877362120799
 30
0.0
  0
VERTEX
  5
47DC
  8
0
 10
30.3495147904704901
 20
63.6909127570693911
 30
0.0
  0
VERTEX
  5
47DD
  8
0
 10
30.3616016239218389
 20
63.6899900083229227
 30
0.0
  0
VERTEX
  5
47DE
  8
0
 10
30.367646220977349
 20
63.6895443335425284
 30
0.0
  0
VERTEX
  5
47DF
  8
0
 10
30.3736915807512595
 20
63.6891091269499725
 30
0.0
  0
VERTEX
  5
47E0
  8
0
 10
30.3857845159354909
 20
63.6882701235171496
 30
0.0
  0
VERTEX
  5
47E1
  8
0
 10
30.3978802844153506
 20
63.6874730080883822
 30
0.0
  0
VERTEX
  5
47E2
  8
0
 10
30.4099787410982607
 20
63.6867177902256003
 30
0.0
  0
VERTEX
  5
47E3
  8
0
 10
30.4220797408590897
 20
63.6860044789877406
 30
0.0
  0
VERTEX
  5
47E4
  8
0
 10
30.4341831385418082
 20
63.6853330829312085
 30
0.0
  0
VERTEX
  5
47E5
  8
0
 10
30.4402356912346512
 20
63.6850131056324287
 30
0.0
  0
VERTEX
  5
47E6
  8
0
 10
30.4462887889619687
 20
63.684703610109807
 30
0.0
  0
VERTEX
  5
47E7
  8
0
 10
30.4583965469082614
 20
63.6841160680740472
 30
0.0
  0
VERTEX
  5
47E8
  8
0
 10
30.470506267143719
 20
63.6835704638718312
 30
0.0
  0
VERTEX
  5
47E9
  8
0
 10
30.4826178044086191
 20
63.6830668040479893
 30
0.0
  0
VERTEX
  5
47EA
  8
0
 10
30.4947310134198304
 20
63.6826050946438613
 30
0.0
  0
VERTEX
  5
47EB
  8
0
 10
30.5068457488760103
 20
63.6821853411979006
 30
0.0
  0
VERTEX
  5
47EC
  8
0
 10
30.51290364360921
 20
63.6819911995523285
 30
0.0
  0
VERTEX
  5
47ED
  8
0
 10
30.5189618654567312
 20
63.681807548745212
 30
0.0
  0
VERTEX
  5
47EE
  8
0
 10
30.5310792178242991
 20
63.6814717218175588
 30
0.0
  0
VERTEX
  5
47EF
  8
0
 10
30.543197660627591
 20
63.6811778644432067
 30
0.0
  0
VERTEX
  5
47F0
  8
0
 10
30.5553170485011414
 20
63.6809259801472578
 30
0.0
  0
VERTEX
  5
47F1
  8
0
 10
30.5674372360690505
 20
63.6807160719510534
 30
0.0
  0
VERTEX
  5
47F2
  8
0
 10
30.5795580779449701
 20
63.6805481423724018
 30
0.0
  0
VERTEX
  5
47F3
  8
0
 10
30.5856186988135086
 20
63.6804799202139407
 30
0.0
  0
VERTEX
  5
47F4
  8
0
 10
30.5916794287359188
 20
63.6804221934258408
 30
0.0
  0
VERTEX
  5
47F5
  8
0
 10
30.6038011430414407
 20
63.6803382266221618
 30
0.0
  0
VERTEX
  5
47F6
  8
0
 10
30.615923075457431
 20
63.6802962429684882
 30
0.0
  0
VERTEX
  5
47F7
  8
0
 10
30.6219840780177002
 20
63.6802909950000071
 30
0.0
  0
VERTEX
  5
47F8
  8
0
 10
30.6280450805775217
 20
63.6802962429684882
 30
0.0
  0
VERTEX
  5
47F9
  8
0
 10
30.6401670129939703
 20
63.6803382266221618
 30
0.0
  0
VERTEX
  5
47FA
  8
0
 10
30.6522887272994886
 20
63.6804221934258408
 30
0.0
  0
VERTEX
  5
47FB
  8
0
 10
30.6583494572216786
 20
63.6804799202139407
 30
0.0
  0
VERTEX
  5
47FC
  8
0
 10
30.6644100780899898
 20
63.6805481423724018
 30
0.0
  0
VERTEX
  5
47FD
  8
0
 10
30.6765309199663605
 20
63.6807160719510534
 30
0.0
  0
VERTEX
  5
47FE
  8
0
 10
30.6886511075340387
 20
63.6809259801472578
 30
0.0
  0
VERTEX
  5
47FF
  8
0
 10
30.7007704954075997
 20
63.6811778644432067
 30
0.0
  0
VERTEX
  5
4800
  8
0
 10
30.7128889382106607
 20
63.6814717218175588
 30
0.0
  0
VERTEX
  5
4801
  8
0
 10
30.7250062905786798
 20
63.681807548745212
 30
0.0
  0
VERTEX
  5
4802
  8
0
 10
30.731064512426201
 20
63.6819911995523285
 30
0.0
  0
VERTEX
  5
4803
  8
0
 10
30.7371224071589495
 20
63.6821853411979006
 30
0.0
  0
VERTEX
  5
4804
  8
0
 10
30.7492371426151294
 20
63.6826050946438613
 30
0.0
  0
VERTEX
  5
4805
  8
0
 10
30.7613503516267883
 20
63.6830668040479893
 30
0.0
  0
VERTEX
  5
4806
  8
0
 10
30.7734618888912301
 20
63.683570463871952
 30
0.0
  0
VERTEX
  5
4807
  8
0
 10
30.7855716091269187
 20
63.6841160680740472
 30
0.0
  0
VERTEX
  5
4808
  8
0
 10
30.7976793670732185
 20
63.684703610109807
 30
0.0
  0
VERTEX
  5
4809
  8
0
 10
30.8037324648003086
 20
63.6850131056324287
 30
0.0
  0
VERTEX
  5
480A
  8
0
 10
30.8097850174935992
 20
63.6853330829312085
 30
0.0
  0
VERTEX
  5
480B
  8
0
 10
30.8218884151760903
 20
63.6860044789877406
 30
0.0
  0
VERTEX
  5
480C
  8
0
 10
30.8339894149366884
 20
63.6867177902256003
 30
0.0
  0
VERTEX
  5
480D
  8
0
 10
30.8460878716195985
 20
63.6874730080883822
 30
0.0
  0
VERTEX
  5
480E
  8
0
 10
30.8581836400999201
 20
63.6882701235171496
 30
0.0
  0
VERTEX
  5
480F
  8
0
 10
30.8702765752841515
 20
63.6891091269499725
 30
0.0
  0
VERTEX
  5
4810
  8
0
 10
30.8763219350580584
 20
63.6895443335425284
 30
0.0
  0
VERTEX
  5
4811
  8
0
 10
30.8823665321133412
 20
63.6899900083229227
 30
0.0
  0
VERTEX
  5
4812
  8
0
 10
30.8944533655649209
 20
63.6909127570693911
 30
0.0
  0
VERTEX
  5
4813
  8
0
 10
30.9065369306522406
 20
63.691877362120799
 30
0.0
  0
VERTEX
  5
4814
  8
0
 10
30.9186170824295914
 20
63.692883811906249
 30
0.0
  0
VERTEX
  5
4815
  8
0
 10
30.9306936759906002
 20
63.6939320943532223
 30
0.0
  0
VERTEX
  5
4816
  8
0
 10
30.9427665664727591
 20
63.695022196886903
 30
0.0
  0
VERTEX
  5
4817
  8
0
 10
30.9488015778017598
 20
63.6955829266196929
 30
0.0
  0
VERTEX
  5
4818
  8
0
 10
30.9548356090576817
 20
63.6961541064313792
 30
0.0
  0
VERTEX
  5
4819
  8
0
 10
30.9669006589724596
 20
63.6973278094089324
 30
0.0
  0
VERTEX
  5
481A
  8
0
 10
30.9789615714930697
 20
63.6985432917406911
 30
0.0
  0
VERTEX
  5
481B
  8
0
 10
30.9910182019448293
 20
63.6998005388462119
 30
0.0
  0
VERTEX
  5
481C
  8
0
 10
31.0030704057035109
 20
63.701099535644687
 30
0.0
  0
VERTEX
  5
481D
  8
0
 10
31.0151180381994891
 20
63.702440266554099
 30
0.0
  0
VERTEX
  5
481E
  8
0
 10
31.0211400950606695
 20
63.7031262772941815
 30
0.0
  0
VERTEX
  5
481F
  8
0
 10
31.0271609549172389
 20
63.7038227154918602
 30
0.0
  0
VERTEX
  5
4820
  8
0
 10
31.0391990113971588
 20
63.7052468658751465
 30
0.0
  0
VERTEX
  5
4821
  8
0
 10
31.051232063238789
 20
63.7067127006206988
 30
0.0
  0
VERTEX
  5
4822
  8
0
 10
31.0572466673115812
 20
63.7074612441539898
 30
0.0
  0
VERTEX
  5
4823
  8
0
 10
31.0632599661021302
 20
63.7082202021452417
 30
0.0
  0
VERTEX
  5
4824
  8
0
 10
31.0752825757074405
 20
63.7097693523658677
 30
0.0
  0
VERTEX
  5
4825
  8
0
 10
31.0872997478397792
 20
63.7113601326998875
 30
0.0
  0
VERTEX
  5
4826
  8
0
 10
31.0933062498038488
 20
63.7121711282158572
 30
0.0
  0
VERTEX
  5
4827
  8
0
 10
31.0993113383488016
 20
63.7129925240655481
 30
0.0
  0
VERTEX
  5
4828
  8
0
 10
31.1113172031514296
 20
63.7146665068815423
 30
0.0
  0
VERTEX
  5
4829
  8
0
 10
31.1233171982335115
 20
63.716382061067911
 30
0.0
  0
VERTEX
  5
482A
  8
0
 10
31.1652688794297283
 20
63.722713573660883
 30
0.0
  0
VERTEX
  5
482B
  8
0
 10
31.2369969092223982
 20
63.734749061217542
 30
0.0
  0
VERTEX
  5
482C
  8
0
 10
31.27276326566653
 20
63.74132509680868
 30
0.0
  0
SEQEND
  5
482D
  8
0
  0
POLYLINE
  5
4396
  8
0
 66
     1
 10
0.0
 20
0.0
 30
0.0
  0
VERTEX
  5
482E
  8
0
 10
31.27276326566653
 20
63.74132509680868
 30
0.0
  0
VERTEX
  5
482F
  8
0
 10
31.3636153927680006
 20
63.7597672057272007
 30
0.0
  0
VERTEX
  5
4830
  8
0
 10
31.5531530179111996
 20
63.8064320167115397
 30
0.0
  0
VERTEX
  5
4831
  8
0
 10
31.7502236769469199
 20
63.867124019520638
 30
0.0
  0
VERTEX
  5
4832
  8
0
 10
31.8515342753046298
 20
63.9033707469085925
 30
0.0
  0
VERTEX
  5
4833
  8
0
 10
31.9544057802668284
 20
63.9438342275805667
 30
0.0
  0
VERTEX
  5
4834
  8
0
 10
32.1631117456981883
 20
64.0378515744369565
 30
0.0
  0
VERTEX
  5
4835
  8
0
 10
32.372927079735291
 20
64.1497467196699631
 30
0.0
  0
VERTEX
  5
4836
  8
0
 10
32.5805251007875469
 20
64.2795812435551142
 30
0.0
  0
VERTEX
  5
4837
  8
0
 10
32.782672234798838
 20
64.4268519291869666
 30
0.0
  0
VERTEX
  5
4838
  8
0
 10
32.9769328165698496
 20
64.5910408257827271
 30
0.0
  0
VERTEX
  5
4839
  8
0
 10
33.0723461174484328
 20
64.681145966051929
 30
0.0
  0
VERTEX
  5
483A
  8
0
 10
33.1665156669932912
 20
64.7770933350676046
 30
0.0
  0
VERTEX
  5
483B
  8
0
 10
33.3490663010120514
 20
64.9864308014079342
 30
0.0
  0
VERTEX
  5
483C
  8
0
 10
33.520568409577443
 20
65.2186057825268222
 30
0.0
  0
VERTEX
  5
483D
  8
0
 10
33.6139697786220495
 20
65.3642454098400663
 30
0.0
  0
VERTEX
  5
483E
  8
0
 10
33.6396198587804065
 20
65.4071936218528549
 30
0.0
  0
VERTEX
  5
483F
  8
0
 10
33.6647783800799516
 20
65.4507237556774157
 30
0.0
  0
VERTEX
  5
4840
  8
0
 10
33.6771680935185103
 20
65.4727047947077949
 30
0.0
  0
VERTEX
  5
4841
  8
0
 10
33.6894286878741696
 20
65.4948285761187634
 30
0.0
  0
VERTEX
  5
4842
  8
0
 10
33.7135543374859026
 20
65.5395005358702178
 30
0.0
  0
VERTEX
  5
4843
  8
0
 10
33.7371391058163681
 20
65.5847317974834709
 30
0.0
  0
VERTEX
  5
4844
  8
0
 10
33.7601670357760213
 20
65.6305143260457839
 30
0.0
  0
VERTEX
  5
4845
  8
0
 10
33.7826244721236435
 20
65.6768441887761014
 30
0.0
  0
VERTEX
  5
4846
  8
0
 10
33.8044968426645482
 20
65.7237153866435051
 30
0.0
  0
VERTEX
  5
4847
  8
0
 10
33.8152086934614999
 20
65.7473511653759601
 30
0.0
  0
VERTEX
  5
4848
  8
0
 10
33.8257683756808092
 20
65.771118835877175
 30
0.0
  0
VERTEX
  5
4849
  8
0
 10
33.8464234622676869
 20
65.8190450005901653
 30
0.0
  0
VERTEX
  5
484A
  8
0
 10
33.8664466754064506
 20
65.8674839055368579
 30
0.0
  0
VERTEX
  5
484B
  8
0
 10
33.8858227885177712
 20
65.9164251509164956
 30
0.0
  0
VERTEX
  5
484C
  8
0
 10
33.9045367933838406
 20
65.9658579293921434
 30
0.0
  0
VERTEX
  5
484D
  8
0
 10
33.9225739173048169
 20
66.0157710454956828
 30
0.0
  0
VERTEX
  5
484E
  8
0
 10
33.9313341008582867
 20
66.0409041307943312
 30
0.0
  0
VERTEX
  5
484F
  8
0
 10
33.9399196393314924
 20
66.0661529375907435
 30
0.0
  0
VERTEX
  5
4850
  8
0
 10
33.9565597053947386
 20
66.1169917025604832
 30
0.0
  0
VERTEX
  5
4851
  8
0
 10
33.9724801421234588
 20
66.1682751233802833
 30
0.0
  0
VERTEX
  5
4852
  8
0
 10
33.9801662126201265
 20
66.1940796835477272
 30
0.0
  0
VERTEX
  5
4853
  8
0
 10
33.9876672691241311
 20
66.2199906997259831
 30
0.0
  0
VERTEX
  5
4854
  8
0
 10
34.002107709456368
 20
66.2721256817507651
 30
0.0
  0
VERTEX
  5
4855
  8
0
 10
34.0157883980286897
 20
66.3246671071421474
 30
0.0
  0
VERTEX
  5
4856
  8
0
 10
34.0223398393659409
 20
66.3510861371601663
 30
0.0
  0
VERTEX
  5
4857
  8
0
 10
34.0286965876252907
 20
66.3776018416647844
 30
0.0
  0
VERTEX
  5
4858
  8
0
 10
34.0408198448621988
 20
66.4309165896833633
 30
0.0
  0
VERTEX
  5
4859
  8
0
 10
34.0521460039394697
 20
66.4845976991035172
 30
0.0
  0
VERTEX
  5
485A
  8
0
 10
34.0626631528298276
 20
66.5386310350909866
 30
0.0
  0
VERTEX
  5
485B
  8
0
 10
34.0723596565403568
 20
66.5930019970313083
 30
0.0
  0
VERTEX
  5
485C
  8
0
 10
34.0812241805278973
 20
66.6476955451651634
 30
0.0
  0
VERTEX
  5
485D
  8
0
 10
34.085340995599843
 20
66.6751584763134701
 30
0.0
  0
VERTEX
  5
485E
  8
0
 10
34.0892457123329677
 20
66.702696230367053
 30
0.0
  0
VERTEX
  5
485F
  8
0
 10
34.0964135811559572
 20
66.7579882271635938
 30
0.0
  0
VERTEX
  5
4860
  8
0
 10
34.1027174750761333
 20
66.8135553700577134
 30
0.0
  0
VERTEX
  5
4861
  8
0
 10
34.1081474555926434
 20
66.8693811932011499
 30
0.0
  0
VERTEX
  5
4862
  8
0
 10
34.1126939691480402
 20
66.9254489734183267
 30
0.0
  0
VERTEX
  5
4863
  8
0
 10
34.1163478552812194
 20
66.9817417765444247
 30
0.0
  0
VERTEX
  5
4864
  8
0
 10
34.117837309076549
 20
67.0099672242141082
 30
0.0
  0
VERTEX
  5
4865
  8
0
 10
34.1191003510425617
 20
67.0382425069948908
 30
0.0
  0
VERTEX
  5
4866
  8
0
 10
34.1209430913027134
 20
67.0949339604257347
 30
0.0
  0
VERTEX
  5
4867
  8
0
 10
34.1218681045738776
 20
67.1517988792904248
 30
0.0
  0
VERTEX
  5
4868
  8
0
 10
34.1219840780177108
 20
67.1802909949999929
 30
0.0
  0
SEQEND
  5
4869
  8
0
  0
LINE
  5
4397
  8
0
 10
26.5404710468901612
 20
82.889270239026871
 30
0.0
 11
26.6239703364030902
 21
80.6336224106276518
 31
0.0
  0
POLYLINE
  5
4398
  8
0
 66
     1
 10
0.0
 20
0.0
 30
0.0
  0
VERTEX
  5
486A
  8
0
 10
26.6239703364030902
 20
80.6336224106276518
 30
0.0
  0
VERTEX
  5
486B
  8
0
 10
26.6265365202752911
 20
80.5642995803068942
 30
0.0
  0
VERTEX
  5
486C
  8
0
 10
26.631668285733209
 20
80.4256701898202095
 30
0.0
  0
VERTEX
  5
486D
  8
0
 10
26.6367982444730913
 20
80.2870896059799293
 30
0.0
  0
VERTEX
  5
486E
  8
0
 10
26.6393621700467484
 20
80.2178277812823239
 30
0.0
  0
VERTEX
  5
486F
  8
0
 10
26.6419251924867204
 20
80.1485903538224846
 30
0.0
  0
VERTEX
  5
4870
  8
0
 10
26.6470479264730784
 20
80.0102049392955337
 30
0.0
  0
VERTEX
  5
4871
  8
0
 10
26.6521652441201695
 20
79.8719658416289917
 30
0.0
  0
VERTEX
  5
4872
  8
0
 10
26.6572759443872691
 20
79.73390550571213
 30
0.0
  0
VERTEX
  5
4873
  8
0
 10
26.6623788277866005
 20
79.5960563344784191
 30
0.0
  0
VERTEX
  5
4874
  8
0
 10
26.6674726966646212
 20
79.458450681300917
 30
0.0
  0
VERTEX
  5
4875
  8
0
 10
26.6700158769626796
 20
79.3897492689914657
 30
0.0
  0
VERTEX
  5
4876
  8
0
 10
26.6725563554846303
 20
79.3211208423984431
 30
0.0
  0
VERTEX
  5
4877
  8
0
 10
26.6776286111048684
 20
79.1840990492559627
 30
0.0
  0
VERTEX
  5
4878
  8
0
 10
26.6826882730611104
 20
79.0474174610599647
 30
0.0
  0
VERTEX
  5
4879
  8
0
 10
26.6877341538438486
 20
78.911108157149954
 30
0.0
  0
VERTEX
  5
487A
  8
0
 10
26.6927650691791314
 20
78.7752031294902935
 30
0.0
  0
VERTEX
  5
487B
  8
0
 10
26.697779838304541
 20
78.6397342751608335
 30
0.0
  0
VERTEX
  5
487C
  8
0
 10
26.7002808000790992
 20
78.572173353044775
 30
0.0
  0
VERTEX
  5
487D
  8
0
 10
26.7027772842475315
 20
78.504733388871216
 30
0.0
  0
VERTEX
  5
487E
  8
0
 10
26.7077562341014598
 20
78.3702321554985133
 30
0.0
  0
VERTEX
  5
487F
  8
0
 10
26.7127155192999908
 20
78.2362621426502187
 30
0.0
  0
VERTEX
  5
4880
  8
0
 10
26.7151874237315496
 20
78.1694861749104462
 30
0.0
  0
SEQEND
  5
4881
  8
0
  0
LINE
  5
4399
  8
0
 10
26.7151874237315496
 20
78.1694861749104462
 30
0.0
 11
27.0862418746010007
 21
68.1458300311947482
 31
0.0
  0
POLYLINE
  5
439A
  8
0
 66
     1
 10
0.0
 20
0.0
 30
0.0
  0
VERTEX
  5
4882
  8
0
 10
27.0862418746010007
 20
68.1458300311947482
 30
0.0
  0
VERTEX
  5
4883
  8
0
 10
27.0923482465955203
 20
67.9808726428184968
 30
0.0
  0
VERTEX
  5
4884
  8
0
 10
27.1043959152166316
 20
67.6554172081526417
 30
0.0
  0
VERTEX
  5
4885
  8
0
 10
27.1161920001991383
 20
67.3367580479498997
 30
0.0
  0
VERTEX
  5
4886
  8
0
 10
27.1219840780177002
 20
67.1802909949999929
 30
0.0
  0
SEQEND
  5
4887
  8
0
  0
ARC
  5
439B
  8
0
 10
31.5370487560353503
 20
83.0742329284399261
 30
0.0
 40
5.0000000000002958
 50
170.4512123407220088
 51
182.1200000000000045
  0
ARC
  5
439C
  8
0
 10
29.7069194000000607
 20
83.0742329284399261
 30
0.0
 40
4.9999999999999218
 50
357.8799999999998818
 51
9.5487876592779788
  0
POLYLINE
  5
439D
  8
0
 66
     1
 10
0.0
 20
0.0
 30
0.0
  0
VERTEX
  5
4888
  8
0
 10
34.637642925431237
 20
83.9036697950913748
 30
0.0
  0
VERTEX
  5
4889
  8
0
 10
34.5663523846646967
 20
84.3477962218986761
 30
0.0
  0
VERTEX
  5
488A
  8
0
 10
34.4436736882189507
 20
85.2399297040274462
 30
0.0
  0
VERTEX
  5
488B
  8
0
 10
34.3478143751813221
 20
86.1354805159082986
 30
0.0
  0
VERTEX
  5
488C
  8
0
 10
34.3100034215533469
 20
86.5838996504551517
 30
0.0
  0
VERTEX
  5
488D
  8
0
 10
34.2789453411246612
 20
87.032473038349309
 30
0.0
  0
VERTEX
  5
488E
  8
0
 10
34.2370688430660266
 20
87.929050566528673
 30
0.0
  0
VERTEX
  5
488F
  8
0
 10
34.2220385709497421
 20
88.8231108151981346
 30
0.0
  0
VERTEX
  5
4890
  8
0
 10
34.2335302605115501
 20
89.7125395367838934
 30
0.0
  0
VERTEX
  5
4891
  8
0
 10
34.2710417874341076
 20
90.5952416957858446
 30
0.0
  0
VERTEX
  5
4892
  8
0
 10
34.3338973247873582
 20
91.4691653124170045
 30
0.0
  0
VERTEX
  5
4893
  8
0
 10
34.374571358421008
 20
91.902203294531347
 30
0.0
  0
VERTEX
  5
4894
  8
0
 10
34.4212505877094372
 20
92.3322880169604616
 30
0.0
  0
VERTEX
  5
4895
  8
0
 10
34.5320827032883315
 20
93.182587632708902
 30
0.0
  0
VERTEX
  5
4896
  8
0
 10
34.615470411541537
 20
93.7059362365282738
 30
0.0
  0
SEQEND
  5
4897
  8
0
  0
POLYLINE
  5
439E
  8
0
 66
     1
 10
0.0
 20
0.0
 30
0.0
  0
VERTEX
  5
4898
  8
0
 10
26.6284977444938704
 20
93.7059362365283164
 30
0.0
  0
VERTEX
  5
4899
  8
0
 10
26.7118854527488985
 20
93.1825876326959559
 30
0.0
  0
VERTEX
  5
489A
  8
0
 10
26.8227175683273309
 20
92.3322880169485245
 30
0.0
  0
VERTEX
  5
489B
  8
0
 10
26.8693967976155399
 20
91.9022032945198646
 30
0.0
  0
VERTEX
  5
489C
  8
0
 10
26.9100708312489587
 20
91.4691653124060906
 30
0.0
  0
VERTEX
  5
489D
  8
0
 10
26.9729263686019713
 20
90.5952416957761955
 30
0.0
  0
VERTEX
  5
489E
  8
0
 10
27.0104378955240882
 20
89.7125395367754948
 30
0.0
  0
VERTEX
  5
489F
  8
0
 10
27.0219295850854486
 20
88.8231108151909581
 30
0.0
  0
VERTEX
  5
48A0
  8
0
 10
27.0068993129693808
 20
87.9290505665226334
 30
0.0
  0
VERTEX
  5
48A1
  8
0
 10
26.9650228149105295
 20
87.0324730383447616
 30
0.0
  0
VERTEX
  5
48A2
  8
0
 10
26.9339647344818403
 20
86.5838996504511726
 30
0.0
  0
VERTEX
  5
48A3
  8
0
 10
26.8961537808538687
 20
86.1354805159050159
 30
0.0
  0
VERTEX
  5
48A4
  8
0
 10
26.8002944678159984
 20
85.2399297040253998
 30
0.0
  0
VERTEX
  5
48A5
  8
0
 10
26.6776157713707107
 20
84.347796221897994
 30
0.0
  0
VERTEX
  5
48A6
  8
0
 10
26.6063252306041704
 20
83.9036697950913748
 30
0.0
  0
SEQEND
  5
48A7
  8
0
  0
LINE
  5
439F
  8
1
 10
229.6890254970338106
 20
60.6798664281204765
 30
0.0
 11
229.6890254970338106
 21
113.190290994999998
 31
0.0
  0
POLYLINE
  5
43A0
  8
0
 66
     1
 10
0.0
 20
0.0
 30
0.0
  0
VERTEX
  5
48A8
  8
0
 10
233.704684344447287
 20
83.9036697950913748
 30
0.0
  0
VERTEX
  5
48A9
  8
0
 10
233.6333938036808036
 20
84.3477962218987045
 30
0.0
  0
VERTEX
  5
48AA
  8
0
 10
233.5107151072351996
 20
85.2399297040274746
 30
0.0
  0
VERTEX
  5
48AB
  8
0
 10
233.4148557941973934
 20
86.1354805159083412
 30
0.0
  0
VERTEX
  5
48AC
  8
0
 10
233.3770448405693969
 20
86.5838996504551801
 30
0.0
  0
VERTEX
  5
48AD
  8
0
 10
233.3459867601407041
 20
87.0324730383493232
 30
0.0
  0
VERTEX
  5
48AE
  8
0
 10
233.304110262082105
 20
87.9290505665287014
 30
0.0
  0
VERTEX
  5
48AF
  8
0
 10
233.2890799899660124
 20
88.823110815198163
 30
0.0
  0
VERTEX
  5
48B0
  8
0
 10
233.300571679527593
 20
89.712539536783936
 30
0.0
  0
VERTEX
  5
48B1
  8
0
 10
233.3380832064501931
 20
90.5952416957858873
 30
0.0
  0
VERTEX
  5
48B2
  8
0
 10
233.4009387438034082
 20
91.469165312417033
 30
0.0
  0
VERTEX
  5
48B3
  8
0
 10
233.4416127774370864
 20
91.9022032945313754
 30
0.0
  0
VERTEX
  5
48B4
  8
0
 10
233.4882920067254872
 20
92.3322880169604758
 30
0.0
  0
VERTEX
  5
48B5
  8
0
 10
233.5991241223044028
 20
93.1825876327089304
 30
0.0
  0
VERTEX
  5
48B6
  8
0
 10
233.7322440243792983
 20
94.0180598665773886
 30
0.0
  0
VERTEX
  5
48B7
  8
0
 10
233.886292692145588
 20
94.8367415827534046
 30
0.0
  0
VERTEX
  5
48B8
  8
0
 10
234.0616918366744983
 20
95.6451241123820068
 30
0.0
  0
VERTEX
  5
48B9
  8
0
 10
234.2619446688296989
 20
96.4584555876246554
 30
0.0
  0
VERTEX
  5
48BA
  8
0
 10
234.3715483922856038
 20
96.8664989747836103
 30
0.0
  0
VERTEX
  5
48BB
  8
0
 10
234.4875134566167958
 20
97.2751051195488685
 30
0.0
  0
VERTEX
  5
48BC
  8
0
 10
234.7386000617273112
 20
98.0929565953030647
 30
0.0
  0
VERTEX
  5
48BD
  8
0
 10
235.0152583547925929
 20
98.9099515867811192
 30
0.0
  0
VERTEX
  5
48BE
  8
0
 10
235.1631555497405941
 20
99.3175051687128843
 30
0.0
  0
SEQEND
  5
48BF
  8
0
  0
POLYLINE
  5
43A1
  8
0
 66
     1
 10
0.0
 20
0.0
 30
0.0
  0
VERTEX
  5
48C0
  8
0
 10
225.6075124659062112
 20
82.889270239026871
 30
0.0
  0
VERTEX
  5
48C1
  8
0
 10
225.7038267814072867
 20
80.2874376022337657
 30
0.0
  0
VERTEX
  5
48C2
  8
0
 10
225.8972862238883863
 20
75.0613288070402831
 30
0.0
  0
VERTEX
  5
48C3
  8
0
 10
226.0916193607124001
 20
69.8116180535631088
 30
0.0
  0
VERTEX
  5
48C4
  8
0
 10
226.1890254970336969
 20
67.1802909949999929
 30
0.0
  0
SEQEND
  5
48C5
  8
0
  0
POLYLINE
  5
43A2
  8
0
 66
     1
 10
0.0
 20
0.0
 30
0.0
  0
VERTEX
  5
48C6
  8
0
 10
226.1890254970336969
 20
67.1802909949999929
 30
0.0
  0
VERTEX
  5
48C7
  8
0
 10
226.1890972849132027
 20
67.1578742601009822
 30
0.0
  0
VERTEX
  5
48C8
  8
0
 10
226.1896745062038008
 20
67.1128918631259808
 30
0.0
  0
VERTEX
  5
48C9
  8
0
 10
226.1908361403519052
 20
67.0677244600195195
 30
0.0
  0
VERTEX
  5
48CA
  8
0
 10
226.1916383236068953
 20
67.0450765018810557
 30
0.0
  0
VERTEX
  5
48CB
  8
0
 10
226.192589198878693
 20
67.0223884524517075
 30
0.0
  0
VERTEX
  5
48CC
  8
0
 10
226.1949401735780896
 20
66.9769003550682669
 30
0.0
  0
VERTEX
  5
48CD
  8
0
 10
226.1978950337397976
 20
66.9312767619507554
 30
0.0
  0
VERTEX
  5
48CE
  8
0
 10
226.2014592254562899
 20
66.8855343133884048
 30
0.0
  0
VERTEX
  5
48CF
  8
0
 10
226.2056376730085958
 20
66.8396896628922264
 30
0.0
  0
VERTEX
  5
48D0
  8
0
 10
226.2104347823353976
 20
66.7937594443946523
 30
0.0
  0
VERTEX
  5
48D1
  8
0
 10
226.2130665716105966
 20
66.7707674318540398
 30
0.0
  0
VERTEX
  5
48D2
  8
0
 10
226.2158544465935108
 20
66.747760239581396
 30
0.0
  0
VERTEX
  5
48D3
  8
0
 10
226.2219000538374871
 20
66.7017085453212957
 30
0.0
  0
VERTEX
  5
48D4
  8
0
 10
226.2285744968407926
 20
66.6556207411611581
 30
0.0
  0
VERTEX
  5
48D5
  8
0
 10
226.2358801850978125
 20
66.6095130568708669
 30
0.0
  0
VERTEX
  5
48D6
  8
0
 10
226.2438190590467002
 20
66.5634015400303838
 30
0.0
  0
VERTEX
  5
48D7
  8
0
 10
226.2523926065595958
 20
66.5173020236649677
 30
0.0
  0
VERTEX
  5
48D8
  8
0
 10
226.2569177312923046
 20
66.4942616338670973
 30
0.0
  0
VERTEX
  5
48D9
  8
0
 10
226.2616018959409132
 20
66.4712300253567605
 30
0.0
  0
VERTEX
  5
48DA
  8
0
 10
226.2714475307519137
 20
66.4252010371911297
 30
0.0
  0
VERTEX
  5
48DB
  8
0
 10
226.2819295789759053
 20
66.3792308192624319
 30
0.0
  0
VERTEX
  5
48DC
  8
0
 10
226.2874091510610128
 20
66.3562726488384556
 30
0.0
  0
SEQEND
  5
48DD
  8
0
  0
POLYLINE
  5
43A3
  8
0
 66
     1
 10
0.0
 20
0.0
 30
0.0
  0
VERTEX
  5
48DE
  8
0
 10
226.2874091510610128
 20
66.3562726488384556
 30
0.0
  0
VERTEX
  5
48DF
  8
0
 10
226.2992469042586094
 20
66.3088547713080629
 30
0.0
  0
VERTEX
  5
48E0
  8
0
 10
226.3249612867844007
 20
66.2143344797679561
 30
0.0
  0
VERTEX
  5
48E1
  8
0
 10
226.3533415627339025
 20
66.1204737039284254
 30
0.0
  0
VERTEX
  5
48E2
  8
0
 10
226.3685117703955996
 20
66.0738604317890008
 30
0.0
  0
VERTEX
  5
48E3
  8
0
 10
226.3843188289519901
 20
66.0275057426935632
 30
0.0
  0
VERTEX
  5
48E4
  8
0
 10
226.417781700652796
 20
65.9357171624616853
 30
0.0
  0
VERTEX
  5
48E5
  8
0
 10
226.4535897124362975
 20
65.8453920161459223
 30
0.0
  0
VERTEX
  5
48E6
  8
0
 10
226.4915777156465992
 20
65.7567996233006511
 30
0.0
  0
VERTEX
  5
48E7
  8
0
 10
226.5315591776364101
 20
65.6701895275908214
 30
0.0
  0
VERTEX
  5
48E8
  8
0
 10
226.5733248646847073
 20
65.5857974799363888
 30
0.0
  0
VERTEX
  5
48E9
  8
0
 10
226.5948047305247997
 20
65.544504380522028
 30
0.0
  0
VERTEX
  5
48EA
  8
0
 10
226.6166413860574096
 20
65.5038495630912507
 30
0.0
  0
VERTEX
  5
48EB
  8
0
 10
226.6612540138467011
 20
65.4245575740051635
 30
0.0
  0
VERTEX
  5
48EC
  8
0
 10
226.7069645642829983
 20
65.3479939139124895
 30
0.0
  0
VERTEX
  5
48ED
  8
0
 10
226.7545273274851922
 20
65.2727479436074844
 30
0.0
  0
VERTEX
  5
48EE
  8
0
 10
226.8041621133467913
 20
65.1984829171423712
 30
0.0
  0
VERTEX
  5
48EF
  8
0
 10
226.8557971621787885
 20
65.1253415546063366
 30
0.0
  0
VERTEX
  5
48F0
  8
0
 10
226.8823401029640081
 20
65.0892345398282828
 30
0.0
  0
VERTEX
  5
48F1
  8
0
 10
226.909352608836997
 20
65.0534579891850058
 30
0.0
  0
VERTEX
  5
48F2
  8
0
 10
226.9647419890386004
 20
64.9829563896051354
 30
0.0
  0
VERTEX
  5
48F3
  8
0
 10
227.0218737094531036
 20
64.9139500360960824
 30
0.0
  0
VERTEX
  5
48F4
  8
0
 10
227.0510629490067913
 20
64.8800402271039616
 30
0.0
  0
VERTEX
  5
48F5
  8
0
 10
227.0806509030153109
 20
64.8465425129911068
 30
0.0
  0
VERTEX
  5
48F6
  8
0
 10
227.1409697502045049
 20
64.7808302407782435
 30
0.0
  0
VERTEX
  5
48F7
  8
0
 10
227.2027201150465032
 20
64.7169019580223335
 30
0.0
  0
VERTEX
  5
48F8
  8
0
 10
227.2340962566715916
 20
64.685632215764997
 30
0.0
  0
VERTEX
  5
48F9
  8
0
 10
227.2657866990898867
 20
64.6548378221734197
 30
0.0
  0
VERTEX
  5
48FA
  8
0
 10
227.3300501597109076
 20
64.5947087863084448
 30
0.0
  0
VERTEX
  5
48FB
  8
0
 10
227.3953941953064088
 20
64.5365709924778344
 30
0.0
  0
VERTEX
  5
48FC
  8
0
 10
227.4617033482043098
 20
64.4804695110248645
 30
0.0
  0
VERTEX
  5
48FD
  8
0
 10
227.5288517268814132
 20
64.4264483555694483
 30
0.0
  0
VERTEX
  5
48FE
  8
0
 10
227.5967078494608984
 20
64.37454566413777
 30
0.0
  0
VERTEX
  5
48FF
  8
0
 10
227.630858921160808
 20
64.3493988483509725
 30
0.0
  0
VERTEX
  5
4900
  8
0
 10
227.6651355443190994
 20
64.3247928844595549
 30
0.0
  0
VERTEX
  5
4901
  8
0
 10
227.7339947779960028
 20
64.2772141982861029
 30
0.0
  0
VERTEX
  5
4902
  8
0
 10
227.8031424149272084
 20
64.2318261400925508
 30
0.0
  0
VERTEX
  5
4903
  8
0
 10
227.8724329141473959
 20
64.1886373740402973
 30
0.0
  0
VERTEX
  5
4904
  8
0
 10
227.9417189702647022
 20
64.1476485990835386
 30
0.0
  0
VERTEX
  5
4905
  8
0
 10
228.0108521075597139
 20
64.1088525575799508
 30
0.0
  0
VERTEX
  5
4906
  8
0
 10
228.0453147507178073
 20
64.0902723894824362
 30
0.0
  0
VERTEX
  5
4907
  8
0
 10
228.0796832373868881
 20
64.0722341275481426
 30
0.0
  0
VERTEX
  5
4908
  8
0
 10
228.1484884399382906
 20
64.0375619936834823
 30
0.0
  0
VERTEX
  5
4909
  8
0
 10
228.2187274662379082
 20
64.0040945746509919
 30
0.0
  0
VERTEX
  5
490A
  8
0
 10
228.2904084841343035
 20
63.9718847783204296
 30
0.0
  0
VERTEX
  5
490B
  8
0
 10
228.3633859408485023
 20
63.9410503791955804
 30
0.0
  0
VERTEX
  5
490C
  8
0
 10
228.4375178915801996
 20
63.911693633211307
 30
0.0
  0
VERTEX
  5
490D
  8
0
 10
228.474974021950004
 20
63.8975971293088492
 30
0.0
  0
VERTEX
  5
490E
  8
0
 10
228.512668384743904
 20
63.8839014633510374
 30
0.0
  0
VERTEX
  5
490F
  8
0
 10
228.5887091637285096
 20
63.857746192192792
 30
0.0
  0
VERTEX
  5
4910
  8
0
 10
228.6655214252652968
 20
63.8332864513709524
 30
0.0
  0
VERTEX
  5
4911
  8
0
 10
228.7429996904699863
 20
63.8105676868759133
 30
0.0
  0
VERTEX
  5
4912
  8
0
 10
228.8210559293248139
 20
63.7896230918383296
 30
0.0
  0
VERTEX
  5
4913
  8
0
 10
228.8996043078109039
 20
63.7704795359884997
 30
0.0
  0
VERTEX
  5
4914
  8
0
 10
228.9390219723036068
 20
63.7615931854689393
 30
0.0
  0
VERTEX
  5
4915
  8
0
 10
228.9785373996732858
 20
63.7531629461070111
 30
0.0
  0
VERTEX
  5
4916
  8
0
 10
229.0579007925311998
 20
63.7376638575704533
 30
0.0
  0
VERTEX
  5
4917
  8
0
 10
229.1378107428417934
 20
63.7239689187517229
 30
0.0
  0
VERTEX
  5
4918
  8
0
 10
229.2184460095612053
 20
63.7120702774029084
 30
0.0
  0
VERTEX
  5
4919
  8
0
 10
229.3000394177734051
 20
63.7019738975889709
 30
0.0
  0
VERTEX
  5
491A
  8
0
 10
229.3481871685355884
 20
63.6969263523266704
 30
0.0
  0
VERTEX
  5
491B
  8
0
 10
229.3620306782987086
 20
63.6955995612400372
 30
0.0
  0
VERTEX
  5
491C
  8
0
 10
229.3759162838362045
 20
63.6943244689686523
 30
0.0
  0
VERTEX
  5
491D
  8
0
 10
229.3828755039073997
 20
63.6937063937450034
 30
0.0
  0
VERTEX
  5
491E
  8
0
 10
229.3898460175753087
 20
63.6931013472936414
 30
0.0
  0
VERTEX
  5
491F
  8
0
 10
229.4038220060024003
 20
63.6919304963268402
 30
0.0
  0
VERTEX
  5
4920
  8
0
 10
229.417846462885592
 20
63.6908122471870115
 30
0.0
  0
VERTEX
  5
4921
  8
0
 10
229.4248775806699996
 20
63.6902729609089988
 30
0.0
  0
VERTEX
  5
4922
  8
0
 10
229.4319216810432067
 20
63.6897469646512988
 30
0.0
  0
VERTEX
  5
4923
  8
0
 10
229.4460500227231137
 20
63.6887350497395914
 30
0.0
  0
VERTEX
  5
4924
  8
0
 10
229.4602339086939082
 20
63.687776942185728
 30
0.0
  0
VERTEX
  5
4925
  8
0
 10
229.4673474503368027
 20
63.6873182147435912
 30
0.0
  0
VERTEX
  5
4926
  8
0
 10
229.4744758062034009
 20
63.6868731227487501
 30
0.0
  0
VERTEX
  5
4927
  8
0
 10
229.4887782160205916
 20
63.686024115317359
 30
0.0
  0
VERTEX
  5
4928
  8
0
 10
229.5031436588353984
 20
63.6852304887672105
 30
0.0
  0
VERTEX
  5
4929
  8
0
 10
229.5175746613570027
 20
63.6844928585301702
 30
0.0
  0
VERTEX
  5
492A
  8
0
 10
229.5320737425126936
 20
63.6838118878476394
 30
0.0
  0
VERTEX
  5
492B
  8
0
 10
229.5466434002044025
 20
63.6831882886869423
 30
0.0
  0
VERTEX
  5
492C
  8
0
 10
229.5539554670700113
 20
63.6828982393882868
 30
0.0
  0
VERTEX
  5
492D
  8
0
 10
229.5612860991340938
 20
63.6826228223134834
 30
0.0
  0
VERTEX
  5
492E
  8
0
 10
229.5760042602352939
 20
63.6821162995291274
 30
0.0
  0
VERTEX
  5
492F
  8
0
 10
229.5908002522666891
 20
63.6816695806010671
 30
0.0
  0
VERTEX
  5
4930
  8
0
 10
229.6056763861149079
 20
63.6812835749294095
 30
0.0
  0
VERTEX
  5
4931
  8
0
 10
229.6206349123133066
 20
63.6809592405186891
 30
0.0
  0
VERTEX
  5
4932
  8
0
 10
229.6356780222176894
 20
63.6806975833405318
 30
0.0
  0
VERTEX
  5
4933
  8
0
 10
229.6432319658649988
 20
63.6805905860359829
 30
0.0
  0
VERTEX
  5
4934
  8
0
 10
229.6508078531830961
 20
63.6804996566916586
 30
0.0
  0
VERTEX
  5
4935
  8
0
 10
229.6660264979543911
 20
63.6803665606669824
 30
0.0
  0
VERTEX
  5
4936
  8
0
 10
229.6813360183325869
 20
63.6802994418791783
 30
0.0
  0
VERTEX
  5
4937
  8
0
 10
229.6890254970338106
 20
63.6802909950000071
 30
0.0
  0
VERTEX
  5
4938
  8
0
 10
229.6967149757352047
 20
63.6802994418791783
 30
0.0
  0
VERTEX
  5
4939
  8
0
 10
229.7120244961134006
 20
63.6803665606669824
 30
0.0
  0
VERTEX
  5
493A
  8
0
 10
229.7272431408844113
 20
63.6804996566916586
 30
0.0
  0
VERTEX
  5
493B
  8
0
 10
229.7348190282025939
 20
63.6805905860359829
 30
0.0
  0
VERTEX
  5
493C
  8
0
 10
229.7423729718497896
 20
63.6806975833405318
 30
0.0
  0
VERTEX
  5
493D
  8
0
 10
229.7574160817543998
 20
63.6809592405186891
 30
0.0
  0
VERTEX
  5
493E
  8
0
 10
229.7723746079525995
 20
63.6812835749294095
 30
0.0
  0
VERTEX
  5
493F
  8
0
 10
229.7872507418007899
 20
63.6816695806010671
 30
0.0
  0
VERTEX
  5
4940
  8
0
 10
229.8020467338322135
 20
63.6821162995291274
 30
0.0
  0
VERTEX
  5
4941
  8
0
 10
229.8167648949334136
 20
63.6826228223134834
 30
0.0
  0
VERTEX
  5
4942
  8
0
 10
229.8240955269974961
 20
63.6828982393882868
 30
0.0
  0
VERTEX
  5
4943
  8
0
 10
229.8314075938631049
 20
63.6831882886869423
 30
0.0
  0
VERTEX
  5
4944
  8
0
 10
229.8459772515550128
 20
63.6838118878476394
 30
0.0
  0
VERTEX
  5
4945
  8
0
 10
229.8604763327105047
 20
63.6844928585301702
 30
0.0
  0
VERTEX
  5
4946
  8
0
 10
229.8749073352323933
 20
63.6852304887672105
 30
0.0
  0
VERTEX
  5
4947
  8
0
 10
229.8892727780470864
 20
63.686024115317359
 30
0.0
  0
VERTEX
  5
4948
  8
0
 10
229.9035751878641065
 20
63.6868731227487501
 30
0.0
  0
VERTEX
  5
4949
  8
0
 10
229.9107035437307047
 20
63.6873182147435912
 30
0.0
  0
VERTEX
  5
494A
  8
0
 10
229.9178170853737981
 20
63.687776942185728
 30
0.0
  0
VERTEX
  5
494B
  8
0
 10
229.9320009713447064
 20
63.6887350497395914
 30
0.0
  0
VERTEX
  5
494C
  8
0
 10
229.9461293130246133
 20
63.6897469646512988
 30
0.0
  0
VERTEX
  5
494D
  8
0
 10
229.953173413397792
 20
63.6902729609089988
 30
0.0
  0
VERTEX
  5
494E
  8
0
 10
229.960204531181887
 20
63.6908122471870115
 30
0.0
  0
VERTEX
  5
494F
  8
0
 10
229.9742289880651072
 20
63.6919304963268402
 30
0.0
  0
VERTEX
  5
4950
  8
0
 10
229.9882049764923977
 20
63.6931013472936414
 30
0.0
  0
VERTEX
  5
4951
  8
0
 10
229.9951754901601078
 20
63.6937063937450034
 30
0.0
  0
VERTEX
  5
4952
  8
0
 10
230.002134710231303
 20
63.6943244689686523
 30
0.0
  0
VERTEX
  5
4953
  8
0
 10
230.0160203157687988
 20
63.6955995612400372
 30
0.0
  0
VERTEX
  5
4954
  8
0
 10
230.0298638255318906
 20
63.6969263523266704
 30
0.0
  0
VERTEX
  5
4955
  8
0
 10
230.0780115762941023
 20
63.7019738975889709
 30
0.0
  0
VERTEX
  5
4956
  8
0
 10
230.1596049845063874
 20
63.7120702774029084
 30
0.0
  0
VERTEX
  5
4957
  8
0
 10
230.240240251225913
 20
63.7239689187517229
 30
0.0
  0
VERTEX
  5
4958
  8
0
 10
230.3201502015363076
 20
63.7376638575704533
 30
0.0
  0
VERTEX
  5
4959
  8
0
 10
230.3995135943943922
 20
63.7531629461070111
 30
0.0
  0
VERTEX
  5
495A
  8
0
 10
230.4390290217639006
 20
63.7615931854689393
 30
0.0
  0
VERTEX
  5
495B
  8
0
 10
230.4784466862566035
 20
63.7704795359884997
 30
0.0
  0
VERTEX
  5
495C
  8
0
 10
230.5569950647428072
 20
63.7896230918383296
 30
0.0
  0
VERTEX
  5
495D
  8
0
 10
230.6350513035976917
 20
63.8105676868759133
 30
0.0
  0
VERTEX
  5
495E
  8
0
 10
230.7125295688022106
 20
63.8332864513709524
 30
0.0
  0
VERTEX
  5
495F
  8
0
 10
230.7893418303393105
 20
63.857746192192792
 30
0.0
  0
VERTEX
  5
4960
  8
0
 10
230.8653826093236034
 20
63.8839014633510374
 30
0.0
  0
VERTEX
  5
4961
  8
0
 10
230.9030769721177876
 20
63.8975971293088492
 30
0.0
  0
VERTEX
  5
4962
  8
0
 10
230.9405331024873078
 20
63.911693633211307
 30
0.0
  0
VERTEX
  5
4963
  8
0
 10
231.0146650532192893
 20
63.9410503791955804
 30
0.0
  0
VERTEX
  5
4964
  8
0
 10
231.0876425099332039
 20
63.9718847783204296
 30
0.0
  0
VERTEX
  5
4965
  8
0
 10
231.1593235278297129
 20
64.0040945746509919
 30
0.0
  0
VERTEX
  5
4966
  8
0
 10
231.2295625541291884
 20
64.0375619936834823
 30
0.0
  0
VERTEX
  5
4967
  8
0
 10
231.2983677566805909
 20
64.0722341275481426
 30
0.0
  0
VERTEX
  5
4968
  8
0
 10
231.332736243349899
 20
64.0902723894824362
 30
0.0
  0
VERTEX
  5
4969
  8
0
 10
231.3671988865077935
 20
64.1088525575799508
 30
0.0
  0
VERTEX
  5
496A
  8
0
 10
231.4363320238030042
 20
64.1476485990835386
 30
0.0
  0
VERTEX
  5
496B
  8
0
 10
231.5056180799203958
 20
64.1886373740401837
 30
0.0
  0
VERTEX
  5
496C
  8
0
 10
231.5749085791404127
 20
64.2318261400925508
 30
0.0
  0
VERTEX
  5
496D
  8
0
 10
231.6440562160717036
 20
64.2772141982861029
 30
0.0
  0
VERTEX
  5
496E
  8
0
 10
231.712915449748607
 20
64.3247928844595549
 30
0.0
  0
VERTEX
  5
496F
  8
0
 10
231.7471920729066994
 20
64.3493988483509725
 30
0.0
  0
VERTEX
  5
4970
  8
0
 10
231.781343144606609
 20
64.37454566413777
 30
0.0
  0
VERTEX
  5
4971
  8
0
 10
231.8491992671860942
 20
64.4264483555694483
 30
0.0
  0
VERTEX
  5
4972
  8
0
 10
231.9163476458631976
 20
64.4804695110248645
 30
0.0
  0
VERTEX
  5
4973
  8
0
 10
231.9826567987614112
 20
64.5365709924778344
 30
0.0
  0
VERTEX
  5
4974
  8
0
 10
232.0480008343567988
 20
64.5947087863084448
 30
0.0
  0
VERTEX
  5
4975
  8
0
 10
232.1122642949775923
 20
64.6548378221734197
 30
0.0
  0
VERTEX
  5
4976
  8
0
 10
232.1439547373958874
 20
64.685632215764997
 30
0.0
  0
VERTEX
  5
4977
  8
0
 10
232.1753308790210042
 20
64.7169019580223335
 30
0.0
  0
VERTEX
  5
4978
  8
0
 10
232.2370812438630026
 20
64.7808302407782435
 30
0.0
  0
VERTEX
  5
4979
  8
0
 10
232.2974000910521966
 20
64.8465425129909931
 30
0.0
  0
VERTEX
  5
497A
  8
0
 10
232.3269880450610003
 20
64.8800402271039616
 30
0.0
  0
VERTEX
  5
497B
  8
0
 10
232.3561772846144038
 20
64.9139500360960824
 30
0.0
  0
VERTEX
  5
497C
  8
0
 10
232.4133090050287933
 20
64.9829563896051354
 30
0.0
  0
VERTEX
  5
497D
  8
0
 10
232.4686983852305104
 20
65.0534579891850058
 30
0.0
  0
VERTEX
  5
497E
  8
0
 10
232.4957108911034993
 20
65.0892345398282828
 30
0.0
  0
VERTEX
  5
497F
  8
0
 10
232.5222538318890031
 20
65.1253415546063366
 30
0.0
  0
VERTEX
  5
4980
  8
0
 10
232.5738888807208866
 20
65.1984829171423712
 30
0.0
  0
VERTEX
  5
4981
  8
0
 10
232.6235236665825141
 20
65.2727479436074844
 30
0.0
  0
VERTEX
  5
4982
  8
0
 10
232.6710864297845092
 20
65.3479939139124895
 30
0.0
  0
VERTEX
  5
4983
  8
0
 10
232.7167969802210052
 20
65.4245575740051635
 30
0.0
  0
VERTEX
  5
4984
  8
0
 10
232.7614096080100978
 20
65.5038495630912507
 30
0.0
  0
VERTEX
  5
4985
  8
0
 10
232.7832462635427078
 20
65.544504380522028
 30
0.0
  0
VERTEX
  5
4986
  8
0
 10
232.8047261293828001
 20
65.5857974799363888
 30
0.0
  0
VERTEX
  5
4987
  8
0
 10
232.8464918164310973
 20
65.6701895275908214
 30
0.0
  0
VERTEX
  5
4988
  8
0
 10
232.8864732784209082
 20
65.7567996233006511
 30
0.0
  0
VERTEX
  5
4989
  8
0
 10
232.9244612816312099
 20
65.8453920161459223
 30
0.0
  0
VERTEX
  5
498A
  8
0
 10
232.9602692934147115
 20
65.9357171624615717
 30
0.0
  0
VERTEX
  5
498B
  8
0
 10
232.9937321651156878
 20
66.0275057426935632
 30
0.0
  0
VERTEX
  5
498C
  8
0
 10
233.0095392236719931
 20
66.0738604317890008
 30
0.0
  0
VERTEX
  5
498D
  8
0
 10
233.0247094313336049
 20
66.1204737039284254
 30
0.0
  0
VERTEX
  5
498E
  8
0
 10
233.0530897072831067
 20
66.2143344797679561
 30
0.0
  0
VERTEX
  5
498F
  8
0
 10
233.0788040898092106
 20
66.3088547713080629
 30
0.0
  0
VERTEX
  5
4990
  8
0
 10
233.0906418430064946
 20
66.3562726488384556
 30
0.0
  0
SEQEND
  5
4991
  8
0
  0
POLYLINE
  5
43A4
  8
0
 66
     1
 10
0.0
 20
0.0
 30
0.0
  0
VERTEX
  5
4992
  8
0
 10
233.0906418430064946
 20
66.3562726488384556
 30
0.0
  0
VERTEX
  5
4993
  8
0
 10
233.0961213727260031
 20
66.3792306390706131
 30
0.0
  0
VERTEX
  5
4994
  8
0
 10
233.1066033456864091
 20
66.425200504794077
 30
0.0
  0
VERTEX
  5
4995
  8
0
 10
233.1164489183086062
 20
66.4712291561616553
 30
0.0
  0
VERTEX
  5
4996
  8
0
 10
233.1211330568725941
 20
66.4942606037656532
 30
0.0
  0
VERTEX
  5
4997
  8
0
 10
233.1256581589452992
 20
66.5173008389019174
 30
0.0
  0
VERTEX
  5
4998
  8
0
 10
233.1342316714408014
 20
66.563400067989221
 30
0.0
  0
VERTEX
  5
4999
  8
0
 10
233.1421705235364072
 20
66.6095113300330439
 30
0.0
  0
VERTEX
  5
499A
  8
0
 10
233.1494762024474028
 20
66.6556187969535472
 30
0.0
  0
VERTEX
  5
499B
  8
0
 10
233.1561506477301009
 20
66.7017064262881263
 30
0.0
  0
VERTEX
  5
499C
  8
0
 10
233.1621962677625106
 20
66.7477579935364815
 30
0.0
  0
VERTEX
  5
499D
  8
0
 10
233.1649841526648004
 20
66.7707651419166837
 30
0.0
  0
VERTEX
  5
499E
  8
0
 10
233.1676159539570108
 20
66.793757124553224
 30
0.0
  0
VERTEX
  5
499F
  8
0
 10
233.1724130927536862
 20
66.8396873279850183
 30
0.0
  0
VERTEX
  5
49A0
  8
0
 10
233.1765915754371861
 20
66.885532027756355
 30
0.0
  0
VERTEX
  5
49A1
  8
0
 10
233.1801558058078001
 20
66.931274595622483
 30
0.0
  0
VERTEX
  5
49A2
  8
0
 10
233.1831107057425925
 20
66.9768983838196732
 30
0.0
  0
VERTEX
  5
49A3
  8
0
 10
233.1854617186587006
 20
67.0223867578488921
 30
0.0
  0
VERTEX
  5
49A4
  8
0
 10
233.1864126115449949
 20
67.0450749780054025
 30
0.0
  0
VERTEX
  5
49A5
  8
0
 10
233.1872148108996043
 20
67.0677231294446869
 30
0.0
  0
VERTEX
  5
49A6
  8
0
 10
233.1883764710428011
 20
67.1128909897867629
 30
0.0
  0
VERTEX
  5
49A7
  8
0
 10
233.1889537071234031
 20
67.1578739430232758
 30
0.0
  0
VERTEX
  5
49A8
  8
0
 10
233.1890254970338106
 20
67.1802909949999929
 30
0.0
  0
SEQEND
  5
49A9
  8
0
  0
POLYLINE
  5
43A5
  8
0
 66
     1
 10
0.0
 20
0.0
 30
0.0
  0
VERTEX
  5
49AA
  8
0
 10
233.1890254970338106
 20
67.1802909949999929
 30
0.0
  0
VERTEX
  5
49AB
  8
0
 10
233.2864316333551074
 20
69.8116180535631088
 30
0.0
  0
VERTEX
  5
49AC
  8
0
 10
233.4807647701794053
 20
75.0613288070402831
 30
0.0
  0
VERTEX
  5
49AD
  8
0
 10
233.6742242126601923
 20
80.2874376022337657
 30
0.0
  0
VERTEX
  5
49AE
  8
0
 10
233.7705385281612962
 20
82.889270239026871
 30
0.0
  0
SEQEND
  5
49AF
  8
0
  0
POLYLINE
  5
43A6
  8
0
 66
     1
 10
0.0
 20
0.0
 30
0.0
  0
VERTEX
  5
49B0
  8
0
 10
233.7705385281612962
 20
82.889270239026871
 30
0.0
  0
VERTEX
  5
49B1
  8
0
 10
233.7739299736531962
 20
83.0566701074732805
 30
0.0
  0
VERTEX
  5
49B2
  8
0
 10
233.7638368120194912
 20
83.3922542711997465
 30
0.0
  0
VERTEX
  5
49B3
  8
0
 10
233.730417718567594
 20
83.7326666782510642
 30
0.0
  0
VERTEX
  5
49B4
  8
0
 10
233.704684344447287
 20
83.9036697950913748
 30
0.0
  0
SEQEND
  5
49B5
  8
0
  0
POLYLINE
  5
43A7
  8
0
 66
     1
 10
0.0
 20
0.0
 30
0.0
  0
VERTEX
  5
49B6
  8
0
 10
224.128236503515609
 20
107.9320701249133947
 30
0.0
  0
VERTEX
  5
49B7
  8
0
 10
223.9808270134554107
 20
107.7320153281787043
 30
0.0
  0
VERTEX
  5
49B8
  8
0
 10
223.7063798421582135
 20
107.3145654711777013
 30
0.0
  0
VERTEX
  5
49B9
  8
0
 10
223.5580733810251957
 20
107.0583712414137949
 30
0.0
  0
VERTEX
  5
49BA
  8
0
 10
223.5174627106769094
 20
106.9835943074518951
 30
0.0
  0
VERTEX
  5
49BB
  8
0
 10
223.4776707317905959
 20
106.908149724915404
 30
0.0
  0
VERTEX
  5
49BC
  8
0
 10
223.4580874322743966
 20
106.8701829732859068
 30
0.0
  0
VERTEX
  5
49BD
  8
0
 10
223.438715530601911
 20
106.8320564246479023
 30
0.0
  0
VERTEX
  5
49BE
  8
0
 10
223.4006144570990102
 20
106.7553335301246022
 30
0.0
  0
VERTEX
  5
49BF
  8
0
 10
223.3633841191044951
 20
106.6780003134341968
 30
0.0
  0
VERTEX
  5
49C0
  8
0
 10
223.3451004619629998
 20
106.6391108863420953
 30
0.0
  0
VERTEX
  5
49C1
  8
0
 10
223.3270403806490947
 20
106.6000761547162057
 30
0.0
  0
VERTEX
  5
49C2
  8
0
 10
223.2915984228831974
 20
106.5215806372089986
 30
0.0
  0
VERTEX
  5
49C3
  8
0
 10
223.2570728510362983
 20
106.4425337721011005
 30
0.0
  0
VERTEX
  5
49C4
  8
0
 10
223.2401581170578879
 20
106.4028099601284936
 30
0.0
  0
VERTEX
  5
49C5
  8
0
 10
223.2234776941743064
 20
106.3629560148895052
 30
0.0
  0
VERTEX
  5
49C6
  8
0
 10
223.1908263825098118
 20
106.2828682307415988
 30
0.0
  0
VERTEX
  5
49C7
  8
0
 10
223.1591317269761134
 20
106.2022916595045956
 30
0.0
  0
VERTEX
  5
49C8
  8
0
 10
223.1284059010098986
 20
106.1212478803766999
 30
0.0
  0
VERTEX
  5
49C9
  8
0
 10
223.0986604244764919
 20
106.0397587761778055
 30
0.0
  0
VERTEX
  5
49CA
  8
0
 10
223.0699061496750062
 20
105.957846497160304
 30
0.0
  0
VERTEX
  5
49CB
  8
0
 10
223.0559039187459973
 20
105.9167386531515973
 30
0.0
  0
VERTEX
  5
49CC
  8
0
 10
223.0421532493811014
 20
105.8755334242964068
 30
0.0
  0
VERTEX
  5
49CD
  8
0
 10
223.0154112068856023
 20
105.7928421319737993
 30
0.0
  0
VERTEX
  5
49CE
  8
0
 10
222.9896888080108965
 20
105.7097953500363019
 30
0.0
  0
VERTEX
  5
49CF
  8
0
 10
222.9649941350866982
 20
105.6264159250988968
 30
0.0
  0
VERTEX
  5
49D0
  8
0
 10
222.9413345628875049
 20
105.5427267810715932
 30
0.0
  0
VERTEX
  5
49D1
  8
0
 10
222.9187167565378047
 20
105.4587508788224
 30
0.0
  0
VERTEX
  5
49D2
  8
0
 10
222.9078004018309116
 20
105.4166625589773929
 30
0.0
  0
VERTEX
  5
49D3
  8
0
 10
222.8971461861708008
 20
105.3745092296651933
 30
0.0
  0
VERTEX
  5
49D4
  8
0
 10
222.8766258084592948
 20
105.290014723815105
 30
0.0
  0
VERTEX
  5
49D5
  8
0
 10
222.857160398205508
 20
105.2052891167732014
 30
0.0
  0
VERTEX
  5
49D6
  8
0
 10
222.8387544845344905
 20
105.1203559432967012
 30
0.0
  0
VERTEX
  5
49D7
  8
0
 10
222.821411954334792
 20
105.0352390486667957
 30
0.0
  0
VERTEX
  5
49D8
  8
0
 10
222.8051360341121949
 20
104.9499625518513994
 30
0.0
  0
VERTEX
  5
49D9
  8
0
 10
222.7973988764827027
 20
104.9072720555348042
 30
0.0
  0
VERTEX
  5
49DA
  8
0
 10
222.7899292740393946
 20
104.8645508084975972
 30
0.0
  0
VERTEX
  5
49DB
  8
0
 10
222.7757935341498978
 20
104.7790283737031984
 30
0.0
  0
VERTEX
  5
49DC
  8
0
 10
222.7627299726470937
 20
104.6934199645105963
 30
0.0
  0
VERTEX
  5
49DD
  8
0
 10
222.7254508606499996
 20
104.3934727975653942
 30
0.0
  0
VERTEX
  5
49DE
  8
0
 10
222.6918924545634866
 20
103.8806136995825966
 30
0.0
  0
VERTEX
  5
49DF
  8
0
 10
222.6892343421961868
 20
103.6262189258845012
 30
0.0
  0
VERTEX
  5
49E0
  8
0
 10
222.6957255605765909
 20
103.3740949813952028
 30
0.0
  0
VERTEX
  5
49E1
  8
0
 10
222.7349885888314134
 20
102.879434778592497
 30
0.0
  0
VERTEX
  5
49E2
  8
0
 10
222.8092807762787118
 20
102.3883495964674069
 30
0.0
  0
VERTEX
  5
49E3
  8
0
 10
222.870019883032711
 20
102.0987846130268935
 30
0.0
  0
VERTEX
  5
49E4
  8
0
 10
222.8897844204321075
 20
102.0158629303925011
 30
0.0
  0
VERTEX
  5
49E5
  8
0
 10
222.9106288103957922
 20
101.9329105674532059
 30
0.0
  0
VERTEX
  5
49E6
  8
0
 10
222.9214570302052039
 20
101.8914318482844976
 30
0.0
  0
VERTEX
  5
49E7
  8
0
 10
222.9325564133418993
 20
101.8499561837935943
 30
0.0
  0
VERTEX
  5
49E8
  8
0
 10
222.9555698289769055
 20
101.7670281363442939
 30
0.0
  0
VERTEX
  5
49E9
  8
0
 10
222.979670920701011
 20
101.6841544342803019
 30
0.0
  0
VERTEX
  5
49EA
  8
0
 10
223.0048608428226089
 20
101.601362695275995
 30
0.0
  0
VERTEX
  5
49EB
  8
0
 10
223.0311400352532019
 20
101.5186802118545017
 30
0.0
  0
VERTEX
  5
49EC
  8
0
 10
223.0585081404483958
 20
101.4361342304178066
 30
0.0
  0
VERTEX
  5
49ED
  8
0
 10
223.0726001978470947
 20
101.3949209461275984
 30
0.0
  0
VERTEX
  5
49EE
  8
0
 10
223.0869639755418916
 20
101.3537520061933037
 30
0.0
  0
VERTEX
  5
49EF
  8
0
 10
223.1165055360062865
 20
101.2715607564933009
 30
0.0
  0
VERTEX
  5
49F0
  8
0
 10
223.1471300021393915
 20
101.1895876136478023
 30
0.0
  0
VERTEX
  5
49F1
  8
0
 10
223.1788337480404891
 20
101.1078595787442964
 30
0.0
  0
VERTEX
  5
49F2
  8
0
 10
223.2116123531141056
 20
101.0264034760993042
 30
0.0
  0
VERTEX
  5
49F3
  8
0
 10
223.2454606161462038
 20
100.9452459083895945
 30
0.0
  0
VERTEX
  5
49F4
  8
0
 10
223.2627840346235928
 20
100.9047873169623983
 30
0.0
  0
VERTEX
  5
49F5
  8
0
 10
223.2803725720123111
 20
100.864413212386907
 30
0.0
  0
VERTEX
  5
49F6
  8
0
 10
223.3163415110863923
 20
100.7839314152432024
 30
0.0
  0
VERTEX
  5
49F7
  8
0
 10
223.3533600014247895
 20
100.7038261912858985
 30
0.0
  0
VERTEX
  5
49F8
  8
0
 10
223.3722603144308039
 20
100.6639227104807048
 30
0.0
  0
VERTEX
  5
49F9
  8
0
 10
223.3914199138137064
 20
100.6241228192945982
 30
0.0
  0
VERTEX
  5
49FA
  8
0
 10
223.4305124497720954
 20
100.5448461402375955
 30
0.0
  0
VERTEX
  5
49FB
  8
0
 10
223.4706281726130044
 20
100.4660205154606984
 30
0.0
  0
VERTEX
  5
49FC
  8
0
 10
223.4910667215359013
 20
100.4267841151506957
 30
0.0
  0
VERTEX
  5
49FD
  8
0
 10
223.5117587345295931
 20
100.3876666093674999
 30
0.0
  0
VERTEX
  5
49FE
  8
0
 10
223.5538991392369894
 20
100.3097977708759032
 30
0.0
  0
VERTEX
  5
49FF
  8
0
 10
223.5970388310327053
 20
100.2324368128649041
 30
0.0
  0
VERTEX
  5
4A00
  8
0
 10
223.6411660343248968
 20
100.1556071908377987
 30
0.0
  0
VERTEX
  5
4A01
  8
0
 10
223.686268167354001
 20
100.079332172550906
 30
0.0
  0
VERTEX
  5
4A02
  8
0
 10
223.7323318556032063
 20
100.0036347883171004
 30
0.0
  0
VERTEX
  5
4A03
  8
0
 10
223.7557198904989946
 20
99.9660098290862038
 30
0.0
  0
VERTEX
  5
4A04
  8
0
 10
223.7793429477347047
 20
99.9285377826326453
 30
0.0
  0
VERTEX
  5
4A05
  8
0
 10
223.8272865340773023
 20
99.8540635670811412
 30
0.0
  0
VERTEX
  5
4A06
  8
0
 10
223.8761469677124012
 20
99.780234174470877
 30
0.0
  0
VERTEX
  5
4A07
  8
0
 10
223.9259078882053018
 20
99.7070712141658646
 30
0.0
  0
VERTEX
  5
4A08
  8
0
 10
223.9765522480483924
 20
99.6345958285759821
 30
0.0
  0
VERTEX
  5
4A09
  8
0
 10
224.0280623418902906
 20
99.5628286507752023
 30
0.0
  0
VERTEX
  5
4A0A
  8
0
 10
224.0541363340985015
 20
99.5272169381796061
 30
0.0
  0
VERTEX
  5
4A0B
  8
0
 10
224.0804198386354074
 20
99.4917897632249861
 30
0.0
  0
VERTEX
  5
4A0C
  8
0
 10
224.13360581650889
 20
99.4214986575836548
 30
0.0
  0
VERTEX
  5
4A0D
  8
0
 10
224.1876008011973056
 20
99.3519741955918221
 30
0.0
  0
VERTEX
  5
4A0E
  8
0
 10
224.2148954443269133
 20
99.3175051687128843
 30
0.0
  0
SEQEND
  5
4A0F
  8
0
  0
POLYLINE
  5
43A8
  8
0
 66
     1
 10
0.0
 20
0.0
 30
0.0
  0
VERTEX
  5
4A10
  8
0
 10
235.1631555497405941
 20
99.3175051687128843
 30
0.0
  0
VERTEX
  5
4A11
  8
0
 10
235.190450192872504
 20
99.3519741955944369
 30
0.0
  0
VERTEX
  5
4A12
  8
0
 10
235.2444451775606922
 20
99.4214986575862554
 30
0.0
  0
VERTEX
  5
4A13
  8
0
 10
235.2976311554340896
 20
99.4917897632275867
 30
0.0
  0
VERTEX
  5
4A14
  8
0
 10
235.3239146599709954
 20
99.5272169381822209
 30
0.0
  0
VERTEX
  5
4A15
  8
0
 10
235.3499886521790074
 20
99.5628286507778171
 30
0.0
  0
VERTEX
  5
4A16
  8
0
 10
235.4014987460209056
 20
99.6345958285785969
 30
0.0
  0
VERTEX
  5
4A17
  8
0
 10
235.4521431058639962
 20
99.7070712141684936
 30
0.0
  0
VERTEX
  5
4A18
  8
0
 10
235.5019040263568968
 20
99.7802341744734917
 30
0.0
  0
VERTEX
  5
4A19
  8
0
 10
235.5507644599919956
 20
99.854063567083756
 30
0.0
  0
VERTEX
  5
4A1A
  8
0
 10
235.5987080463345933
 20
99.9285377826352601
 30
0.0
  0
VERTEX
  5
4A1B
  8
0
 10
235.6223311035703034
 20
99.9660098290888186
 30
0.0
  0
VERTEX
  5
4A1C
  8
0
 10
235.6457191384660916
 20
100.0036347883196015
 30
0.0
  0
VERTEX
  5
4A1D
  8
0
 10
235.691782826715297
 20
100.0793321725535066
 30
0.0
  0
VERTEX
  5
4A1E
  8
0
 10
235.7368849597442022
 20
100.1556071908403993
 30
0.0
  0
VERTEX
  5
4A1F
  8
0
 10
235.7810121630361095
 20
100.2324368128675047
 30
0.0
  0
VERTEX
  5
4A20
  8
0
 10
235.8241518548321096
 20
100.3097977708785038
 30
0.0
  0
VERTEX
  5
4A21
  8
0
 10
235.8662922595391933
 20
100.3876666093701004
 30
0.0
  0
VERTEX
  5
4A22
  8
0
 10
235.8869842725331978
 20
100.4267841151532963
 30
0.0
  0
VERTEX
  5
4A23
  8
0
 10
235.9074228214558104
 20
100.466020515463299
 30
0.0
  0
VERTEX
  5
4A24
  8
0
 10
235.9475385442968047
 20
100.5448461402400966
 30
0.0
  0
VERTEX
  5
4A25
  8
0
 10
235.9866310802551084
 20
100.6241228192970993
 30
0.0
  0
VERTEX
  5
4A26
  8
0
 10
236.0057906796380109
 20
100.6639227104832059
 30
0.0
  0
VERTEX
  5
4A27
  8
0
 10
236.0246909926441106
 20
100.7038261912883996
 30
0.0
  0
VERTEX
  5
4A28
  8
0
 10
236.0617094829823941
 20
100.7839314152456041
 30
0.0
  0
VERTEX
  5
4A29
  8
0
 10
236.09767842205639
 20
100.8644132123892945
 30
0.0
  0
VERTEX
  5
4A2A
  8
0
 10
236.1152669594451083
 20
100.9047873169648994
 30
0.0
  0
VERTEX
  5
4A2B
  8
0
 10
236.1325903779224973
 20
100.9452459083919962
 30
0.0
  0
VERTEX
  5
4A2C
  8
0
 10
236.1664386409545102
 20
101.0264034761017058
 30
0.0
  0
VERTEX
  5
4A2D
  8
0
 10
236.199217246028212
 20
101.107859578746698
 30
0.0
  0
VERTEX
  5
4A2E
  8
0
 10
236.2309209919291959
 20
101.1895876136502039
 30
0.0
  0
VERTEX
  5
4A2F
  8
0
 10
236.2615454580621019
 20
101.2715607564957025
 30
0.0
  0
VERTEX
  5
4A30
  8
0
 10
236.2910870185264969
 20
101.3537520061957053
 30
0.0
  0
VERTEX
  5
4A31
  8
0
 10
236.3054507962212938
 20
101.3949209461300001
 30
0.0
  0
VERTEX
  5
4A32
  8
0
 10
236.3195428536201064
 20
101.4361342304201941
 30
0.0
  0
VERTEX
  5
4A33
  8
0
 10
236.3469109588149877
 20
101.5186802118567044
 30
0.0
  0
VERTEX
  5
4A34
  8
0
 10
236.373190151245808
 20
101.6013626952782971
 30
0.0
  0
VERTEX
  5
4A35
  8
0
 10
236.3983800733672069
 20
101.6841544342824051
 30
0.0
  0
VERTEX
  5
4A36
  8
0
 10
236.4224811650913125
 20
101.7670281363465961
 30
0.0
  0
VERTEX
  5
4A37
  8
0
 10
236.4454945807262902
 20
101.8499561837956975
 30
0.0
  0
VERTEX
  5
4A38
  8
0
 10
236.4565939638630141
 20
101.8914318482867003
 30
0.0
  0
VERTEX
  5
4A39
  8
0
 10
236.4674221836723973
 20
101.9329105674553944
 30
0.0
  0
VERTEX
  5
4A3A
  8
0
 10
236.4882665736359115
 20
102.0158629303947038
 30
0.0
  0
VERTEX
  5
4A3B
  8
0
 10
236.508031111035308
 20
102.0987846130288972
 30
0.0
  0
VERTEX
  5
4A3C
  8
0
 10
236.5687702177893073
 20
102.3883495964692969
 30
0.0
  0
VERTEX
  5
4A3D
  8
0
 10
236.6430624052364067
 20
102.8794347785942023
 30
0.0
  0
VERTEX
  5
4A3E
  8
0
 10
236.6823254334910871
 20
103.3740949813968939
 30
0.0
  0
VERTEX
  5
4A3F
  8
0
 10
236.6888166518712922
 20
103.6262189258861071
 30
0.0
  0
VERTEX
  5
4A40
  8
0
 10
236.6861585395039924
 20
103.8806136995842024
 30
0.0
  0
VERTEX
  5
4A41
  8
0
 10
236.6712121997200029
 20
104.1793589751707998
 30
0.0
  0
VERTEX
  5
4A42
  8
0
 10
236.6645657798108004
 20
104.2649599298299989
 30
0.0
  0
VERTEX
  5
4A43
  8
0
 10
236.6568553632070859
 20
104.3506244613158032
 30
0.0
  0
VERTEX
  5
4A44
  8
0
 10
236.6526001334175078
 20
104.3934727975667016
 30
0.0
  0
VERTEX
  5
4A45
  8
0
 10
236.6480777681495056
 20
104.4363276924416937
 30
0.0
  0
VERTEX
  5
4A46
  8
0
 10
236.6382305411381992
 20
104.5220446733366941
 30
0.0
  0
VERTEX
  5
4A47
  8
0
 10
236.6273119577643058
 20
104.6077504220608034
 30
0.0
  0
VERTEX
  5
4A48
  8
0
 10
236.6153210214201863
 20
104.6934199645118042
 30
0.0
  0
VERTEX
  5
4A49
  8
0
 10
236.6022574599176096
 20
104.7790283737045058
 30
0.0
  0
VERTEX
  5
4A4A
  8
0
 10
236.5881217200278002
 20
104.8645508084988052
 30
0.0
  0
VERTEX
  5
4A4B
  8
0
 10
236.5806521175848047
 20
104.9072720555359979
 30
0.0
  0
VERTEX
  5
4A4C
  8
0
 10
236.5729149599551135
 20
104.9499625518525932
 30
0.0
  0
VERTEX
  5
4A4D
  8
0
 10
236.5566390397328007
 20
105.0352390486679042
 30
0.0
  0
VERTEX
  5
4A4E
  8
0
 10
236.5392965095327895
 20
105.1203559432977954
 30
0.0
  0
VERTEX
  5
4A4F
  8
0
 10
236.5208905958618004
 20
105.2052891167742956
 30
0.0
  0
VERTEX
  5
4A50
  8
0
 10
236.5014251856080136
 20
105.2900147238160997
 30
0.0
  0
VERTEX
  5
4A51
  8
0
 10
236.480904807896394
 20
105.3745092296661028
 30
0.0
  0
VERTEX
  5
4A52
  8
0
 10
236.4702505922363969
 20
105.4166625589784019
 30
0.0
  0
VERTEX
  5
4A53
  8
0
 10
236.4593342375293901
 20
105.4587508788232952
 30
0.0
  0
VERTEX
  5
4A54
  8
0
 10
236.4367164311798035
 20
105.5427267810725027
 30
0.0
  0
VERTEX
  5
4A55
  8
0
 10
236.4130568589806103
 20
105.6264159250998063
 30
0.0
  0
VERTEX
  5
4A56
  8
0
 10
236.3883621860564119
 20
105.7097953500370977
 30
0.0
  0
VERTEX
  5
4A57
  8
0
 10
236.3626397871817062
 20
105.7928421319745951
 30
0.0
  0
VERTEX
  5
4A58
  8
0
 10
236.335897744686207
 20
105.8755334242972026
 30
0.0
  0
VERTEX
  5
4A59
  8
0
 10
236.3221470753215101
 20
105.9167386531523931
 30
0.0
  0
VERTEX
  5
4A5A
  8
0
 10
236.3081448443923023
 20
105.9578464971610998
 30
0.0
  0
VERTEX
  5
4A5B
  8
0
 10
236.2793905695909871
 20
106.0397587761785019
 30
0.0
  0
VERTEX
  5
4A5C
  8
0
 10
236.2496450930572962
 20
106.1212478803773962
 30
0.0
  0
VERTEX
  5
4A5D
  8
0
 10
236.218919267091195
 20
106.2022916595053061
 30
0.0
  0
VERTEX
  5
4A5E
  8
0
 10
236.1872246115574967
 20
106.2828682307421957
 30
0.0
  0
VERTEX
  5
4A5F
  8
0
 10
236.1545732998930021
 20
106.3629560148901021
 30
0.0
  0
VERTEX
  5
4A60
  8
0
 10
236.1378928770093069
 20
106.4028099601291046
 30
0.0
  0
VERTEX
  5
4A61
  8
0
 10
236.1209781430308965
 20
106.4425337721016973
 30
0.0
  0
VERTEX
  5
4A62
  8
0
 10
236.08645257118431
 20
106.5215806372095955
 30
0.0
  0
VERTEX
  5
4A63
  8
0
 10
236.0510106134184127
 20
106.6000761547167031
 30
0.0
  0
VERTEX
  5
4A64
  8
0
 10
236.032950532104195
 20
106.6391108863427064
 30
0.0
  0
VERTEX
  5
4A65
  8
0
 10
235.9199635617929118
 20
106.8701829732864041
 30
0.0
  0
VERTEX
  5
4A66
  8
0
 10
235.6716711519092939
 20
107.3145654711779002
 30
0.0
  0
VERTEX
  5
4A67
  8
0
 10
235.3972239806120967
 20
107.7320153281789032
 30
0.0
  0
VERTEX
  5
4A68
  8
0
 10
235.2498144905518984
 20
107.9320701249133947
 30
0.0
  0
SEQEND
  5
4A69
  8
0
  0
POLYLINE
  5
43A9
  8
0
 66
     1
 10
0.0
 20
0.0
 30
0.0
  0
VERTEX
  5
4A6A
  8
0
 10
225.673366649620192
 20
83.9036697950913748
 30
0.0
  0
VERTEX
  5
4A6B
  8
0
 10
225.6476332755001124
 20
83.7326666782510642
 30
0.0
  0
VERTEX
  5
4A6C
  8
0
 10
225.6142141820483005
 20
83.3922542711997465
 30
0.0
  0
VERTEX
  5
4A6D
  8
0
 10
225.6041210204145955
 20
83.0566701074732805
 30
0.0
  0
VERTEX
  5
4A6E
  8
0
 10
225.6075124659062112
 20
82.889270239026871
 30
0.0
  0
SEQEND
  5
4A6F
  8
0
  0
POLYLINE
  5
43AA
  8
0
 66
     1
 10
0.0
 20
0.0
 30
0.0
  0
VERTEX
  5
4A70
  8
0
 10
224.2148954443269133
 20
99.3175051687128843
 30
0.0
  0
VERTEX
  5
4A71
  8
0
 10
224.3627926392823895
 20
98.9099515867600871
 30
0.0
  0
VERTEX
  5
4A72
  8
0
 10
224.6394509323465911
 20
98.0929565952831553
 30
0.0
  0
VERTEX
  5
4A73
  8
0
 10
224.8905375374561117
 20
97.2751051195302239
 30
0.0
  0
VERTEX
  5
4A74
  8
0
 10
225.0065026017871048
 20
96.8664989747656477
 30
0.0
  0
VERTEX
  5
4A75
  8
0
 10
225.1161063252422991
 20
96.4584555876072614
 30
0.0
  0
VERTEX
  5
4A76
  8
0
 10
225.3163591573969029
 20
95.645124112365977
 30
0.0
  0
VERTEX
  5
4A77
  8
0
 10
225.4917583019251026
 20
94.8367415827385116
 30
0.0
  0
VERTEX
  5
4A78
  8
0
 10
225.6458069696907955
 20
94.0180598665634051
 30
0.0
  0
VERTEX
  5
4A79
  8
0
 10
225.7789268717652078
 20
93.1825876326959701
 30
0.0
  0
VERTEX
  5
4A7A
  8
0
 10
225.8897589873434129
 20
92.3322880169485387
 30
0.0
  0
VERTEX
  5
4A7B
  8
0
 10
225.9364382166315863
 20
91.902203294519893
 30
0.0
  0
VERTEX
  5
4A7C
  8
0
 10
225.9771122502650087
 20
91.4691653124061048
 30
0.0
  0
VERTEX
  5
4A7D
  8
0
 10
226.0399677876179965
 20
90.5952416957762239
 30
0.0
  0
VERTEX
  5
4A7E
  8
0
 10
226.0774793145401134
 20
89.712539536775509
 30
0.0
  0
VERTEX
  5
4A7F
  8
0
 10
226.0889710041014951
 20
88.8231108151910007
 30
0.0
  0
VERTEX
  5
4A80
  8
0
 10
226.0739407319854024
 20
87.929050566522676
 30
0.0
  0
VERTEX
  5
4A81
  8
0
 10
226.0320642339266044
 20
87.0324730383447758
 30
0.0
  0
VERTEX
  5
4A82
  8
0
 10
226.0010061534979116
 20
86.5838996504512011
 30
0.0
  0
VERTEX
  5
4A83
  8
0
 10
225.9631951998698867
 20
86.1354805159050443
 30
0.0
  0
VERTEX
  5
4A84
  8
0
 10
225.8673358868321088
 20
85.2399297040254282
 30
0.0
  0
VERTEX
  5
4A85
  8
0
 10
225.7446571903867891
 20
84.3477962218980224
 30
0.0
  0
VERTEX
  5
4A86
  8
0
 10
225.673366649620192
 20
83.9036697950913748
 30
0.0
  0
SEQEND
  5
4A87
  8
0
  0
POLYLINE
  5
43AB
  8
0
 66
     1
 10
0.0
 20
0.0
 30
0.0
  0
VERTEX
  5
4A88
  8
0
 10
227.1161088641053993
 20
110.190290994999998
 30
0.0
  0
VERTEX
  5
4A89
  8
0
 10
227.115904446152598
 20
110.1902102001448043
 30
0.0
  0
VERTEX
  5
4A8A
  8
0
 10
227.1142940412329949
 20
110.1895734385961987
 30
0.0
  0
VERTEX
  5
4A8B
  8
0
 10
227.1111361039976941
 20
110.1883234378563969
 30
0.0
  0
VERTEX
  5
4A8C
  8
0
 10
227.108996830103905
 20
110.1874756456627011
 30
0.0
  0
VERTEX
  5
4A8D
  8
0
 10
227.1064944346173888
 20
110.1864829159054011
 30
0.0
  0
VERTEX
  5
4A8E
  8
0
 10
227.1004306774377994
 20
110.1840727302645035
 30
0.0
  0
VERTEX
  5
4A8F
  8
0
 10
227.0930041672525022
 20
110.1811119627948017
 30
0.0
  0
VERTEX
  5
4A90
  8
0
 10
227.0842718953541066
 20
110.177618035755799
 30
0.0
  0
VERTEX
  5
4A91
  8
0
 10
227.074288575792508
 20
110.1736068530726982
 30
0.0
  0
VERTEX
  5
4A92
  8
0
 10
227.063106785105191
 20
110.1690929582551064
 30
0.0
  0
VERTEX
  5
4A93
  8
0
 10
227.0570823315501912
 20
110.166651698326902
 30
0.0
  0
VERTEX
  5
4A94
  8
0
 10
227.0507770154092952
 20
110.1640896461924939
 30
0.0
  0
VERTEX
  5
4A95
  8
0
 10
227.0373473999013925
 20
110.1586089301733011
 30
0.0
  0
VERTEX
  5
4A96
  8
0
 10
227.0228636388210077
 20
110.1526615766193942
 30
0.0
  0
VERTEX
  5
4A97
  8
0
 10
227.0073691048976059
 20
110.1462572023441027
 30
0.0
  0
VERTEX
  5
4A98
  8
0
 10
226.9909050032331095
 20
110.139404386242802
 30
0.0
  0
VERTEX
  5
4A99
  8
0
 10
226.9735105635367916
 20
110.132110788357096
 30
0.0
  0
VERTEX
  5
4A9A
  8
0
 10
226.9644762368872932
 20
110.1283008685219045
 30
0.0
  0
VERTEX
  5
4A9B
  8
0
 10
226.9552232468570026
 20
110.1243832706372956
 30
0.0
  0
VERTEX
  5
4A9C
  8
0
 10
226.9360792464495091
 20
110.1162281405439956
 30
0.0
  0
VERTEX
  5
4A9D
  8
0
 10
226.9161165128435016
 20
110.1076524882874992
 30
0.0
  0
VERTEX
  5
4A9E
  8
0
 10
226.905839239054302
 20
110.1032088874686963
 30
0.0
  0
VERTEX
  5
4A9F
  8
0
 10
226.8953702800255883
 20
110.0986623249001042
 30
0.0
  0
VERTEX
  5
4AA0
  8
0
 10
226.8738734465138975
 20
110.0892627481326969
 30
0.0
  0
VERTEX
  5
4AA1
  8
0
 10
226.8516573215644883
 20
110.0794582718285994
 30
0.0
  0
VERTEX
  5
4AA2
  8
0
 10
226.8402889043969139
 20
110.0744054626781008
 30
0.0
  0
VERTEX
  5
4AA3
  8
0
 10
226.8287517476431105
 20
110.0692528886526986
 30
0.0
  0
VERTEX
  5
4AA4
  8
0
 10
226.8051852276585123
 20
110.0586501335816934
 30
0.0
  0
VERTEX
  5
4AA5
  8
0
 10
226.7809850518256098
 20
110.047653146553202
 30
0.0
  0
VERTEX
  5
4AA6
  8
0
 10
226.7561774203026914
 20
110.0362647330526045
 30
0.0
  0
VERTEX
  5
4AA7
  8
0
 10
226.7307875588417119
 20
110.0244874217383995
 30
0.0
  0
VERTEX
  5
4AA8
  8
0
 10
226.7048398256000041
 20
110.0123235184800023
 30
0.0
  0
VERTEX
  5
4AA9
  8
0
 10
226.6916641558005097
 20
110.006097266937104
 30
0.0
  0
VERTEX
  5
4AAA
  8
0
 10
226.6783578079856056
 20
109.9997751563949038
 30
0.0
  0
VERTEX
  5
4AAB
  8
0
 10
226.6513644089787078
 20
109.9868443416478954
 30
0.0
  0
VERTEX
  5
4AAC
  8
0
 10
226.6238819227999102
 20
109.9735329949022002
 30
0.0
  0
VERTEX
  5
4AAD
  8
0
 10
226.5241568048793113
 20
109.9239762978815946
 30
0.0
  0
VERTEX
  5
4AAE
  8
0
 10
226.3429027662153032
 20
109.8287430498101003
 30
0.0
  0
VERTEX
  5
4AAF
  8
0
 10
226.1526095997299137
 20
109.7212977489520966
 30
0.0
  0
VERTEX
  5
4AB0
  8
0
 10
225.9573118206484992
 20
109.6026480458268964
 30
0.0
  0
VERTEX
  5
4AB1
  8
0
 10
225.8589427917744956
 20
109.5395116318146052
 30
0.0
  0
VERTEX
  5
4AB2
  8
0
 10
225.7606702750439922
 20
109.4740829527653005
 30
0.0
  0
VERTEX
  5
4AB3
  8
0
 10
225.5660418602313086
 20
109.3372341563425039
 30
0.0
  0
VERTEX
  5
4AB4
  8
0
 10
225.3733704102837976
 20
109.191653909217095
 30
0.0
  0
VERTEX
  5
4AB5
  8
0
 10
225.1776512190313042
 20
109.0326271320319051
 30
0.0
  0
VERTEX
  5
4AB6
  8
0
 10
224.9806365975557867
 20
108.8601629983676986
 30
0.0
  0
VERTEX
  5
4AB7
  8
0
 10
224.7843010084679918
 20
108.6746555883455017
 30
0.0
  0
VERTEX
  5
4AB8
  8
0
 10
224.6869734802839957
 20
108.5771752719386996
 30
0.0
  0
VERTEX
  5
4AB9
  8
0
 10
224.5905058025068968
 20
108.4766538799911046
 30
0.0
  0
VERTEX
  5
4ABA
  8
0
 10
224.4010056167929008
 20
108.2668851285783944
 30
0.0
  0
VERTEX
  5
4ABB
  8
0
 10
224.2173960652810081
 20
108.046212588613102
 30
0.0
  0
VERTEX
  5
4ABC
  8
0
 10
224.128236503515609
 20
107.9320701249133947
 30
0.0
  0
SEQEND
  5
4ABD
  8
0
  0
LINE
  5
43AC
  8
0
 10
227.1161088641053993
 20
110.190290994999998
 30
0.0
 11
232.2619421299623923
 21
110.190290994999998
 31
0.0
  0
POLYLINE
  5
43AD
  8
0
 66
     1
 10
0.0
 20
0.0
 30
0.0
  0
VERTEX
  5
4ABE
  8
0
 10
235.2498144905518984
 20
107.9320701249133947
 30
0.0
  0
VERTEX
  5
4ABF
  8
0
 10
235.1606549287864993
 20
108.046212588613102
 30
0.0
  0
VERTEX
  5
4AC0
  8
0
 10
234.9770453772748908
 20
108.2668851285783944
 30
0.0
  0
VERTEX
  5
4AC1
  8
0
 10
234.7875451915608949
 20
108.4766538799911046
 30
0.0
  0
VERTEX
  5
4AC2
  8
0
 10
234.6910775137835117
 20
108.5771752719386996
 30
0.0
  0
VERTEX
  5
4AC3
  8
0
 10
234.5937499855994872
 20
108.6746555883455017
 30
0.0
  0
VERTEX
  5
4AC4
  8
0
 10
234.3974143965116923
 20
108.8601629983676986
 30
0.0
  0
VERTEX
  5
4AC5
  8
0
 10
234.2003997750362032
 20
109.0326271320319051
 30
0.0
  0
VERTEX
  5
4AC6
  8
0
 10
234.0046805837839941
 20
109.191653909217095
 30
0.0
  0
VERTEX
  5
4AC7
  8
0
 10
233.8120091338361988
 20
109.3372341563425039
 30
0.0
  0
VERTEX
  5
4AC8
  8
0
 10
233.6173807190234868
 20
109.4740829527653005
 30
0.0
  0
VERTEX
  5
4AC9
  8
0
 10
233.5191082022930118
 20
109.5395116318146052
 30
0.0
  0
VERTEX
  5
4ACA
  8
0
 10
233.4207391734192072
 20
109.6026480458268964
 30
0.0
  0
VERTEX
  5
4ACB
  8
0
 10
233.2254413943377926
 20
109.7212977489520966
 30
0.0
  0
VERTEX
  5
4ACC
  8
0
 10
233.0351482278524031
 20
109.8287430498101003
 30
0.0
  0
VERTEX
  5
4ACD
  8
0
 10
232.8538941891881962
 20
109.9239762978815946
 30
0.0
  0
VERTEX
  5
4ACE
  8
0
 10
232.7541690712675972
 20
109.9735329949022002
 30
0.0
  0
VERTEX
  5
4ACF
  8
0
 10
232.7266865850891122
 20
109.9868443416478954
 30
0.0
  0
VERTEX
  5
4AD0
  8
0
 10
232.6996931860819018
 20
109.9997751563949038
 30
0.0
  0
VERTEX
  5
4AD1
  8
0
 10
232.6863868382673104
 20
110.006097266937104
 30
0.0
  0
VERTEX
  5
4AD2
  8
0
 10
232.6732111684675033
 20
110.0123235184800023
 30
0.0
  0
VERTEX
  5
4AD3
  8
0
 10
232.6472634352257955
 20
110.0244874217383995
 30
0.0
  0
VERTEX
  5
4AD4
  8
0
 10
232.6218735737649865
 20
110.0362647330526045
 30
0.0
  0
VERTEX
  5
4AD5
  8
0
 10
232.5970659422420965
 20
110.047653146553202
 30
0.0
  0
VERTEX
  5
4AD6
  8
0
 10
232.5728657664091941
 20
110.0586501335816934
 30
0.0
  0
VERTEX
  5
4AD7
  8
0
 10
232.5492992464243969
 20
110.0692528886526986
 30
0.0
  0
VERTEX
  5
4AD8
  8
0
 10
232.5377620896705935
 20
110.0744054626781008
 30
0.0
  0
VERTEX
  5
4AD9
  8
0
 10
232.5263936725029907
 20
110.0794582718285994
 30
0.0
  0
VERTEX
  5
4ADA
  8
0
 10
232.5041775475538088
 20
110.0892627481326969
 30
0.0
  0
VERTEX
  5
4ADB
  8
0
 10
232.4826807140420897
 20
110.0986623249001042
 30
0.0
  0
VERTEX
  5
4ADC
  8
0
 10
232.4722117550132054
 20
110.1032088874686963
 30
0.0
  0
VERTEX
  5
4ADD
  8
0
 10
232.4619344812242048
 20
110.1076524882874992
 30
0.0
  0
VERTEX
  5
4ADE
  8
0
 10
232.4419717476183109
 20
110.1162281405439956
 30
0.0
  0
VERTEX
  5
4ADF
  8
0
 10
232.4228277472105049
 20
110.1243832706372956
 30
0.0
  0
VERTEX
  5
4AE0
  8
0
 10
232.4135747571802142
 20
110.1283008685219045
 30
0.0
  0
VERTEX
  5
4AE1
  8
0
 10
232.4045404305308864
 20
110.132110788357096
 30
0.0
  0
VERTEX
  5
4AE2
  8
0
 10
232.3871459908345969
 20
110.139404386242802
 30
0.0
  0
VERTEX
  5
4AE3
  8
0
 10
232.3706818891699015
 20
110.1462572023441027
 30
0.0
  0
VERTEX
  5
4AE4
  8
0
 10
232.3551873552464997
 20
110.1526615766193942
 30
0.0
  0
VERTEX
  5
4AE5
  8
0
 10
232.3407035941662002
 20
110.1586089301733011
 30
0.0
  0
VERTEX
  5
4AE6
  8
0
 10
232.3272739786582122
 20
110.1640896461924939
 30
0.0
  0
VERTEX
  5
4AE7
  8
0
 10
232.3209686625176005
 20
110.166651698326902
 30
0.0
  0
VERTEX
  5
4AE8
  8
0
 10
232.314944208962487
 20
110.1690929582551064
 30
0.0
  0
VERTEX
  5
4AE9
  8
0
 10
232.3037624182749994
 20
110.1736068530726982
 30
0.0
  0
VERTEX
  5
4AEA
  8
0
 10
232.2937790987134008
 20
110.177618035755799
 30
0.0
  0
VERTEX
  5
4AEB
  8
0
 10
232.2850468268152895
 20
110.1811119627948017
 30
0.0
  0
VERTEX
  5
4AEC
  8
0
 10
232.2776203166299069
 20
110.1840727302645035
 30
0.0
  0
VERTEX
  5
4AED
  8
0
 10
232.2715565594500902
 20
110.1864829159054011
 30
0.0
  0
VERTEX
  5
4AEE
  8
0
 10
232.2690541639638013
 20
110.1874756456627011
 30
0.0
  0
VERTEX
  5
4AEF
  8
0
 10
232.2669148900696996
 20
110.1883234378563969
 30
0.0
  0
VERTEX
  5
4AF0
  8
0
 10
232.2637569528345125
 20
110.1895734385961987
 30
0.0
  0
VERTEX
  5
4AF1
  8
0
 10
232.2621465479149094
 20
110.1902102001448043
 30
0.0
  0
VERTEX
  5
4AF2
  8
0
 10
232.2619421299623923
 20
110.190290994999998
 30
0.0
  0
SEQEND
  5
4AF3
  8
0
  0
POLYLINE
  5
43AE
  8
0
 66
     1
 10
0.0
 20
0.0
 30
0.0
  0
VERTEX
  5
4AF4
  8
0
 10
228.7103576957563007
 20
107.9320701249133947
 30
0.0
  0
VERTEX
  5
4AF5
  8
0
 10
228.7648212468311897
 20
107.9438382643381971
 30
0.0
  0
VERTEX
  5
4AF6
  8
0
 10
228.8739554492260879
 20
107.9653001803746974
 30
0.0
  0
VERTEX
  5
4AF7
  8
0
 10
228.9832633503760917
 20
107.9840002036074935
 30
0.0
  0
VERTEX
  5
4AF8
  8
0
 10
229.0379433909704119
 20
107.9923173294131971
 30
0.0
  0
VERTEX
  5
4AF9
  8
0
 10
229.0926194174867021
 20
107.9999480830039005
 30
0.0
  0
VERTEX
  5
4AFA
  8
0
 10
229.2018938127289118
 20
108.0131594615903055
 30
0.0
  0
VERTEX
  5
4AFB
  8
0
 10
229.3109535886663082
 20
108.0236564664827057
 30
0.0
  0
VERTEX
  5
4AFC
  8
0
 10
229.419663943497909
 20
108.0314681452179002
 30
0.0
  0
VERTEX
  5
4AFD
  8
0
 10
229.5278895476124035
 20
108.0366307460104025
 30
0.0
  0
VERTEX
  5
4AFE
  8
0
 10
229.6354959360716919
 20
108.0391878357298054
 30
0.0
  0
VERTEX
  5
4AFF
  8
0
 10
229.6890254970338106
 20
108.0395049208591018
 30
0.0
  0
VERTEX
  5
4B00
  8
0
 10
229.7425550579957871
 20
108.0391878357298054
 30
0.0
  0
VERTEX
  5
4B01
  8
0
 10
229.8501614464553029
 20
108.0366307460104025
 30
0.0
  0
VERTEX
  5
4B02
  8
0
 10
229.9583870505695984
 20
108.0314681452179002
 30
0.0
  0
VERTEX
  5
4B03
  8
0
 10
230.0670974054011992
 20
108.0236564664827057
 30
0.0
  0
VERTEX
  5
4B04
  8
0
 10
230.1761571813385956
 20
108.0131594615903055
 30
0.0
  0
VERTEX
  5
4B05
  8
0
 10
230.2854315765808053
 20
107.9999480830039005
 30
0.0
  0
VERTEX
  5
4B06
  8
0
 10
230.3401076030972945
 20
107.9923173294131971
 30
0.0
  0
VERTEX
  5
4B07
  8
0
 10
230.3947876436913873
 20
107.9840002036074935
 30
0.0
  0
VERTEX
  5
4B08
  8
0
 10
230.5040955448417037
 20
107.9653001803746974
 30
0.0
  0
VERTEX
  5
4B09
  8
0
 10
230.6132297472362893
 20
107.9438382643381971
 30
0.0
  0
VERTEX
  5
4B0A
  8
0
 10
230.6676932983112067
 20
107.9320701249133947
 30
0.0
  0
SEQEND
  5
4B0B
  8
0
  0
POLYLINE
  5
43AF
  8
0
 66
     1
 10
0.0
 20
0.0
 30
0.0
  0
VERTEX
  5
4B0C
  8
0
 10
230.6676932983112067
 20
107.9320701249133947
 30
0.0
  0
VERTEX
  5
4B0D
  8
0
 10
230.7902308182823958
 20
107.9029898943136061
 30
0.0
  0
VERTEX
  5
4B0E
  8
0
 10
231.0332411375304957
 20
107.8344177737943994
 30
0.0
  0
VERTEX
  5
4B0F
  8
0
 10
231.2722914571903061
 20
107.7522329460117021
 30
0.0
  0
VERTEX
  5
4B10
  8
0
 10
231.3898953098592131
 20
107.7061801364158953
 30
0.0
  0
VERTEX
  5
4B11
  8
0
 10
231.506034333062388
 20
107.6569026244742986
 30
0.0
  0
VERTEX
  5
4B12
  8
0
 10
231.7333577508863982
 20
107.5489819812663939
 30
0.0
  0
VERTEX
  5
4B13
  8
0
 10
231.9530551936518918
 20
107.4292480829487033
 30
0.0
  0
VERTEX
  5
4B14
  8
0
 10
232.1639860448250943
 20
107.2986571728864931
 30
0.0
  0
VERTEX
  5
4B15
  8
0
 10
232.3651394165615045
 20
107.1583112500835
 30
0.0
  0
VERTEX
  5
4B16
  8
0
 10
232.5556143215968063
 20
107.0094682549677003
 30
0.0
  0
VERTEX
  5
4B17
  8
0
 10
232.646593784380002
 20
106.9322993789292013
 30
0.0
  0
VERTEX
  5
4B18
  8
0
 10
232.734616385567989
 20
106.8535515960688969
 30
0.0
  0
VERTEX
  5
4B19
  8
0
 10
232.9027140227518089
 20
106.6908841662896066
 30
0.0
  0
VERTEX
  5
4B1A
  8
0
 10
233.0638003693914015
 20
106.5177979619946029
 30
0.0
  0
VERTEX
  5
4B1B
  8
0
 10
233.2171508721274051
 20
106.3344797135211053
 30
0.0
  0
VERTEX
  5
4B1C
  8
0
 10
233.3616642938108896
 20
106.1416840484327935
 30
0.0
  0
VERTEX
  5
4B1D
  8
0
 10
233.4963814970737985
 20
105.9402396548790932
 30
0.0
  0
VERTEX
  5
4B1E
  8
0
 10
233.5598023109783128
 20
105.8365540830734943
 30
0.0
  0
VERTEX
  5
4B1F
  8
0
 10
233.620471171988811
 20
105.7310544376568942
 30
0.0
  0
VERTEX
  5
4B20
  8
0
 10
233.7332200056625879
 20
105.5151274191394037
 30
0.0
  0
VERTEX
  5
4B21
  8
0
 10
233.8340518047436944
 20
105.2935128893449956
 30
0.0
  0
VERTEX
  5
4B22
  8
0
 10
233.8798716992930053
 20
105.1808748904158932
 30
0.0
  0
VERTEX
  5
4B23
  8
0
 10
233.922569578412606
 20
105.0671913291764952
 30
0.0
  0
VERTEX
  5
4B24
  8
0
 10
233.9984536175718119
 20
104.8372784629053029
 30
0.0
  0
VERTEX
  5
4B25
  8
0
 10
234.0614991094890058
 20
104.604988197541303
 30
0.0
  0
VERTEX
  5
4B26
  8
0
 10
234.0881831359228897
 20
104.4883394230276963
 30
0.0
  0
VERTEX
  5
4B27
  8
0
 10
234.1116471154273029
 20
104.3715629415580963
 30
0.0
  0
VERTEX
  5
4B28
  8
0
 10
234.148985753167608
 20
104.1382670489934981
 30
0.0
  0
VERTEX
  5
4B29
  8
0
 10
234.1737494938174962
 20
103.9064130459945972
 30
0.0
  0
VERTEX
  5
4B2A
  8
0
 10
234.1863304784316995
 20
103.6773394424401005
 30
0.0
  0
VERTEX
  5
4B2B
  8
0
 10
234.1871876162963133
 20
103.4478317119849038
 30
0.0
  0
VERTEX
  5
4B2C
  8
0
 10
234.1760370698341944
 20
103.2148510381301065
 30
0.0
  0
VERTEX
  5
4B2D
  8
0
 10
234.1658050344711057
 20
103.0974561846848019
 30
0.0
  0
VERTEX
  5
4B2E
  8
0
 10
234.1524056312732966
 20
102.9796704862719992
 30
0.0
  0
VERTEX
  5
4B2F
  8
0
 10
234.1159713812735106
 20
102.7435524873432939
 30
0.0
  0
VERTEX
  5
4B30
  8
0
 10
234.066554465570988
 20
102.5077246135372064
 30
0.0
  0
VERTEX
  5
4B31
  8
0
 10
234.0041164820831909
 20
102.2734043253406071
 30
0.0
  0
VERTEX
  5
4B32
  8
0
 10
233.9287618424604887
 20
102.041798058570194
 30
0.0
  0
VERTEX
  5
4B33
  8
0
 10
233.8407202464929924
 20
101.8140479862725982
 30
0.0
  0
VERTEX
  5
4B34
  8
0
 10
233.7920280507439088
 20
101.7019192306412947
 30
0.0
  0
VERTEX
  5
4B35
  8
0
 10
233.7402883920030945
 20
101.5911295532108056
 30
0.0
  0
VERTEX
  5
4B36
  8
0
 10
233.6279289269918991
 20
101.3741064496362014
 30
0.0
  0
VERTEX
  5
4B37
  8
0
 10
233.5042497192162045
 20
101.1640220351274024
 30
0.0
  0
VERTEX
  5
4B38
  8
0
 10
233.3699804407847012
 20
100.9618418700823952
 30
0.0
  0
VERTEX
  5
4B39
  8
0
 10
233.2259705572238886
 20
100.7684506487923954
 30
0.0
  0
VERTEX
  5
4B3A
  8
0
 10
233.0732104060842005
 20
100.5846726441701975
 30
0.0
  0
VERTEX
  5
4B3B
  8
0
 10
232.9938953247456084
 20
100.4966232765983989
 30
0.0
  0
VERTEX
  5
4B3C
  8
0
 10
232.9128229476297918
 20
100.4112448079360007
 30
0.0
  0
VERTEX
  5
4B3D
  8
0
 10
232.7432375799625959
 20
100.2461934583788974
 30
0.0
  0
VERTEX
  5
4B3E
  8
0
 10
232.5618875830706997
 20
100.0875405930943032
 30
0.0
  0
VERTEX
  5
4B3F
  8
0
 10
232.3694410836465067
 20
99.9367059558745154
 30
0.0
  0
VERTEX
  5
4B40
  8
0
 10
232.1666957485917919
 20
99.7949752772470333
 30
0.0
  0
VERTEX
  5
4B41
  8
0
 10
231.9545410024767875
 20
99.6634783003397047
 30
0.0
  0
VERTEX
  5
4B42
  8
0
 10
231.8452451785971959
 20
99.6018842077505155
 30
0.0
  0
VERTEX
  5
4B43
  8
0
 10
231.7339845480694009
 20
99.5432120665502254
 30
0.0
  0
VERTEX
  5
4B44
  8
0
 10
231.5061453701308096
 20
99.435032853514997
 30
0.0
  0
VERTEX
  5
4B45
  8
0
 10
231.2721483834914125
 20
99.3396105773433078
 30
0.0
  0
VERTEX
  5
4B46
  8
0
 10
231.0330691785881925
 20
99.2574351413601903
 30
0.0
  0
VERTEX
  5
4B47
  8
0
 10
230.7902235132287103
 20
99.1889229550370857
 30
0.0
  0
VERTEX
  5
4B48
  8
0
 10
230.544996569397199
 20
99.1343256797016039
 30
0.0
  0
VERTEX
  5
4B49
  8
0
 10
230.4219277057898125
 20
99.1122745051631568
 30
0.0
  0
VERTEX
  5
4B4A
  8
0
 10
230.2987918509558938
 20
99.0937153564926234
 30
0.0
  0
VERTEX
  5
4B4B
  8
0
 10
230.0530568851667965
 20
99.0669894455210738
 30
0.0
  0
VERTEX
  5
4B4C
  8
0
 10
229.8092935684171039
 20
99.0538630541920639
 30
0.0
  0
VERTEX
  5
4B4D
  8
0
 10
229.6886230322157019
 20
99.0522574216450238
 30
0.0
  0
VERTEX
  5
4B4E
  8
0
 10
229.5679460623501029
 20
99.0538847955754704
 30
0.0
  0
VERTEX
  5
4B4F
  8
0
 10
229.3241736170928107
 20
99.0670560394232211
 30
0.0
  0
VERTEX
  5
4B50
  8
0
 10
229.0784345892244005
 20
99.093828078836566
 30
0.0
  0
VERTEX
  5
4B51
  8
0
 10
228.9552985777177128
 20
99.112410568570624
 30
0.0
  0
VERTEX
  5
4B52
  8
0
 10
228.8322307702696889
 20
99.1344851681702153
 30
0.0
  0
VERTEX
  5
4B53
  8
0
 10
228.5870094644579069
 20
99.1891292631258352
 30
0.0
  0
VERTEX
  5
4B54
  8
0
 10
228.3441741208469011
 20
99.2576877249859422
 30
0.0
  0
VERTEX
  5
4B55
  8
0
 10
228.1051098020168979
 20
99.3399083000135192
 30
0.0
  0
VERTEX
  5
4B56
  8
0
 10
227.8711317707756905
 20
99.4353741439530836
 30
0.0
  0
VERTEX
  5
4B57
  8
0
 10
227.6433150269002113
 20
99.5435950867434229
 30
0.0
  0
VERTEX
  5
4B58
  8
0
 10
227.5320670857736047
 20
99.6022871502466955
 30
0.0
  0
VERTEX
  5
4B59
  8
0
 10
227.422784892023202
 20
99.6639004459544253
 30
0.0
  0
VERTEX
  5
4B5A
  8
0
 10
227.2106600479087035
 20
99.7954334290295151
 30
0.0
  0
VERTEX
  5
4B5B
  8
0
 10
227.0079477714421046
 20
99.9371965634040151
 30
0.0
  0
VERTEX
  5
4B5C
  8
0
 10
226.8155371577776975
 20
100.0880596155331972
 30
0.0
  0
VERTEX
  5
4B5D
  8
0
 10
226.6342255362783078
 20
100.2467363357976069
 30
0.0
  0
VERTEX
  5
4B5E
  8
0
 10
226.464679542016512
 20
100.4118076015678014
 30
0.0
  0
VERTEX
  5
4B5F
  8
0
 10
226.3836184181955105
 20
100.4972042117227033
 30
0.0
  0
VERTEX
  5
4B60
  8
0
 10
226.3043156238099982
 20
100.5852712028135016
 30
0.0
  0
VERTEX
  5
4B61
  8
0
 10
226.151582970526988
 20
100.7690826896186991
 30
0.0
  0
VERTEX
  5
4B62
  8
0
 10
226.0076041336124035
 20
100.9625047579284001
 30
0.0
  0
VERTEX
  5
4B63
  8
0
 10
225.8733689768831141
 20
101.1647129042576978
 30
0.0
  0
VERTEX
  5
4B64
  8
0
 10
225.7497265228186905
 20
101.3748222183245957
 30
0.0
  0
VERTEX
  5
4B65
  8
0
 10
225.6374060603920952
 20
101.5918668406082048
 30
0.0
  0
VERTEX
  5
4B66
  8
0
 10
225.5856866116704964
 20
101.7026659399940058
 30
0.0
  0
VERTEX
  5
4B67
  8
0
 10
225.5370150209670896
 20
101.8148032032929962
 30
0.0
  0
VERTEX
  5
4B68
  8
0
 10
225.4490154721742954
 20
102.0425678414656971
 30
0.0
  0
VERTEX
  5
4B69
  8
0
 10
225.3737037619179944
 20
102.274185171371002
 30
0.0
  0
VERTEX
  5
4B6A
  8
0
 10
225.3113092883889124
 20
102.508512536613793
 30
0.0
  0
VERTEX
  5
4B6B
  8
0
 10
225.2619359948066915
 20
102.7443434117068932
 30
0.0
  0
VERTEX
  5
4B6C
  8
0
 10
225.2255449972005863
 20
102.9804603377630059
 30
0.0
  0
VERTEX
  5
4B6D
  8
0
 10
225.2121669365583045
 20
103.0982439438789982
 30
0.0
  0
VERTEX
  5
4B6E
  8
0
 10
225.2019559750480937
 20
103.2156356449890069
 30
0.0
  0
VERTEX
  5
4B6F
  8
0
 10
225.1908465167846032
 20
103.4486068090493944
 30
0.0
  0
VERTEX
  5
4B70
  8
0
 10
225.1917428983352067
 20
103.6781007878043965
 30
0.0
  0
VERTEX
  5
4B71
  8
0
 10
225.2043594082985862
 20
103.9071307883262989
 30
0.0
  0
VERTEX
  5
4B72
  8
0
 10
225.2291420911323883
 20
104.1388438889570978
 30
0.0
  0
VERTEX
  5
4B73
  8
0
 10
225.2664724034690948
 20
104.3719289804876951
 30
0.0
  0
VERTEX
  5
4B74
  8
0
 10
225.289919994858991
 20
104.4885821448647931
 30
0.0
  0
VERTEX
  5
4B75
  8
0
 10
225.3165789907168062
 20
104.6050998197823958
 30
0.0
  0
VERTEX
  5
4B76
  8
0
 10
225.3795491255010859
 20
104.8371178348562012
 30
0.0
  0
VERTEX
  5
4B77
  8
0
 10
225.4553285819233963
 20
105.0667669983509001
 30
0.0
  0
VERTEX
  5
4B78
  8
0
 10
225.4979660090920959
 20
105.1803294296219065
 30
0.0
  0
VERTEX
  5
4B79
  8
0
 10
225.5437220228969011
 20
105.2928569727098989
 30
0.0
  0
VERTEX
  5
4B7A
  8
0
 10
225.6444179219328987
 20
105.5142809607923056
 30
0.0
  0
VERTEX
  5
4B7B
  8
0
 10
225.7570401671725904
 20
105.7300856025663052
 30
0.0
  0
VERTEX
  5
4B7C
  8
0
 10
225.8176582343280927
 20
105.8355584771530999
 30
0.0
  0
VERTEX
  5
4B7D
  8
0
 10
225.8810413207013141
 20
105.9392429050538027
 30
0.0
  0
VERTEX
  5
4B7E
  8
0
 10
226.0157375203530137
 20
106.1407675466282967
 30
0.0
  0
VERTEX
  5
4B7F
  8
0
 10
226.1603304906467997
 20
106.3337606090105965
 30
0.0
  0
VERTEX
  5
4B80
  8
0
 10
226.3139037012624897
 20
106.517404915306102
 30
0.0
  0
VERTEX
  5
4B81
  8
0
 10
226.4754035186589931
 20
106.6909520018857052
 30
0.0
  0
VERTEX
  5
4B82
  8
0
 10
226.6437450023300073
 20
106.8538366826984998
 30
0.0
  0
VERTEX
  5
4B83
  8
0
 10
226.7314349124212072
 20
106.9322799519676011
 30
0.0
  0
VERTEX
  5
4B84
  8
0
 10
226.8221254586837858
 20
107.0092112776001017
 30
0.0
  0
VERTEX
  5
4B85
  8
0
 10
227.0121543612401922
 20
107.1577515196424031
 30
0.0
  0
VERTEX
  5
4B86
  8
0
 10
227.2130312487389006
 20
107.2979768724417937
 30
0.0
  0
VERTEX
  5
4B87
  8
0
 10
227.4238395095509873
 20
107.4285753369984064
 30
0.0
  0
VERTEX
  5
4B88
  8
0
 10
227.643555440116188
 20
107.5484021021404004
 30
0.0
  0
VERTEX
  5
4B89
  8
0
 10
227.8710211023364991
 20
107.6564635070909048
 30
0.0
  0
VERTEX
  5
4B8A
  8
0
 10
227.9872696641191112
 20
107.7058186542015932
 30
0.0
  0
VERTEX
  5
4B8B
  8
0
 10
228.104993240051698
 20
107.7519451196117046
 30
0.0
  0
VERTEX
  5
4B8C
  8
0
 10
228.3443249230302001
 20
107.8342661056765053
 30
0.0
  0
VERTEX
  5
4B8D
  8
0
 10
228.587655660197214
 20
107.9029484105178938
 30
0.0
  0
VERTEX
  5
4B8E
  8
0
 10
228.7103576957563007
 20
107.9320701249133947
 30
0.0
  0
SEQEND
  5
4B8F
  8
0
  0
CIRCLE
  5
43B0
  8
0
 10
229.6890254970338106
 20
103.6802909949999929
 30
0.0
 40
4.2999999999999989
  0
ARC
  5
43B1
  8
0
 10
229.6890254970338106
 20
105.4802909949999048
 30
0.0
 40
0.4500000000000003
 50
13.3417559035424595
 51
166.6582417727788084
  0
ARC
  5
43B2
  8
0
 10
230.8931265474236909
 20
105.7658551917224941
 30
0.0
 40
0.7875000000000004
 50
193.3417595550384931
 51
286.6582417727769894
  0
ARC
  5
43B3
  8
0
 10
231.2478712238458058
 20
104.5802909949999986
 30
0.0
 40
0.4500000000000001
 50
313.3417582272194863
 51
106.6582417727770036
  0
ARC
  5
43B4
  8
0
 10
232.0972275978137986
 20
103.6802909949999929
 30
0.0
 40
0.7874999999999993
 50
133.3417582272196
 51
226.6582417727802863
  0
ARC
  5
43B5
  8
0
 10
231.2478712238458058
 20
102.7802909950000014
 30
0.0
 40
0.4500000000000003
 50
253.3417559035407862
 51
46.6582417727803929
  0
ARC
  5
43B6
  8
0
 10
228.4849244466437881
 20
105.7658551917224941
 30
0.0
 40
0.7874999999999999
 50
253.3417593113773023
 51
346.658241772778922
  0
ARC
  5
43B7
  8
0
 10
228.1301797702217016
 20
104.5802909949999986
 30
0.0
 40
0.4500000000000006
 50
73.3417563299478701
 51
226.6582417727802863
  0
ARC
  5
43B8
  8
0
 10
227.2808233962539077
 20
103.6802909949999929
 30
0.0
 40
0.7874999999999996
 50
313.3417593113787802
 51
46.6582417727803929
  0
ARC
  5
43B9
  8
0
 10
228.1301797702217016
 20
102.7802909950000014
 30
0.0
 40
0.4500000000000003
 50
133.3417563299495896
 51
286.6582417727769894
  0
ARC
  5
43BA
  8
0
 10
228.4849244466437881
 20
101.5947267982774065
 30
0.0
 40
0.7875000000000004
 50
13.3417582272211295
 51
106.6582417727770036
  0
ARC
  5
43BB
  8
0
 10
229.6890254970338106
 20
101.8802909949999957
 30
0.0
 40
0.4500000000000006
 50
193.3417582272211064
 51
346.658241772778922
  0
ARC
  5
43BC
  8
0
 10
230.8931265474236909
 20
101.5947267982774065
 30
0.0
 40
0.7875000000000008
 50
73.3417595550374841
 51
166.6582417727788084
  0
LINE
  5
43BD
  8
1
 10
97.321984078017536
 20
143.1802909950000071
 30
0.0
 11
97.321984078017536
 21
129.1802909949998934
 31
0.0
  0
LINE
  5
43BE
  8
1
 10
114.3219840780174934
 20
213.8802909949999105
 30
0.0
 11
114.3219840780174934
 21
188.4802909949999048
 31
0.0
  0
LINE
  5
43BF
  8
1
 10
114.3219840780174934
 20
164.1802909950000071
 30
0.0
 11
114.3219840780174934
 21
90.705936236528288
 31
0.0
  0
LINE
  5
43C0
  8
1
 10
131.3219840780174934
 20
143.1802909950000071
 30
0.0
 11
131.3219840780174934
 21
129.1802909949998934
 31
0.0
  0
LINE
  5
43C1
  8
3
 10
112.3219840780174934
 20
105.3012909949999028
 30
0.0
 11
114.3219840780174934
 21
105.3012909949999028
 31
0.0
  0
LINE
  5
43C2
  8
3
 10
112.3219840780174934
 20
102.0592909949999978
 30
0.0
 11
114.3219840780174934
 21
102.0592909949999978
 31
0.0
  0
LINE
  5
43C3
  8
3
 10
112.3219840780174934
 20
35.3269362365282973
 30
0.0
 11
114.3219840780174934
 21
35.3269362365282973
 31
0.0
  0
LINE
  5
43C4
  8
3
 10
112.3219840780174934
 20
32.0849362365283426
 30
0.0
 11
114.3219840780174934
 21
32.0849362365283426
 31
0.0
  0
LINE
  5
43C5
  8
0
 10
169.9890254970337082
 20
30.3418840986895511
 30
0.0
 11
169.9890254970337082
 21
37.069988374367199
 31
0.0
  0
LINE
  5
43C6
  8
0
 10
158.1219840780175048
 20
29.621000914545899
 30
0.0
 11
168.0467689550002888
 21
29.621000914545899
 31
0.0
  0
LINE
  5
43C7
  8
0
 10
162.7161902803590863
 20
40.7059362365283732
 30
0.0
 11
153.6219840780175048
 21
40.7059362365283732
 31
0.0
  0
LINE
  5
43C8
  8
0
 10
153.6219840780175048
 20
26.7059362365283803
 30
0.0
 11
162.7161902803590863
 21
26.7059362365283803
 31
0.0
  0
LINE
  5
43C9
  8
0
 10
168.0467689550002888
 20
37.790871558510851
 30
0.0
 11
158.1219840780175048
 21
37.790871558510851
 31
0.0
  0
LINE
  5
43CA
  8
0
 10
153.6219840780175048
 20
40.2059362365283732
 30
0.0
 11
143.1219840780175048
 21
40.2059362365283732
 31
0.0
  0
LINE
  5
43CB
  8
0
 10
143.1219840780175048
 20
27.2059362365283697
 30
0.0
 11
153.6219840780175048
 21
27.2059362365283697
 31
0.0
  0
LINE
  5
43CC
  8
0
 10
139.1219840780175048
 20
29.0059362365283313
 30
0.0
 11
139.4219840780176014
 21
28.7059362365283697
 31
0.0
  0
LINE
  5
43CD
  8
0
 10
139.4219840780176014
 20
38.7059362365283732
 30
0.0
 11
139.1219840780175048
 21
38.4059362365284187
 31
0.0
  0
LINE
  5
43CE
  8
0
 10
139.4219840780176014
 20
28.7059362365283697
 30
0.0
 11
143.1219840780175048
 21
28.7059362365283697
 31
0.0
  0
LINE
  5
43CF
  8
0
 10
143.1219840780175048
 20
38.7059362365283732
 30
0.0
 11
139.4219840780176014
 21
38.7059362365283732
 31
0.0
  0
POLYLINE
  5
43D0
  8
0
 66
     1
 10
0.0
 20
0.0
 30
0.0
  0
VERTEX
  5
4B90
  8
0
 10
165.5758048376166869
 20
29.6211217850304784
 30
0.0
  0
VERTEX
  5
4B91
  8
0
 10
165.3497523481887015
 20
29.4552416039630316
 30
0.0
  0
VERTEX
  5
4B92
  8
0
 10
164.8811146435141097
 20
29.0476918942132514
 30
0.0
  0
VERTEX
  5
4B93
  8
0
 10
164.3862635173964009
 20
28.5311974710671201
 30
0.0
  0
VERTEX
  5
4B94
  8
0
 10
164.1305533792931044
 20
28.2318061838215115
 30
0.0
  0
SEQEND
  5
4B95
  8
0
  0
POLYLINE
  5
43D1
  8
0
 66
     1
 10
0.0
 20
0.0
 30
0.0
  0
VERTEX
  5
4B96
  8
0
 10
157.4201425975896029
 20
30.1010042091998002
 30
0.0
  0
VERTEX
  5
4B97
  8
0
 10
157.4571393817033993
 20
30.1024972847654908
 30
0.0
  0
VERTEX
  5
4B98
  8
0
 10
157.5282355278698105
 20
30.1046886202951782
 30
0.0
  0
VERTEX
  5
4B99
  8
0
 10
157.5954242717531883
 20
30.1057966151024594
 30
0.0
  0
VERTEX
  5
4B9A
  8
0
 10
157.627537787772809
 20
30.1059362365283505
 30
0.0
  0
SEQEND
  5
4B9B
  8
0
  0
POLYLINE
  5
43D2
  8
0
 66
     1
 10
0.0
 20
0.0
 30
0.0
  0
VERTEX
  5
4B9C
  8
0
 10
157.627537787772809
 20
30.1059362365283505
 30
0.0
  0
VERTEX
  5
4B9D
  8
0
 10
157.654973033373409
 20
30.1058274536892512
 30
0.0
  0
VERTEX
  5
4B9E
  8
0
 10
157.7075192380331998
 20
30.1049519039656808
 30
0.0
  0
VERTEX
  5
4B9F
  8
0
 10
157.7569463560236898
 20
30.1031884122503506
 30
0.0
  0
VERTEX
  5
4BA0
  8
0
 10
157.780483793207793
 20
30.1019702152747186
 30
0.0
  0
VERTEX
  5
4BA1
  8
0
 10
157.8032342763048916
 20
30.100526144359609
 30
0.0
  0
VERTEX
  5
4BA2
  8
0
 10
157.8463675273532942
 20
30.0969565119530706
 30
0.0
  0
VERTEX
  5
4BA3
  8
0
 10
157.8863353982893898
 20
30.0924732107266699
 30
0.0
  0
VERTEX
  5
4BA4
  8
0
 10
157.9231320184024128
 20
30.0870722393023016
 30
0.0
  0
VERTEX
  5
4BA5
  8
0
 10
157.9567563943581092
 20
30.0807518979122506
 30
0.0
  0
VERTEX
  5
4BA6
  8
0
 10
157.9872123625665949
 20
30.0735127771120005
 30
0.0
  0
VERTEX
  5
4BA7
  8
0
 10
158.0012546206228023
 20
30.06954950236263
 30
0.0
  0
VERTEX
  5
4BA8
  8
0
 10
158.0145082220012114
 20
30.0653578337800091
 30
0.0
  0
VERTEX
  5
4BA9
  8
0
 10
158.038656603301007
 20
30.0562925019604599
 30
0.0
  0
VERTEX
  5
4BAA
  8
0
 10
158.0596747007444094
 20
30.0463247367257509
 30
0.0
  0
VERTEX
  5
4BAB
  8
0
 10
158.0775844814475022
 20
30.0354650329313699
 30
0.0
  0
VERTEX
  5
4BAC
  8
0
 10
158.0924128440663026
 20
30.0237264235696593
 30
0.0
  0
VERTEX
  5
4BAD
  8
0
 10
158.1041917284250928
 20
30.011124457661591
 30
0.0
  0
VERTEX
  5
4BAE
  8
0
 10
158.1089489920761935
 20
30.0045052529917484
 30
0.0
  0
VERTEX
  5
4BAF
  8
0
 10
158.1129581773533914
 20
29.9976771576900809
 30
0.0
  0
VERTEX
  5
4BB0
  8
0
 10
158.1187543518188079
 20
29.9834049566293288
 30
0.0
  0
VERTEX
  5
4BB1
  8
0
 10
158.1216275001958991
 20
29.9683306146529311
 30
0.0
  0
VERTEX
  5
4BB2
  8
0
 10
158.1219840780175048
 20
29.9605003646561308
 30
0.0
  0
SEQEND
  5
4BB3
  8
0
  0
POLYLINE
  5
43D3
  8
0
 66
     1
 10
0.0
 20
0.0
 30
0.0
  0
VERTEX
  5
4BB4
  8
0
 10
168.079576419247303
 20
37.7874492676559228
 30
0.0
  0
VERTEX
  5
4BB5
  8
0
 10
168.5137443380303921
 20
37.6911349521549184
 30
0.0
  0
VERTEX
  5
4BB6
  8
0
 10
169.2330511976952039
 20
37.4976755096738614
 30
0.0
  0
VERTEX
  5
4BB7
  8
0
 10
169.7528131647383987
 20
37.30334237284967
 30
0.0
  0
VERTEX
  5
4BB8
  8
0
 10
169.9376178250049065
 20
37.2059362365283732
 30
0.0
  0
SEQEND
  5
4BB9
  8
0
  0
POLYLINE
  5
43D4
  8
0
 66
     1
 10
0.0
 20
0.0
 30
0.0
  0
VERTEX
  5
4BBA
  8
0
 10
161.6636077586906026
 20
37.2059362365283732
 30
0.0
  0
VERTEX
  5
4BBB
  8
0
 10
161.5918564505232098
 20
37.2117283143469493
 30
0.0
  0
VERTEX
  5
4BBC
  8
0
 10
161.4616496643938888
 20
37.2235243993292215
 30
0.0
  0
VERTEX
  5
4BBD
  8
0
 10
161.3495058835509894
 20
37.23557206795045
 30
0.0
  0
VERTEX
  5
4BBE
  8
0
 10
161.3003200227510092
 20
37.2416784399450833
 30
0.0
  0
SEQEND
  5
4BBF
  8
0
  0
LINE
  5
43D5
  8
0
 10
161.3003200227510092
 20
37.2416784399450833
 30
0.0
 11
158.4639112365775873
 21
37.612732890814641
 31
0.0
  0
POLYLINE
  5
43D6
  8
0
 66
     1
 10
0.0
 20
0.0
 30
0.0
  0
VERTEX
  5
4BC0
  8
0
 10
158.4639112365775873
 20
37.612732890814641
 30
0.0
  0
VERTEX
  5
4BC1
  8
0
 10
158.4452914774084888
 20
37.6152047952460933
 30
0.0
  0
VERTEX
  5
4BC2
  8
0
 10
158.4095891683489015
 20
37.6201640804447379
 30
0.0
  0
VERTEX
  5
4BC3
  8
0
 10
158.3759434043367946
 20
37.6251430302984318
 30
0.0
  0
VERTEX
  5
4BC4
  8
0
 10
158.3598942133492073
 20
37.6276395144669777
 30
0.0
  0
VERTEX
  5
4BC5
  8
0
 10
158.3443620820752926
 20
37.6301404762414222
 30
0.0
  0
VERTEX
  5
4BC6
  8
0
 10
158.3148526137399017
 20
37.6351552453668319
 30
0.0
  0
VERTEX
  5
4BC7
  8
0
 10
158.2874219252400962
 20
37.640186160702001
 30
0.0
  0
VERTEX
  5
4BC8
  8
0
 10
158.2620764545924885
 20
37.6452320414849808
 30
0.0
  0
VERTEX
  5
4BC9
  8
0
 10
158.2388221504110959
 20
37.6502917034412121
 30
0.0
  0
VERTEX
  5
4BCA
  8
0
 10
158.2176644705097885
 20
37.6553639590615603
 30
0.0
  0
VERTEX
  5
4BCB
  8
0
 10
158.207873435710809
 20
37.6579044375833973
 30
0.0
  0
VERTEX
  5
4BCC
  8
0
 10
158.1986083806229999
 20
37.6604476178813528
 30
0.0
  0
VERTEX
  5
4BCD
  8
0
 10
158.1816583532383902
 20
37.6655414867596008
 30
0.0
  0
VERTEX
  5
4BCE
  8
0
 10
158.1668183665489948
 20
37.6706443701588114
 30
0.0
  0
VERTEX
  5
4BCF
  8
0
 10
158.1540919035178092
 20
37.6757550704257866
 30
0.0
  0
VERTEX
  5
4BD0
  8
0
 10
158.1434819510621139
 20
37.6808723880729985
 30
0.0
  0
VERTEX
  5
4BD1
  8
0
 10
158.1349909993506913
 20
37.6859951220594667
 30
0.0
  0
VERTEX
  5
4BD2
  8
0
 10
158.1315407909764872
 20
37.6885581444993321
 30
0.0
  0
VERTEX
  5
4BD3
  8
0
 10
158.1286210412206117
 20
37.6911220700729928
 30
0.0
  0
VERTEX
  5
4BD4
  8
0
 10
158.1243735717090999
 20
37.6962520288127507
 30
0.0
  0
VERTEX
  5
4BD5
  8
0
 10
158.1222495877024983
 20
37.7013837942707823
 30
0.0
  0
VERTEX
  5
4BD6
  8
0
 10
158.1219840780175048
 20
37.7039499781429868
 30
0.0
  0
SEQEND
  5
4BD7
  8
0
  0
LINE
  5
43D7
  8
0
 10
169.9376178250049065
 20
37.2059362365283732
 30
0.0
 11
161.6636077586906026
 21
37.2059362365283732
 31
0.0
  0
POLYLINE
  5
43D8
  8
0
 66
     1
 10
0.0
 20
0.0
 30
0.0
  0
VERTEX
  5
4BD8
  8
0
 10
169.9376178250049065
 20
37.2059362365283732
 30
0.0
  0
VERTEX
  5
4BD9
  8
0
 10
169.9389759952453005
 20
37.2058644486487466
 30
0.0
  0
VERTEX
  5
4BDA
  8
0
 10
169.9416903537417056
 20
37.2052872273583333
 30
0.0
  0
VERTEX
  5
4BDB
  8
0
 10
169.9444010963231904
 20
37.2041255932102786
 30
0.0
  0
VERTEX
  5
4BDC
  8
0
 10
169.945754749436901
 20
37.2033234099552601
 30
0.0
  0
VERTEX
  5
4BDD
  8
0
 10
169.9471070656136078
 20
37.2023725346834908
 30
0.0
  0
VERTEX
  5
4BDE
  8
0
 10
169.949807118494391
 20
37.2000215599840729
 30
0.0
  0
VERTEX
  5
4BDF
  8
0
 10
169.9525001284532095
 20
37.1970666998223578
 30
0.0
  0
VERTEX
  5
4BE0
  8
0
 10
169.9551849878295968
 20
37.193502508105901
 30
0.0
  0
VERTEX
  5
4BE1
  8
0
 10
169.9578606099611875
 20
37.1893240605535311
 30
0.0
  0
VERTEX
  5
4BE2
  8
0
 10
169.9605259312351961
 20
37.1845269512268715
 30
0.0
  0
VERTEX
  5
4BE3
  8
0
 10
169.9618544034572096
 20
37.1818951619513882
 30
0.0
  0
VERTEX
  5
4BE4
  8
0
 10
169.9631799130438026
 20
37.1791072869687014
 30
0.0
  0
VERTEX
  5
4BE5
  8
0
 10
169.9658215436502076
 20
37.1730616797246967
 30
0.0
  0
VERTEX
  5
4BE6
  8
0
 10
169.9684498399658139
 20
37.1663872367213273
 30
0.0
  0
VERTEX
  5
4BE7
  8
0
 10
169.9710638492369981
 20
37.1590815484643073
 30
0.0
  0
VERTEX
  5
4BE8
  8
0
 10
169.9736626506459913
 20
37.1511426745154267
 30
0.0
  0
VERTEX
  5
4BE9
  8
0
 10
169.9762453568266096
 20
37.142569127002389
 30
0.0
  0
VERTEX
  5
4BEA
  8
0
 10
169.9775304071274036
 20
37.1380440022699077
 30
0.0
  0
VERTEX
  5
4BEB
  8
0
 10
169.9788111190974007
 20
37.1333598376212421
 30
0.0
  0
VERTEX
  5
4BEC
  8
0
 10
169.981359110907988
 20
37.1235142028103766
 30
0.0
  0
VERTEX
  5
4BED
  8
0
 10
169.983888511654186
 20
37.1130321545863424
 30
0.0
  0
VERTEX
  5
4BEE
  8
0
 10
169.9851459910532867
 20
37.1075525825011709
 30
0.0
  0
SEQEND
  5
4BEF
  8
0
  0
POLYLINE
  5
43D9
  8
0
 66
     1
 10
0.0
 20
0.0
 30
0.0
  0
VERTEX
  5
4BF0
  8
0
 10
169.9851459910532867
 20
37.1075525825011709
 30
0.0
  0
VERTEX
  5
4BF1
  8
0
 10
169.9863348181206106
 20
37.1017176174010501
 30
0.0
  0
VERTEX
  5
4BF2
  8
0
 10
169.9880595962432892
 20
37.0895341274157317
 30
0.0
  0
VERTEX
  5
4BF3
  8
0
 10
169.9889185206451998
 20
37.0766716499531412
 30
0.0
  0
VERTEX
  5
4BF4
  8
0
 10
169.9890254970337082
 20
37.0699883743600367
 30
0.0
  0
SEQEND
  5
4BF5
  8
0
  0
POLYLINE
  5
43DA
  8
0
 66
     1
 10
0.0
 20
0.0
 30
0.0
  0
VERTEX
  5
4BF6
  8
0
 10
169.9890254970337082
 20
37.0699883743600367
 30
0.0
  0
VERTEX
  5
4BF7
  8
0
 10
169.988623461554397
 20
37.0565217447713167
 30
0.0
  0
VERTEX
  5
4BF8
  8
0
 10
169.9854347830639085
 20
37.0277252722627281
 30
0.0
  0
VERTEX
  5
4BF9
  8
0
 10
169.9791402503437894
 20
36.9965182121255793
 30
0.0
  0
VERTEX
  5
4BFA
  8
0
 10
169.9748619065065043
 20
36.9800457640137665
 30
0.0
  0
VERTEX
  5
4BFB
  8
0
 10
169.9698505714696068
 20
36.9630157971785209
 30
0.0
  0
VERTEX
  5
4BFC
  8
0
 10
169.9577009742266966
 20
36.9273569771156716
 30
0.0
  0
VERTEX
  5
4BFD
  8
0
 10
169.9428490332533954
 20
36.8897014534948084
 30
0.0
  0
VERTEX
  5
4BFE
  8
0
 10
169.9254723630810986
 20
36.8502277149220916
 30
0.0
  0
VERTEX
  5
4BFF
  8
0
 10
169.9057684983249032
 20
36.8091355997112331
 30
0.0
  0
VERTEX
  5
4C00
  8
0
 10
169.883954077387898
 20
36.766645919786022
 30
0.0
  0
VERTEX
  5
4C01
  8
0
 10
169.8723278146810003
 20
36.7449510526784024
 30
0.0
  0
VERTEX
  5
4C02
  8
0
 10
169.8602626994905052
 20
36.7229976800556415
 30
0.0
  0
VERTEX
  5
4C03
  8
0
 10
169.8348265468056866
 20
36.6782454732056067
 30
0.0
  0
VERTEX
  5
4C04
  8
0
 10
169.8072618640862004
 20
36.6316066819506503
 30
0.0
  0
VERTEX
  5
4C05
  8
0
 10
169.7775597400427046
 20
36.5830210145148769
 30
0.0
  0
VERTEX
  5
4C06
  8
0
 10
169.7457872100748943
 20
36.5325557618125529
 30
0.0
  0
VERTEX
  5
4C07
  8
0
 10
169.7120198309208092
 20
36.4802852522036574
 30
0.0
  0
VERTEX
  5
4C08
  8
0
 10
169.6944137231743923
 20
36.4534978555257112
 30
0.0
  0
VERTEX
  5
4C09
  8
0
 10
169.6763404921148037
 20
36.4262895395999067
 30
0.0
  0
VERTEX
  5
4C0A
  8
0
 10
169.6388382236970926
 20
36.3706531478663919
 30
0.0
  0
VERTEX
  5
4C0B
  8
0
 10
169.5996080892448106
 20
36.3134654077408712
 30
0.0
  0
VERTEX
  5
4C0C
  8
0
 10
169.5793766526001036
 20
36.2843194216127429
 30
0.0
  0
VERTEX
  5
4C0D
  8
0
 10
169.5587519564182912
 20
36.2548219075463294
 30
0.0
  0
VERTEX
  5
4C0E
  8
0
 10
169.5163779214788065
 20
36.1948238640972022
 30
0.0
  0
VERTEX
  5
4C0F
  8
0
 10
169.4725994541886109
 20
36.1335771198804423
 30
0.0
  0
VERTEX
  5
4C10
  8
0
 10
169.4502202767039023
 20
36.1025195857961307
 30
0.0
  0
VERTEX
  5
4C11
  8
0
 10
169.42753454393889
 20
36.0711911709533979
 30
0.0
  0
VERTEX
  5
4C12
  8
0
 10
169.3813015692732904
 20
36.0077737309426311
 30
0.0
  0
VERTEX
  5
4C13
  8
0
 10
169.3340182520902886
 20
35.9434296748739825
 30
0.0
  0
VERTEX
  5
4C14
  8
0
 10
169.2858109558924014
 20
35.8782738447812335
 30
0.0
  0
VERTEX
  5
4C15
  8
0
 10
169.2368112513651965
 20
35.8124262743405097
 30
0.0
  0
VERTEX
  5
4C16
  8
0
 10
169.1871552562394925
 20
35.7460113265304926
 30
0.0
  0
VERTEX
  5
4C17
  8
0
 10
169.1621247839838986
 20
35.7126309522600422
 30
0.0
  0
VERTEX
  5
4C18
  8
0
 10
169.1369830444805018
 20
35.6791569627356466
 30
0.0
  0
VERTEX
  5
4C19
  8
0
 10
169.0864380775933
 20
35.6119940700646112
 30
0.0
  0
VERTEX
  5
4C1A
  8
0
 10
169.0356666581780871
 20
35.5446558431362973
 30
0.0
  0
VERTEX
  5
4C1B
  8
0
 10
168.9848174017149063
 20
35.4772772147101705
 30
0.0
  0
VERTEX
  5
4C1C
  8
0
 10
168.9340407189280882
 20
35.409994328214573
 30
0.0
  0
VERTEX
  5
4C1D
  8
0
 10
168.8834882977594134
 20
35.3429440441479983
 30
0.0
  0
VERTEX
  5
4C1E
  8
0
 10
168.8583438064779045
 20
35.3095489772762221
 30
0.0
  0
VERTEX
  5
4C1F
  8
0
 10
168.833281932653307
 20
35.276222701481629
 30
0.0
  0
VERTEX
  5
4C20
  8
0
 10
168.7825535287742866
 20
35.2086036822111126
 30
0.0
  0
VERTEX
  5
4C21
  8
0
 10
168.7309747210769899
 20
35.1395581061494795
 30
0.0
  0
VERTEX
  5
4C22
  8
0
 10
168.6787287934845949
 20
35.0692205821684411
 30
0.0
  0
VERTEX
  5
4C23
  8
0
 10
168.626010909737488
 20
34.9977234864946922
 30
0.0
  0
VERTEX
  5
4C24
  8
0
 10
168.5730288454344077
 20
34.9251949462202518
 30
0.0
  0
VERTEX
  5
4C25
  8
0
 10
168.5465074369435001
 20
34.8885822473295093
 30
0.0
  0
VERTEX
  5
4C26
  8
0
 10
168.5200044064550013
 20
34.8517568584071569
 30
0.0
  0
VERTEX
  5
4C27
  8
0
 10
168.4671763333508068
 20
34.7775238222931193
 30
0.0
  0
VERTEX
  5
4C28
  8
0
 10
168.4148032621787934
 20
34.7026007313129412
 30
0.0
  0
VERTEX
  5
4C29
  8
0
 10
168.363167198659113
 20
34.6270791781748812
 30
0.0
  0
VERTEX
  5
4C2A
  8
0
 10
168.3125787741116994
 20
34.5510339222953533
 30
0.0
  0
VERTEX
  5
4C2B
  8
0
 10
168.2634097394586092
 20
34.4745592363892683
 30
0.0
  0
VERTEX
  5
4C2C
  8
0
 10
168.2394877048270985
 20
34.4361888664368507
 30
0.0
  0
VERTEX
  5
4C2D
  8
0
 10
168.2160709827442133
 20
34.3977223060288679
 30
0.0
  0
VERTEX
  5
4C2E
  8
0
 10
168.1709655807964907
 20
34.3204581764645127
 30
0.0
  0
VERTEX
  5
4C2F
  8
0
 10
168.1285648371205923
 20
34.2426473531719466
 30
0.0
  0
VERTEX
  5
4C30
  8
0
 10
168.0894353221682991
 20
34.1641147152558915
 30
0.0
  0
VERTEX
  5
4C31
  8
0
 10
168.0542724598562927
 20
34.0846395115452196
 30
0.0
  0
VERTEX
  5
4C32
  8
0
 10
168.0359226544032936
 20
34.0377398105370119
 30
0.0
  0
VERTEX
  5
4C33
  8
0
 10
168.0310062630996981
 20
34.0242550294437933
 30
0.0
  0
VERTEX
  5
4C34
  8
0
 10
168.0262434032113106
 20
34.0107292695442993
 30
0.0
  0
VERTEX
  5
4C35
  8
0
 10
168.0239210448908125
 20
34.0039504253824134
 30
0.0
  0
VERTEX
  5
4C36
  8
0
 10
168.0216388813500998
 20
33.9971606096246504
 30
0.0
  0
VERTEX
  5
4C37
  8
0
 10
168.017197625505986
 20
33.9835470478865318
 30
0.0
  0
VERTEX
  5
4C38
  8
0
 10
168.0129246862105958
 20
33.969886508574632
 30
0.0
  0
VERTEX
  5
4C39
  8
0
 10
168.0108529471289955
 20
33.9630379553357216
 30
0.0
  0
VERTEX
  5
4C3A
  8
0
 10
168.0088252366876986
 20
33.9561768498067522
 30
0.0
  0
VERTEX
  5
4C3B
  8
0
 10
168.0049045717478009
 20
33.9424158725355483
 30
0.0
  0
VERTEX
  5
4C3C
  8
0
 10
168.00116810517369
 20
33.9286013305385268
 30
0.0
  0
VERTEX
  5
4C3D
  8
0
 10
167.9993706695740912
 20
33.9216732605822315
 30
0.0
  0
VERTEX
  5
4C3E
  8
0
 10
167.9976213653382899
 20
33.9147309412809435
 30
0.0
  0
VERTEX
  5
4C3F
  8
0
 10
167.994269988810089
 20
33.9008023974553225
 30
0.0
  0
VERTEX
  5
4C40
  8
0
 10
167.9911197117151005
 20
33.8868133789459307
 30
0.0
  0
VERTEX
  5
4C41
  8
0
 10
167.9881763586587908
 20
33.8727615649181715
 30
0.0
  0
VERTEX
  5
4C42
  8
0
 10
167.9854458290622006
 20
33.858644645684187
 30
0.0
  0
VERTEX
  5
4C43
  8
0
 10
167.9829340808238953
 20
33.8444603339518224
 30
0.0
  0
VERTEX
  5
4C44
  8
0
 10
167.9817621229213103
 20
33.8373421997838477
 30
0.0
  0
VERTEX
  5
4C45
  8
0
 10
167.9806471113024031
 20
33.8302063750297819
 30
0.0
  0
VERTEX
  5
4C46
  8
0
 10
167.9785909357055971
 20
33.8158805555386834
 30
0.0
  0
VERTEX
  5
4C47
  8
0
 10
167.9767715630804901
 20
33.8014807101734505
 30
0.0
  0
VERTEX
  5
4C48
  8
0
 10
167.9751949702109926
 20
33.7870047260722686
 30
0.0
  0
VERTEX
  5
4C49
  8
0
 10
167.9738670738452129
 20
33.7724505443862881
 30
0.0
  0
VERTEX
  5
4C4A
  8
0
 10
167.9727937017960073
 20
33.7578161586992564
 30
0.0
  0
VERTEX
  5
4C4B
  8
0
 10
167.9723542520293904
 20
33.7504682755314889
 30
0.0
  0
VERTEX
  5
4C4C
  8
0
 10
167.9719805635525063
 20
33.7430996100341716
 30
0.0
  0
VERTEX
  5
4C4D
  8
0
 10
167.9714332211381134
 20
33.7282989782836466
 30
0.0
  0
VERTEX
  5
4C4E
  8
0
 10
167.9711570609952105
 20
33.7134123700306034
 30
0.0
  0
VERTEX
  5
4C4F
  8
0
 10
167.971122303014198
 20
33.7059362365283732
 30
0.0
  0
VERTEX
  5
4C50
  8
0
 10
167.9711570609952105
 20
33.6984601030261501
 30
0.0
  0
VERTEX
  5
4C51
  8
0
 10
167.9714332211381134
 20
33.6835734947730998
 30
0.0
  0
VERTEX
  5
4C52
  8
0
 10
167.9719805635525063
 20
33.668772863022582
 30
0.0
  0
VERTEX
  5
4C53
  8
0
 10
167.9723542520293904
 20
33.6614041975252576
 30
0.0
  0
VERTEX
  5
4C54
  8
0
 10
167.9727937017960073
 20
33.65405631435749
 30
0.0
  0
VERTEX
  5
4C55
  8
0
 10
167.9738670738452129
 20
33.6394219286704583
 30
0.0
  0
VERTEX
  5
4C56
  8
0
 10
167.9751949702109926
 20
33.6248677469844779
 30
0.0
  0
VERTEX
  5
4C57
  8
0
 10
167.9767715630804901
 20
33.6103917628833031
 30
0.0
  0
VERTEX
  5
4C58
  8
0
 10
167.9785909357055971
 20
33.5959919175180701
 30
0.0
  0
VERTEX
  5
4C59
  8
0
 10
167.9806471113024031
 20
33.5816660980269717
 30
0.0
  0
VERTEX
  5
4C5A
  8
0
 10
167.9817621229213103
 20
33.5745302732728987
 30
0.0
  0
VERTEX
  5
4C5B
  8
0
 10
167.9829340808238953
 20
33.5674121391049312
 30
0.0
  0
VERTEX
  5
4C5C
  8
0
 10
167.9854458290622006
 20
33.5532278273725595
 30
0.0
  0
VERTEX
  5
4C5D
  8
0
 10
167.9881763586587908
 20
33.5391109081385821
 30
0.0
  0
VERTEX
  5
4C5E
  8
0
 10
167.9911197117151005
 20
33.5250590941108229
 30
0.0
  0
VERTEX
  5
4C5F
  8
0
 10
167.994269988810089
 20
33.511070075601431
 30
0.0
  0
VERTEX
  5
4C60
  8
0
 10
167.9976213653382899
 20
33.4971415317758101
 30
0.0
  0
VERTEX
  5
4C61
  8
0
 10
167.9993706695740912
 20
33.490199212474522
 30
0.0
  0
VERTEX
  5
4C62
  8
0
 10
168.00116810517369
 20
33.4832711425182197
 30
0.0
  0
VERTEX
  5
4C63
  8
0
 10
168.0049045717478009
 20
33.4694566005211982
 30
0.0
  0
VERTEX
  5
4C64
  8
0
 10
168.0088252366876986
 20
33.4556956232500013
 30
0.0
  0
VERTEX
  5
4C65
  8
0
 10
168.0108529471289955
 20
33.448834517721032
 30
0.0
  0
VERTEX
  5
4C66
  8
0
 10
168.0129246862105958
 20
33.4419859644820008
 30
0.0
  0
VERTEX
  5
4C67
  8
0
 10
168.017197625505986
 20
33.4283254251702076
 30
0.0
  0
VERTEX
  5
4C68
  8
0
 10
168.0216388813500998
 20
33.4147118634321032
 30
0.0
  0
VERTEX
  5
4C69
  8
0
 10
168.0239210448908125
 20
33.4079220476743401
 30
0.0
  0
VERTEX
  5
4C6A
  8
0
 10
168.0262434032113106
 20
33.4011432035124471
 30
0.0
  0
VERTEX
  5
4C6B
  8
0
 10
168.0310062630996981
 20
33.3876174436129602
 30
0.0
  0
VERTEX
  5
4C6C
  8
0
 10
168.0359226544032936
 20
33.3741326625197416
 30
0.0
  0
VERTEX
  5
4C6D
  8
0
 10
168.0542724598562927
 20
33.3272329615115268
 30
0.0
  0
VERTEX
  5
4C6E
  8
0
 10
168.0894353221682991
 20
33.2477577578008621
 30
0.0
  0
VERTEX
  5
4C6F
  8
0
 10
168.1285648371205923
 20
33.1692251198847998
 30
0.0
  0
VERTEX
  5
4C70
  8
0
 10
168.1709655807964907
 20
33.0914142965922409
 30
0.0
  0
VERTEX
  5
4C71
  8
0
 10
168.2160709827442133
 20
33.0141501670278785
 30
0.0
  0
VERTEX
  5
4C72
  8
0
 10
168.2394877048270985
 20
32.9756836066199028
 30
0.0
  0
VERTEX
  5
4C73
  8
0
 10
168.2634097394586092
 20
32.9373132366674781
 30
0.0
  0
VERTEX
  5
4C74
  8
0
 10
168.3125787741116994
 20
32.8608385507614003
 30
0.0
  0
VERTEX
  5
4C75
  8
0
 10
168.363167198659113
 20
32.7847932948818723
 30
0.0
  0
VERTEX
  5
4C76
  8
0
 10
168.4148032621787934
 20
32.7092717417436916
 30
0.0
  0
VERTEX
  5
4C77
  8
0
 10
168.4671763333508068
 20
32.6343486507636271
 30
0.0
  0
VERTEX
  5
4C78
  8
0
 10
168.5200044064550013
 20
32.5601156146495896
 30
0.0
  0
VERTEX
  5
4C79
  8
0
 10
168.5465074369435001
 20
32.5232902257272372
 30
0.0
  0
VERTEX
  5
4C7A
  8
0
 10
168.5730288454344077
 20
32.4866775268365018
 30
0.0
  0
VERTEX
  5
4C7B
  8
0
 10
168.626010909737488
 20
32.4141489865620613
 30
0.0
  0
VERTEX
  5
4C7C
  8
0
 10
168.6787287934845949
 20
32.3426518908882983
 30
0.0
  0
VERTEX
  5
4C7D
  8
0
 10
168.7309747210769899
 20
32.272314366907267
 30
0.0
  0
VERTEX
  5
4C7E
  8
0
 10
168.7825535287742866
 20
32.203268790845641
 30
0.0
  0
VERTEX
  5
4C7F
  8
0
 10
168.833281932653307
 20
32.1356497715751175
 30
0.0
  0
VERTEX
  5
4C80
  8
0
 10
168.8583438064779045
 20
32.1023234957805315
 30
0.0
  0
VERTEX
  5
4C81
  8
0
 10
168.8834882977594134
 20
32.0689284289087482
 30
0.0
  0
VERTEX
  5
4C82
  8
0
 10
168.9340407189280882
 20
32.0018781448421805
 30
0.0
  0
VERTEX
  5
4C83
  8
0
 10
168.9848174017149063
 20
31.9345952583465795
 30
0.0
  0
VERTEX
  5
4C84
  8
0
 10
169.0356666581780871
 20
31.8672166299204491
 30
0.0
  0
VERTEX
  5
4C85
  8
0
 10
169.0864380775933
 20
31.7998784029921389
 30
0.0
  0
VERTEX
  5
4C86
  8
0
 10
169.1369830444805018
 20
31.7327155103210998
 30
0.0
  0
VERTEX
  5
4C87
  8
0
 10
169.1621247839838986
 20
31.6992415207967113
 30
0.0
  0
VERTEX
  5
4C88
  8
0
 10
169.1871552562394925
 20
31.6658611465262609
 30
0.0
  0
VERTEX
  5
4C89
  8
0
 10
169.2368112513651965
 20
31.5994461987162403
 30
0.0
  0
VERTEX
  5
4C8A
  8
0
 10
169.2858109558924014
 20
31.5335986282755201
 30
0.0
  0
VERTEX
  5
4C8B
  8
0
 10
169.3340182520902886
 20
31.468442798182771
 30
0.0
  0
VERTEX
  5
4C8C
  8
0
 10
169.3813015692732904
 20
31.4040987421141189
 30
0.0
  0
VERTEX
  5
4C8D
  8
0
 10
169.42753454393889
 20
31.3406813021033486
 30
0.0
  0
VERTEX
  5
4C8E
  8
0
 10
169.4502202767039023
 20
31.3093528872606193
 30
0.0
  0
VERTEX
  5
4C8F
  8
0
 10
169.4725994541886109
 20
31.2782953531763006
 30
0.0
  0
VERTEX
  5
4C90
  8
0
 10
169.5163779214788065
 20
31.2170486089595514
 30
0.0
  0
VERTEX
  5
4C91
  8
0
 10
169.5587519564182912
 20
31.1570505655104206
 30
0.0
  0
VERTEX
  5
4C92
  8
0
 10
169.5793766526001036
 20
31.1275530514440106
 30
0.0
  0
VERTEX
  5
4C93
  8
0
 10
169.5996080892448106
 20
31.0984070653158788
 30
0.0
  0
VERTEX
  5
4C94
  8
0
 10
169.6388382236970926
 20
31.0412193251904682
 30
0.0
  0
VERTEX
  5
4C95
  8
0
 10
169.6763404921148037
 20
30.9855829334568398
 30
0.0
  0
VERTEX
  5
4C96
  8
0
 10
169.6944137231743923
 20
30.9583746175311489
 30
0.0
  0
VERTEX
  5
4C97
  8
0
 10
169.7120198309208092
 20
30.9315872208530891
 30
0.0
  0
VERTEX
  5
4C98
  8
0
 10
169.7457872100748943
 20
30.8793167112442006
 30
0.0
  0
VERTEX
  5
4C99
  8
0
 10
169.7775597400427046
 20
30.8288514585418696
 30
0.0
  0
VERTEX
  5
4C9A
  8
0
 10
169.8072618640862004
 20
30.7802657911060997
 30
0.0
  0
VERTEX
  5
4C9B
  8
0
 10
169.8348265468056866
 20
30.7336269998511398
 30
0.0
  0
VERTEX
  5
4C9C
  8
0
 10
169.8602626994905052
 20
30.6888747930011085
 30
0.0
  0
VERTEX
  5
4C9D
  8
0
 10
169.8723278146810003
 20
30.6669214203783511
 30
0.0
  0
VERTEX
  5
4C9E
  8
0
 10
169.883954077387898
 20
30.6452265532707315
 30
0.0
  0
VERTEX
  5
4C9F
  8
0
 10
169.9057684983249032
 20
30.6027368733455205
 30
0.0
  0
VERTEX
  5
4CA0
  8
0
 10
169.9254723630810986
 20
30.5616447581346584
 30
0.0
  0
VERTEX
  5
4CA1
  8
0
 10
169.9428490332533954
 20
30.5221710195619416
 30
0.0
  0
VERTEX
  5
4CA2
  8
0
 10
169.9577009742266966
 20
30.4845154959410785
 30
0.0
  0
VERTEX
  5
4CA3
  8
0
 10
169.9698505714696068
 20
30.4488566758782291
 30
0.0
  0
VERTEX
  5
4CA4
  8
0
 10
169.9748619065065043
 20
30.4318267090429799
 30
0.0
  0
VERTEX
  5
4CA5
  8
0
 10
169.9791402503437894
 20
30.4153542609310499
 30
0.0
  0
VERTEX
  5
4CA6
  8
0
 10
169.9854347830639085
 20
30.3841472007940183
 30
0.0
  0
VERTEX
  5
4CA7
  8
0
 10
169.988623461554397
 20
30.3553507282854298
 30
0.0
  0
VERTEX
  5
4CA8
  8
0
 10
169.9890254970337082
 20
30.3418840986967098
 30
0.0
  0
SEQEND
  5
4CA9
  8
0
  0
POLYLINE
  5
43DB
  8
0
 66
     1
 10
0.0
 20
0.0
 30
0.0
  0
VERTEX
  5
4CAA
  8
0
 10
169.9890254970337082
 20
30.3418840986967098
 30
0.0
  0
VERTEX
  5
4CAB
  8
0
 10
169.9889185206451998
 20
30.3352008231036017
 30
0.0
  0
VERTEX
  5
4CAC
  8
0
 10
169.9880595962432892
 20
30.3223383456410183
 30
0.0
  0
VERTEX
  5
4CAD
  8
0
 10
169.9863348181206106
 20
30.3101548556556999
 30
0.0
  0
VERTEX
  5
4CAE
  8
0
 10
169.9851459910532867
 20
30.3043198905555684
 30
0.0
  0
SEQEND
  5
4CAF
  8
0
  0
POLYLINE
  5
43DC
  8
0
 66
     1
 10
0.0
 20
0.0
 30
0.0
  0
VERTEX
  5
4CB0
  8
0
 10
169.9851459910532867
 20
30.3043198905555684
 30
0.0
  0
VERTEX
  5
4CB1
  8
0
 10
169.9838885215388018
 20
30.2988403608362695
 30
0.0
  0
VERTEX
  5
4CB2
  8
0
 10
169.9813591402904933
 20
30.28835838787586
 30
0.0
  0
VERTEX
  5
4CB3
  8
0
 10
169.9788111673578896
 20
30.2785128152535208
 30
0.0
  0
VERTEX
  5
4CB4
  8
0
 10
169.9775304644940093
 20
30.2738286766895115
 30
0.0
  0
VERTEX
  5
4CB5
  8
0
 10
169.9762454230044
 20
30.2693035746168597
 30
0.0
  0
VERTEX
  5
4CB6
  8
0
 10
169.973662733362687
 20
30.2607300621214108
 30
0.0
  0
VERTEX
  5
4CB7
  8
0
 10
169.9710639468486875
 20
30.2527912100257517
 30
0.0
  0
VERTEX
  5
4CB8
  8
0
 10
169.9684499505150939
 20
30.2454855311148094
 30
0.0
  0
VERTEX
  5
4CB9
  8
0
 10
169.9658216648487894
 20
30.2388110858320296
 30
0.0
  0
VERTEX
  5
4CBA
  8
0
 10
169.9631800422573065
 20
30.2327654657996199
 30
0.0
  0
VERTEX
  5
4CBB
  8
0
 10
169.9618545355781123
 20
30.2299775808973017
 30
0.0
  0
VERTEX
  5
4CBC
  8
0
 10
169.9605260654684002
 20
30.2273457796051197
 30
0.0
  0
VERTEX
  5
4CBD
  8
0
 10
169.9578607458444992
 20
30.2225486408083306
 30
0.0
  0
VERTEX
  5
4CBE
  8
0
 10
169.9551851216056093
 20
30.2183701581250297
 30
0.0
  0
VERTEX
  5
4CBF
  8
0
 10
169.9525002559657878
 20
30.2148059277542416
 30
0.0
  0
VERTEX
  5
4CC0
  8
0
 10
169.9498072351771043
 20
30.2118510278196517
 30
0.0
  0
VERTEX
  5
4CC1
  8
0
 10
169.9471071664804072
 20
30.2095000149036004
 30
0.0
  0
VERTEX
  5
4CC2
  8
0
 10
169.9457548403925102
 20
30.208549122017299
 30
0.0
  0
VERTEX
  5
4CC3
  8
0
 10
169.9444011759601096
 20
30.2077469226626398
 30
0.0
  0
VERTEX
  5
4CC4
  8
0
 10
169.9416904062989033
 20
30.2065852625194111
 30
0.0
  0
VERTEX
  5
4CC5
  8
0
 10
169.9389760144304091
 20
30.2060080264387807
 30
0.0
  0
VERTEX
  5
4CC6
  8
0
 10
169.9376178250049065
 20
30.2059362365283803
 30
0.0
  0
SEQEND
  5
4CC7
  8
0
  0
POLYLINE
  5
43DD
  8
0
 66
     1
 10
0.0
 20
0.0
 30
0.0
  0
VERTEX
  5
4CC8
  8
0
 10
161.6636077586906026
 20
30.2059362365283803
 30
0.0
  0
VERTEX
  5
4CC9
  8
0
 10
161.6772499620873873
 20
30.2060522099723094
 30
0.0
  0
VERTEX
  5
4CCA
  8
0
 10
161.7050193043187107
 20
30.2069772232433706
 30
0.0
  0
VERTEX
  5
4CCB
  8
0
 10
161.7334320192871928
 20
30.2088199635035188
 30
0.0
  0
VERTEX
  5
4CCC
  8
0
 10
161.7478783083971905
 20
30.2100830054694214
 30
0.0
  0
VERTEX
  5
4CCD
  8
0
 10
161.7624837729125886
 20
30.2115724592649713
 30
0.0
  0
VERTEX
  5
4CCE
  8
0
 10
161.7921696926308925
 20
30.2152263453979195
 30
0.0
  0
VERTEX
  5
4CCF
  8
0
 10
161.8224843866817082
 20
30.2197728589533199
 30
0.0
  0
VERTEX
  5
4CD0
  8
0
 10
161.8534219655296056
 20
30.2252028394699401
 30
0.0
  0
VERTEX
  5
4CD1
  8
0
 10
161.8849760651866916
 20
30.2315067333901197
 30
0.0
  0
VERTEX
  5
4CD2
  8
0
 10
161.9171398722085087
 20
30.2386746022129991
 30
0.0
  0
VERTEX
  5
4CD3
  8
0
 10
161.9334481703662902
 20
30.2425793189460101
 30
0.0
  0
VERTEX
  5
4CD4
  8
0
 10
161.9499061501539927
 20
30.2466961340180696
 30
0.0
  0
VERTEX
  5
4CD5
  8
0
 10
161.9832672673080083
 20
30.2555606580058409
 30
0.0
  0
VERTEX
  5
4CD6
  8
0
 10
162.0172152254837954
 20
30.2652571617163701
 30
0.0
  0
VERTEX
  5
4CD7
  8
0
 10
162.0517416897334897
 20
30.2757743106063799
 30
0.0
  0
VERTEX
  5
4CD8
  8
0
 10
162.0868380188173887
 20
30.2871004696837609
 30
0.0
  0
VERTEX
  5
4CD9
  8
0
 10
162.1224952962936072
 20
30.299223726920669
 30
0.0
  0
VERTEX
  5
4CDA
  8
0
 10
162.1405314367553103
 20
30.3055804751800189
 30
0.0
  0
VERTEX
  5
4CDB
  8
0
 10
162.1587043575129883
 20
30.3121319165171599
 30
0.0
  0
VERTEX
  5
4CDC
  8
0
 10
162.1954557171347915
 20
30.3258126050895989
 30
0.0
  0
VERTEX
  5
4CDD
  8
0
 10
162.2327394352818999
 20
30.3402530454218287
 30
0.0
  0
VERTEX
  5
4CDE
  8
0
 10
162.2515776975014887
 20
30.3477541019258297
 30
0.0
  0
VERTEX
  5
4CDF
  8
0
 10
162.270545116812599
 20
30.3554401724223908
 30
0.0
  0
VERTEX
  5
4CE0
  8
0
 10
162.3088619335094052
 20
30.3713606091512283
 30
0.0
  0
VERTEX
  5
4CE1
  8
0
 10
162.3476786468050079
 20
30.3880006752143608
 30
0.0
  0
VERTEX
  5
4CE2
  8
0
 10
162.3672708461180889
 20
30.3965862136876694
 30
0.0
  0
VERTEX
  5
4CE3
  8
0
 10
162.3869836309654033
 20
30.40534639724115
 30
0.0
  0
VERTEX
  5
4CE4
  8
0
 10
162.4267648965968931
 20
30.4233835211621297
 30
0.0
  0
VERTEX
  5
4CE5
  8
0
 10
162.4670101143624095
 20
30.4420975260283093
 30
0.0
  0
VERTEX
  5
4CE6
  8
0
 10
162.5077066388147955
 20
30.4614736391395091
 30
0.0
  0
VERTEX
  5
4CE7
  8
0
 10
162.5488415322718083
 20
30.4814968522782692
 30
0.0
  0
VERTEX
  5
4CE8
  8
0
 10
162.5904015886773948
 20
30.5021519388652713
 30
0.0
  0
VERTEX
  5
4CE9
  8
0
 10
162.6113368585704109
 20
30.5127116210844598
 30
0.0
  0
VERTEX
  5
4CEA
  8
0
 10
162.6323733574089943
 20
30.5234234718814186
 30
0.0
  0
VERTEX
  5
4CEB
  8
0
 10
162.674743167004209
 20
30.5452958424223198
 30
0.0
  0
VERTEX
  5
4CEC
  8
0
 10
162.7174971487974915
 20
30.5677532787700592
 30
0.0
  0
VERTEX
  5
4CED
  8
0
 10
162.7606237555899042
 20
30.5907812087295987
 30
0.0
  0
VERTEX
  5
4CEE
  8
0
 10
162.8041130446844988
 20
30.6143659770601815
 30
0.0
  0
VERTEX
  5
4CEF
  8
0
 10
162.8479507470323995
 20
30.63849162667168
 30
0.0
  0
VERTEX
  5
4CF0
  8
0
 10
162.8699956788308896
 20
30.6507522210275809
 30
0.0
  0
VERTEX
  5
4CF1
  8
0
 10
162.8921221831180901
 20
30.663141934466239
 30
0.0
  0
VERTEX
  5
4CF2
  8
0
 10
162.9366123465246972
 20
30.6883004557657912
 30
0.0
  0
VERTEX
  5
4CF3
  8
0
 10
162.9814059237561992
 20
30.713950535924031
 30
0.0
  0
VERTEX
  5
4CF4
  8
0
 10
163.1403452180292959
 20
30.8073519049685309
 30
0.0
  0
VERTEX
  5
4CF5
  8
0
 10
163.4189972573927037
 20
30.978854013533919
 30
0.0
  0
VERTEX
  5
4CF6
  8
0
 10
163.7022605534326942
 20
31.1614046475526685
 30
0.0
  0
VERTEX
  5
4CF7
  8
0
 10
163.8443937822248984
 20
31.2555741970974204
 30
0.0
  0
VERTEX
  5
4CF8
  8
0
 10
163.986171874069413
 20
31.3509874979762415
 30
0.0
  0
VERTEX
  5
4CF9
  8
0
 10
164.2691032748739133
 20
31.5452480797471289
 30
0.0
  0
VERTEX
  5
4CFA
  8
0
 10
164.556997769344008
 20
31.7473952137584092
 30
0.0
  0
VERTEX
  5
4CFB
  8
0
 10
164.8472602236894886
 20
31.9549932348106793
 30
0.0
  0
VERTEX
  5
4CFC
  8
0
 10
165.1362012719064012
 20
32.1648085688476613
 30
0.0
  0
VERTEX
  5
4CFD
  8
0
 10
165.4200112297210126
 20
32.3735145342791384
 30
0.0
  0
VERTEX
  5
4CFE
  8
0
 10
165.558754119241712
 20
32.4763860392413406
 30
0.0
  0
VERTEX
  5
4CFF
  8
0
 10
165.6947105189912861
 20
32.5776966375989332
 30
0.0
  0
VERTEX
  5
4D00
  8
0
 10
165.9573030068540902
 20
32.7747672966347565
 30
0.0
  0
VERTEX
  5
4D01
  8
0
 10
166.2073942973269993
 20
32.9643049217779733
 30
0.0
  0
VERTEX
  5
4D02
  8
0
 10
166.3262332751652934
 20
33.0551570488794368
 30
0.0
  0
SEQEND
  5
4D03
  8
0
  0
POLYLINE
  5
43DE
  8
0
 66
     1
 10
0.0
 20
0.0
 30
0.0
  0
VERTEX
  5
4D04
  8
0
 10
166.3262332751652934
 20
33.0551570488794368
 30
0.0
  0
VERTEX
  5
4D05
  8
0
 10
166.3715317281881028
 20
33.0909234053236787
 30
0.0
  0
VERTEX
  5
4D06
  8
0
 10
166.4544371443973887
 20
33.1626514351161177
 30
0.0
  0
VERTEX
  5
4D07
  8
0
 10
166.4980512218727995
 20
33.204603116312569
 30
0.0
  0
VERTEX
  5
4D08
  8
0
 10
166.5098686686679059
 20
33.21660311139442
 30
0.0
  0
VERTEX
  5
4D09
  8
0
 10
166.5213997546692895
 20
33.2286089761970516
 30
0.0
  0
VERTEX
  5
4D0A
  8
0
 10
166.5270578690135039
 20
33.2346140647419972
 30
0.0
  0
VERTEX
  5
4D0B
  8
0
 10
166.5326443415582958
 20
33.2406205667062977
 30
0.0
  0
VERTEX
  5
4D0C
  8
0
 10
166.5436022944516026
 20
33.2526377388386507
 30
0.0
  0
VERTEX
  5
4D0D
  8
0
 10
166.5542734819053123
 20
33.2646603484439609
 30
0.0
  0
VERTEX
  5
4D0E
  8
0
 10
166.5595014984560009
 20
33.2706736472342826
 30
0.0
  0
VERTEX
  5
4D0F
  8
0
 10
166.5646577759140996
 20
33.276688251307057
 30
0.0
  0
VERTEX
  5
4D10
  8
0
 10
166.574755051915389
 20
33.2887213031489182
 30
0.0
  0
VERTEX
  5
4D11
  8
0
 10
166.5845651887887016
 20
33.3007593596288416
 30
0.0
  0
VERTEX
  5
4D12
  8
0
 10
166.5893625431440057
 20
33.3067802194852902
 30
0.0
  0
VERTEX
  5
4D13
  8
0
 10
166.5940880688579
 20
33.3128022763463605
 30
0.0
  0
VERTEX
  5
4D14
  8
0
 10
166.6033235778926951
 20
33.3248499088423387
 30
0.0
  0
VERTEX
  5
4D15
  8
0
 10
166.6122716051100099
 20
33.3369021126012512
 30
0.0
  0
VERTEX
  5
4D16
  8
0
 10
166.6209320431752872
 20
33.3489587430527834
 30
0.0
  0
VERTEX
  5
4D17
  8
0
 10
166.6293047882033989
 20
33.3610196555735001
 30
0.0
  0
VERTEX
  5
4D18
  8
0
 10
166.6373897397602093
 20
33.3730847054884023
 30
0.0
  0
VERTEX
  5
4D19
  8
0
 10
166.6413242625453108
 20
33.3791187367442035
 30
0.0
  0
VERTEX
  5
4D1A
  8
0
 10
166.6451868008643942
 20
33.3851537480732077
 30
0.0
  0
VERTEX
  5
4D1B
  8
0
 10
166.6526958779869858
 20
33.3972266385553667
 30
0.0
  0
VERTEX
  5
4D1C
  8
0
 10
166.6599168810543858
 20
33.4093032321165992
 30
0.0
  0
VERTEX
  5
4D1D
  8
0
 10
166.6668497234479105
 20
33.4213833838937333
 30
0.0
  0
VERTEX
  5
4D1E
  8
0
 10
166.6734943220058085
 20
33.4334669489812768
 30
0.0
  0
VERTEX
  5
4D1F
  8
0
 10
166.6798505970238864
 20
33.4455537824326328
 30
0.0
  0
VERTEX
  5
4D20
  8
0
 10
166.6829205892433947
 20
33.4515983794881322
 30
0.0
  0
VERTEX
  5
4D21
  8
0
 10
166.6859184722561054
 20
33.4576437392619326
 30
0.0
  0
VERTEX
  5
4D22
  8
0
 10
166.6916978749165992
 20
33.4697366744461533
 30
0.0
  0
VERTEX
  5
4D23
  8
0
 10
166.6971887356789921
 20
33.4818324429262475
 30
0.0
  0
VERTEX
  5
4D24
  8
0
 10
166.7023909886787862
 20
33.4939308996091611
 30
0.0
  0
VERTEX
  5
4D25
  8
0
 10
166.7073045715133048
 20
33.5060318993698729
 30
0.0
  0
VERTEX
  5
4D26
  8
0
 10
166.7119294252420048
 20
33.5181352970524813
 30
0.0
  0
VERTEX
  5
4D27
  8
0
 10
166.7141335612197963
 20
33.5241878497455517
 30
0.0
  0
VERTEX
  5
4D28
  8
0
 10
166.7162654943884093
 20
33.5302409474727483
 30
0.0
  0
VERTEX
  5
4D29
  8
0
 10
166.72031272693971
 20
33.5423487054190517
 30
0.0
  0
VERTEX
  5
4D2A
  8
0
 10
166.7240710743481031
 20
33.554458425654623
 30
0.0
  0
VERTEX
  5
4D2B
  8
0
 10
166.7275404915307888
 20
33.5665699629191678
 30
0.0
  0
VERTEX
  5
4D2C
  8
0
 10
166.7307209368711938
 20
33.5786831719307202
 30
0.0
  0
VERTEX
  5
4D2D
  8
0
 10
166.7336123722182037
 20
33.5907979073869001
 30
0.0
  0
VERTEX
  5
4D2E
  8
0
 10
166.73494970017029
 20
33.5968558021198831
 30
0.0
  0
VERTEX
  5
4D2F
  8
0
 10
166.736214762888693
 20
33.6029140239674007
 30
0.0
  0
VERTEX
  5
4D30
  8
0
 10
166.7385280776653929
 20
33.6150313763352031
 30
0.0
  0
VERTEX
  5
4D31
  8
0
 10
166.7405522887999894
 20
33.6271498191383671
 30
0.0
  0
VERTEX
  5
4D32
  8
0
 10
166.7422873720109067
 20
33.639269207011921
 30
0.0
  0
VERTEX
  5
4D33
  8
0
 10
166.7437333064854101
 20
33.6513893945797307
 30
0.0
  0
VERTEX
  5
4D34
  8
0
 10
166.7448900748788105
 20
33.6635102364558705
 30
0.0
  0
VERTEX
  5
4D35
  8
0
 10
166.7453600173236907
 20
33.6695708573242882
 30
0.0
  0
VERTEX
  5
4D36
  8
0
 10
166.7457576633157998
 20
33.6756315872465919
 30
0.0
  0
VERTEX
  5
4D37
  8
0
 10
166.7463360613884902
 20
33.6877533015522204
 30
0.0
  0
VERTEX
  5
4D38
  8
0
 10
166.7466252621595117
 20
33.6998752339683278
 30
0.0
  0
VERTEX
  5
4D39
  8
0
 10
166.7466614123372892
 20
33.7059362365283732
 30
0.0
  0
VERTEX
  5
4D3A
  8
0
 10
166.7466252621595117
 20
33.7119972390884186
 30
0.0
  0
VERTEX
  5
4D3B
  8
0
 10
166.7463360613884902
 20
33.7241191715045332
 30
0.0
  0
VERTEX
  5
4D3C
  8
0
 10
166.7457576633157998
 20
33.7362408858101617
 30
0.0
  0
VERTEX
  5
4D3D
  8
0
 10
166.7453600173236907
 20
33.7423016157324582
 30
0.0
  0
VERTEX
  5
4D3E
  8
0
 10
166.7448900748788105
 20
33.7483622366008831
 30
0.0
  0
VERTEX
  5
4D3F
  8
0
 10
166.7437333064854101
 20
33.7604830784770229
 30
0.0
  0
VERTEX
  5
4D40
  8
0
 10
166.7422873720109067
 20
33.7726032660448325
 30
0.0
  0
VERTEX
  5
4D41
  8
0
 10
166.7405522887999894
 20
33.7847226539183794
 30
0.0
  0
VERTEX
  5
4D42
  8
0
 10
166.7385280776653929
 20
33.7968410967215505
 30
0.0
  0
VERTEX
  5
4D43
  8
0
 10
166.736214762888693
 20
33.8089584490893529
 30
0.0
  0
VERTEX
  5
4D44
  8
0
 10
166.73494970017029
 20
33.8150166709368705
 30
0.0
  0
VERTEX
  5
4D45
  8
0
 10
166.7336123722182037
 20
33.8210745656698535
 30
0.0
  0
VERTEX
  5
4D46
  8
0
 10
166.7307209368711938
 20
33.8331893011260334
 30
0.0
  0
VERTEX
  5
4D47
  8
0
 10
166.7275404915307888
 20
33.8453025101375715
 30
0.0
  0
VERTEX
  5
4D48
  8
0
 10
166.7240710743481031
 20
33.8574140474021306
 30
0.0
  0
VERTEX
  5
4D49
  8
0
 10
166.72031272693971
 20
33.8695237676377019
 30
0.0
  0
VERTEX
  5
4D4A
  8
0
 10
166.7162654943884093
 20
33.8816315255839982
 30
0.0
  0
VERTEX
  5
4D4B
  8
0
 10
166.7141335612197963
 20
33.8876846233112019
 30
0.0
  0
VERTEX
  5
4D4C
  8
0
 10
166.7119294252420048
 20
33.8937371760042723
 30
0.0
  0
VERTEX
  5
4D4D
  8
0
 10
166.7073045715133048
 20
33.9058405736868806
 30
0.0
  0
VERTEX
  5
4D4E
  8
0
 10
166.7023909886787862
 20
33.9179415734475924
 30
0.0
  0
VERTEX
  5
4D4F
  8
0
 10
166.6971887356789921
 20
33.930040030130499
 30
0.0
  0
VERTEX
  5
4D50
  8
0
 10
166.6916978749165992
 20
33.9421357986105932
 30
0.0
  0
VERTEX
  5
4D51
  8
0
 10
166.6859184722561054
 20
33.954228733794821
 30
0.0
  0
VERTEX
  5
4D52
  8
0
 10
166.6829205892433947
 20
33.9602740935686072
 30
0.0
  0
VERTEX
  5
4D53
  8
0
 10
166.6798505970238864
 20
33.9663186906241208
 30
0.0
  0
VERTEX
  5
4D54
  8
0
 10
166.6734943220058085
 20
33.9784055240754697
 30
0.0
  0
VERTEX
  5
4D55
  8
0
 10
166.6668497234479105
 20
33.9904890891630203
 30
0.0
  0
VERTEX
  5
4D56
  8
0
 10
166.6599168810543858
 20
34.0025692409401472
 30
0.0
  0
VERTEX
  5
4D57
  8
0
 10
166.6526958779869858
 20
34.0146458345013798
 30
0.0
  0
VERTEX
  5
4D58
  8
0
 10
166.6451868008643942
 20
34.0267187249835388
 30
0.0
  0
VERTEX
  5
4D59
  8
0
 10
166.6413242625453108
 20
34.0327537363125501
 30
0.0
  0
VERTEX
  5
4D5A
  8
0
 10
166.6373897397602093
 20
34.0387877675683512
 30
0.0
  0
VERTEX
  5
4D5B
  8
0
 10
166.6293047882033989
 20
34.0508528174832534
 30
0.0
  0
VERTEX
  5
4D5C
  8
0
 10
166.6209320431752872
 20
34.0629137300039702
 30
0.0
  0
VERTEX
  5
4D5D
  8
0
 10
166.6122716051100099
 20
34.0749703604555023
 30
0.0
  0
VERTEX
  5
4D5E
  8
0
 10
166.6033235778926951
 20
34.0870225642144078
 30
0.0
  0
VERTEX
  5
4D5F
  8
0
 10
166.5940880688579
 20
34.0990701967103931
 30
0.0
  0
VERTEX
  5
4D60
  8
0
 10
166.5893625431438068
 20
34.1050922535714633
 30
0.0
  0
VERTEX
  5
4D61
  8
0
 10
166.5845651887887016
 20
34.111113113427912
 30
0.0
  0
VERTEX
  5
4D62
  8
0
 10
166.574755051915389
 20
34.1231511699078283
 30
0.0
  0
VERTEX
  5
4D63
  8
0
 10
166.5646577759140996
 20
34.1351842217496895
 30
0.0
  0
VERTEX
  5
4D64
  8
0
 10
166.5595014984560009
 20
34.141198825822471
 30
0.0
  0
VERTEX
  5
4D65
  8
0
 10
166.5542734819053123
 20
34.1472121246127926
 30
0.0
  0
VERTEX
  5
4D66
  8
0
 10
166.5436022944516026
 20
34.1592347342181029
 30
0.0
  0
VERTEX
  5
4D67
  8
0
 10
166.5326443415582958
 20
34.1712519063504487
 30
0.0
  0
VERTEX
  5
4D68
  8
0
 10
166.5270578690135039
 20
34.1772584083147493
 30
0.0
  0
VERTEX
  5
4D69
  8
0
 10
166.5213997546692895
 20
34.1832634968596878
 30
0.0
  0
VERTEX
  5
4D6A
  8
0
 10
166.5098686686679059
 20
34.1952693616623336
 30
0.0
  0
VERTEX
  5
4D6B
  8
0
 10
166.4980512218727995
 20
34.2072693567441775
 30
0.0
  0
VERTEX
  5
4D6C
  8
0
 10
166.4544371443973887
 20
34.2492210379406288
 30
0.0
  0
VERTEX
  5
4D6D
  8
0
 10
166.3715317281881028
 20
34.3209490677330677
 30
0.0
  0
VERTEX
  5
4D6E
  8
0
 10
166.3262332751652934
 20
34.3567154241773096
 30
0.0
  0
SEQEND
  5
4D6F
  8
0
  0
POLYLINE
  5
43DF
  8
0
 66
     1
 10
0.0
 20
0.0
 30
0.0
  0
VERTEX
  5
4D70
  8
0
 10
166.3262332751652934
 20
34.3567154241773096
 30
0.0
  0
VERTEX
  5
4D71
  8
0
 10
166.2073942973269993
 20
34.4475675512787802
 30
0.0
  0
VERTEX
  5
4D72
  8
0
 10
165.9573030068540902
 20
34.6371051764219828
 30
0.0
  0
VERTEX
  5
4D73
  8
0
 10
165.6947105189912861
 20
34.8341758354578204
 30
0.0
  0
VERTEX
  5
4D74
  8
0
 10
165.558754119241712
 20
34.935486433815413
 30
0.0
  0
VERTEX
  5
4D75
  8
0
 10
165.4200112297210126
 20
35.0383579387776081
 30
0.0
  0
VERTEX
  5
4D76
  8
0
 10
165.1362012719064012
 20
35.2470639042090923
 30
0.0
  0
VERTEX
  5
4D77
  8
0
 10
164.8472602236894886
 20
35.4568792382460671
 30
0.0
  0
VERTEX
  5
4D78
  8
0
 10
164.556997769344008
 20
35.6644772592983372
 30
0.0
  0
VERTEX
  5
4D79
  8
0
 10
164.2691032748739133
 20
35.8666243933096212
 30
0.0
  0
VERTEX
  5
4D7A
  8
0
 10
163.986171874069413
 20
36.060884975080512
 30
0.0
  0
VERTEX
  5
4D7B
  8
0
 10
163.8443937822248984
 20
36.1562982759593297
 30
0.0
  0
VERTEX
  5
4D7C
  8
0
 10
163.7022605534326942
 20
36.2504678255040815
 30
0.0
  0
VERTEX
  5
4D7D
  8
0
 10
163.4189972573927037
 20
36.4330184595228275
 30
0.0
  0
VERTEX
  5
4D7E
  8
0
 10
163.1403452180292959
 20
36.6045205680882191
 30
0.0
  0
VERTEX
  5
4D7F
  8
0
 10
162.9814059237561992
 20
36.697921937132719
 30
0.0
  0
VERTEX
  5
4D80
  8
0
 10
162.9366123465246972
 20
36.7235720172909623
 30
0.0
  0
VERTEX
  5
4D81
  8
0
 10
162.8921221831178059
 20
36.7487305385905074
 30
0.0
  0
VERTEX
  5
4D82
  8
0
 10
162.8699956788308896
 20
36.7611202520291727
 30
0.0
  0
VERTEX
  5
4D83
  8
0
 10
162.8479507470323995
 20
36.7733808463850735
 30
0.0
  0
VERTEX
  5
4D84
  8
0
 10
162.8041130446844988
 20
36.7975064959965721
 30
0.0
  0
VERTEX
  5
4D85
  8
0
 10
162.7606237555899042
 20
36.8210912643271513
 30
0.0
  0
VERTEX
  5
4D86
  8
0
 10
162.7174971487974915
 20
36.8441191942868116
 30
0.0
  0
VERTEX
  5
4D87
  8
0
 10
162.6747431670038964
 20
36.8665766306344267
 30
0.0
  0
VERTEX
  5
4D88
  8
0
 10
162.6323733574089943
 20
36.8884490011753314
 30
0.0
  0
VERTEX
  5
4D89
  8
0
 10
162.6113368585704109
 20
36.8991608519722902
 30
0.0
  0
VERTEX
  5
4D8A
  8
0
 10
162.5904015886773948
 20
36.9097205341915924
 30
0.0
  0
VERTEX
  5
4D8B
  8
0
 10
162.5488415322718083
 20
36.9303756207784772
 30
0.0
  0
VERTEX
  5
4D8C
  8
0
 10
162.5077066388145965
 20
36.9503988339172409
 30
0.0
  0
VERTEX
  5
4D8D
  8
0
 10
162.4670101143624095
 20
36.9697749470284407
 30
0.0
  0
VERTEX
  5
4D8E
  8
0
 10
162.4267648965968931
 20
36.9884889518946167
 30
0.0
  0
VERTEX
  5
4D8F
  8
0
 10
162.3869836309654033
 20
37.0065260758157066
 30
0.0
  0
VERTEX
  5
4D90
  8
0
 10
162.3672708461180889
 20
37.015286259369077
 30
0.0
  0
VERTEX
  5
4D91
  8
0
 10
162.3476786468050079
 20
37.0238717978423892
 30
0.0
  0
VERTEX
  5
4D92
  8
0
 10
162.3088619335094052
 20
37.0405118639055217
 30
0.0
  0
VERTEX
  5
4D93
  8
0
 10
162.270545116812599
 20
37.0564323006343628
 30
0.0
  0
VERTEX
  5
4D94
  8
0
 10
162.2515776975014887
 20
37.0641183711309168
 30
0.0
  0
VERTEX
  5
4D95
  8
0
 10
162.2327394352818999
 20
37.0716194276349071
 30
0.0
  0
VERTEX
  5
4D96
  8
0
 10
162.1954557171347915
 20
37.0860598679671511
 30
0.0
  0
VERTEX
  5
4D97
  8
0
 10
162.1587043575129883
 20
37.0997405565395866
 30
0.0
  0
VERTEX
  5
4D98
  8
0
 10
162.1405314367553103
 20
37.1062919978767312
 30
0.0
  0
VERTEX
  5
4D99
  8
0
 10
162.1224952962936072
 20
37.112648746136081
 30
0.0
  0
VERTEX
  5
4D9A
  8
0
 10
162.0868380188173887
 20
37.124772003372982
 30
0.0
  0
VERTEX
  5
4D9B
  8
0
 10
162.0517416897334897
 20
37.1360981624503665
 30
0.0
  0
VERTEX
  5
4D9C
  8
0
 10
162.0172152254837954
 20
37.1466153113403834
 30
0.0
  0
VERTEX
  5
4D9D
  8
0
 10
161.9832672673080083
 20
37.1563118150509126
 30
0.0
  0
VERTEX
  5
4D9E
  8
0
 10
161.9499061501539927
 20
37.1651763390386805
 30
0.0
  0
VERTEX
  5
4D9F
  8
0
 10
161.9334481703662902
 20
37.1692931541107399
 30
0.0
  0
VERTEX
  5
4DA0
  8
0
 10
161.9171398722085087
 20
37.1731978708437509
 30
0.0
  0
VERTEX
  5
4DA1
  8
0
 10
161.8849760651866916
 20
37.1803657396666267
 30
0.0
  0
VERTEX
  5
4DA2
  8
0
 10
161.8534219655296056
 20
37.1866696335868099
 30
0.0
  0
VERTEX
  5
4DA3
  8
0
 10
161.8224843866817082
 20
37.1920996141034266
 30
0.0
  0
VERTEX
  5
4DA4
  8
0
 10
161.7921696926308925
 20
37.1966461276588234
 30
0.0
  0
VERTEX
  5
4DA5
  8
0
 10
161.7624837729125886
 20
37.2003000137917823
 30
0.0
  0
VERTEX
  5
4DA6
  8
0
 10
161.7478783083971905
 20
37.2017894675873322
 30
0.0
  0
VERTEX
  5
4DA7
  8
0
 10
161.7334320192871928
 20
37.2030525095532312
 30
0.0
  0
VERTEX
  5
4DA8
  8
0
 10
161.7050193043187107
 20
37.2048952498133829
 30
0.0
  0
VERTEX
  5
4DA9
  8
0
 10
161.6772499620873873
 20
37.2058202630844406
 30
0.0
  0
VERTEX
  5
4DAA
  8
0
 10
161.6636077586906026
 20
37.2059362365283732
 30
0.0
  0
SEQEND
  5
4DAB
  8
0
  0
LINE
  5
43E0
  8
0
 10
169.9376178250049065
 20
30.2059362365283803
 30
0.0
 11
161.6636077586906026
 21
30.2059362365283803
 31
0.0
  0
POLYLINE
  5
43E1
  8
0
 66
     1
 10
0.0
 20
0.0
 30
0.0
  0
VERTEX
  5
4DAC
  8
0
 10
169.9376178250049065
 20
30.2059362365283803
 30
0.0
  0
VERTEX
  5
4DAD
  8
0
 10
169.7528131647383987
 20
30.10853010020708
 30
0.0
  0
VERTEX
  5
4DAE
  8
0
 10
169.2330511976952039
 20
29.9141969633828886
 30
0.0
  0
VERTEX
  5
4DAF
  8
0
 10
168.5137443380303921
 20
29.720737520901821
 30
0.0
  0
VERTEX
  5
4DB0
  8
0
 10
168.079576419247303
 20
29.6244232054008307
 30
0.0
  0
SEQEND
  5
4DB1
  8
0
  0
POLYLINE
  5
43E2
  8
0
 66
     1
 10
0.0
 20
0.0
 30
0.0
  0
VERTEX
  5
4DB2
  8
0
 10
158.1219840780175048
 20
29.7079224949137597
 30
0.0
  0
VERTEX
  5
4DB3
  8
0
 10
158.1222495877024983
 20
29.7104886787859712
 30
0.0
  0
VERTEX
  5
4DB4
  8
0
 10
158.1243735717090999
 20
29.7156204442439993
 30
0.0
  0
VERTEX
  5
4DB5
  8
0
 10
158.1286210412206117
 20
29.7207504029837608
 30
0.0
  0
VERTEX
  5
4DB6
  8
0
 10
158.1315407909764872
 20
29.7233143285574215
 30
0.0
  0
VERTEX
  5
4DB7
  8
0
 10
158.1349909993506913
 20
29.7258773509972798
 30
0.0
  0
VERTEX
  5
4DB8
  8
0
 10
158.1434819510621139
 20
29.7310000849837515
 30
0.0
  0
VERTEX
  5
4DB9
  8
0
 10
158.1540919035178092
 20
29.7361174026309492
 30
0.0
  0
VERTEX
  5
4DBA
  8
0
 10
158.1668183665489948
 20
29.7412281028979386
 30
0.0
  0
VERTEX
  5
4DBB
  8
0
 10
158.1816583532383902
 20
29.7463309862971492
 30
0.0
  0
VERTEX
  5
4DBC
  8
0
 10
158.1986083806229999
 20
29.7514248551754008
 30
0.0
  0
VERTEX
  5
4DBD
  8
0
 10
158.207873435710809
 20
29.7539680354733491
 30
0.0
  0
VERTEX
  5
4DBE
  8
0
 10
158.2176644705097885
 20
29.7565085139951897
 30
0.0
  0
VERTEX
  5
4DBF
  8
0
 10
158.2388221504110959
 20
29.7615807696155308
 30
0.0
  0
VERTEX
  5
4DC0
  8
0
 10
158.2620764545924885
 20
29.7666404315717692
 30
0.0
  0
VERTEX
  5
4DC1
  8
0
 10
158.2874219252400962
 20
29.771686312354749
 30
0.0
  0
VERTEX
  5
4DC2
  8
0
 10
158.3148526137399017
 20
29.7767172276899217
 30
0.0
  0
VERTEX
  5
4DC3
  8
0
 10
158.3443620820752926
 20
29.7817319968153313
 30
0.0
  0
VERTEX
  5
4DC4
  8
0
 10
158.3598942133492073
 20
29.7842329585897687
 30
0.0
  0
VERTEX
  5
4DC5
  8
0
 10
158.3759434043367946
 20
29.7867294427583182
 30
0.0
  0
VERTEX
  5
4DC6
  8
0
 10
158.4095891683489015
 20
29.7917083926120085
 30
0.0
  0
VERTEX
  5
4DC7
  8
0
 10
158.4452914774084888
 20
29.7966676778106603
 30
0.0
  0
VERTEX
  5
4DC8
  8
0
 10
158.4639112365775873
 20
29.7991395822422191
 30
0.0
  0
SEQEND
  5
4DC9
  8
0
  0
LINE
  5
43E3
  8
0
 10
158.4639112365775873
 20
29.7991395822422191
 30
0.0
 11
161.3003200227510092
 21
30.1701940331116703
 31
0.0
  0
POLYLINE
  5
43E4
  8
0
 66
     1
 10
0.0
 20
0.0
 30
0.0
  0
VERTEX
  5
4DCA
  8
0
 10
161.3003200227510092
 20
30.1701940331116703
 30
0.0
  0
VERTEX
  5
4DCB
  8
0
 10
161.3495058835509894
 20
30.1763004051063
 30
0.0
  0
VERTEX
  5
4DCC
  8
0
 10
161.4616496643938888
 20
30.1883480737275285
 30
0.0
  0
VERTEX
  5
4DCD
  8
0
 10
161.5918564505232098
 20
30.2001441587098007
 30
0.0
  0
VERTEX
  5
4DCE
  8
0
 10
161.6636077586906026
 20
30.2059362365283803
 30
0.0
  0
SEQEND
  5
4DCF
  8
0
  0
POLYLINE
  5
43E5
  8
0
 66
     1
 10
0.0
 20
0.0
 30
0.0
  0
VERTEX
  5
4DD0
  8
0
 10
168.079576419247303
 20
29.6244232054008307
 30
0.0
  0
VERTEX
  5
4DD1
  8
0
 10
168.0740994415081957
 20
29.6233725458714616
 30
0.0
  0
VERTEX
  5
4DD2
  8
0
 10
168.0631548585253938
 20
29.6218510427174806
 30
0.0
  0
VERTEX
  5
4DD3
  8
0
 10
168.052226119193989
 20
29.6210949535544614
 30
0.0
  0
VERTEX
  5
4DD4
  8
0
 10
168.0467689550002888
 20
29.621000914545899
 30
0.0
  0
SEQEND
  5
4DD5
  8
0
  0
LINE
  5
43E6
  8
0
 10
158.1219840780175048
 20
29.621000914545899
 30
0.0
 11
158.1219840780175048
 21
37.790871558510851
 31
0.0
  0
POLYLINE
  5
43E7
  8
0
 66
     1
 10
0.0
 20
0.0
 30
0.0
  0
VERTEX
  5
4DD6
  8
0
 10
162.7161902803590863
 20
40.7059362365283732
 30
0.0
  0
VERTEX
  5
4DD7
  8
0
 10
162.7600187983520925
 20
40.7047633198212679
 30
0.0
  0
VERTEX
  5
4DD8
  8
0
 10
162.846581147194911
 20
40.6954820532005215
 30
0.0
  0
VERTEX
  5
4DD9
  8
0
 10
162.9314969596964033
 20
40.6772150653530389
 30
0.0
  0
VERTEX
  5
4DDA
  8
0
 10
162.9732692980533102
 20
40.6648256327929403
 30
0.0
  0
VERTEX
  5
4DDB
  8
0
 10
163.0146393908383118
 20
40.6503004946255189
 30
0.0
  0
VERTEX
  5
4DDC
  8
0
 10
163.0975356196620112
 20
40.6142982635194585
 30
0.0
  0
VERTEX
  5
4DDD
  8
0
 10
163.1805840132713001
 20
40.5687324210626912
 30
0.0
  0
VERTEX
  5
4DDE
  8
0
 10
163.263501580785686
 20
40.5133843239420912
 30
0.0
  0
VERTEX
  5
4DDF
  8
0
 10
163.3460152011091111
 20
40.448105652094327
 30
0.0
  0
VERTEX
  5
4DE0
  8
0
 10
163.4278652524895108
 20
40.3728147968737403
 30
0.0
  0
VERTEX
  5
4DE1
  8
0
 10
163.4684645093776965
 20
40.3314064858599295
 30
0.0
  0
VERTEX
  5
4DE2
  8
0
 10
163.5088068772346901
 20
40.2874933590372777
 30
0.0
  0
VERTEX
  5
4DE3
  8
0
 10
163.5886047294600019
 20
40.1921899848569026
 30
0.0
  0
VERTEX
  5
4DE4
  8
0
 10
163.6670328931112977
 20
40.0870216563538406
 30
0.0
  0
VERTEX
  5
4DE5
  8
0
 10
163.7438782013672949
 20
39.9721703045295271
 30
0.0
  0
VERTEX
  5
4DE6
  8
0
 10
163.8189483362367866
 20
39.8478685126471035
 30
0.0
  0
VERTEX
  5
4DE7
  8
0
 10
163.892091176950089
 20
39.7143556174344212
 30
0.0
  0
VERTEX
  5
4DE8
  8
0
 10
163.9278870218618067
 20
39.6442481350484286
 30
0.0
  0
VERTEX
  5
4DE9
  8
0
 10
163.9631378908084116
 20
39.5719716899144487
 30
0.0
  0
VERTEX
  5
4DEA
  8
0
 10
164.0319258418186905
 20
39.4211309337248395
 30
0.0
  0
VERTEX
  5
4DEB
  8
0
 10
164.0983069755683914
 20
39.2623080077602324
 30
0.0
  0
VERTEX
  5
4DEC
  8
0
 10
164.1305533792931044
 20
39.180066289235242
 30
0.0
  0
SEQEND
  5
4DED
  8
0
  0
POLYLINE
  5
43E8
  8
0
 66
     1
 10
0.0
 20
0.0
 30
0.0
  0
VERTEX
  5
4DEE
  8
0
 10
164.1305533792931044
 20
28.2318061838215115
 30
0.0
  0
VERTEX
  5
4DEF
  8
0
 10
164.0983069755677093
 20
28.1495644652944783
 30
0.0
  0
VERTEX
  5
4DF0
  8
0
 10
164.0319258418180084
 20
27.9907415393300916
 30
0.0
  0
VERTEX
  5
4DF1
  8
0
 10
163.9631378908077011
 20
27.8399007831407097
 30
0.0
  0
VERTEX
  5
4DF2
  8
0
 10
163.9278870218610962
 20
27.7676243380068399
 30
0.0
  0
VERTEX
  5
4DF3
  8
0
 10
163.8920911769494069
 20
27.697516855620961
 30
0.0
  0
VERTEX
  5
4DF4
  8
0
 10
163.8189483362359056
 20
27.5640039604083995
 30
0.0
  0
VERTEX
  5
4DF5
  8
0
 10
163.7438782013666128
 20
27.4397021685261997
 30
0.0
  0
VERTEX
  5
4DF6
  8
0
 10
163.6670328931108997
 20
27.3248508167019999
 30
0.0
  0
VERTEX
  5
4DF7
  8
0
 10
163.5886047294594903
 20
27.2196824881990516
 30
0.0
  0
VERTEX
  5
4DF8
  8
0
 10
163.508806877234008
 20
27.1243791140188897
 30
0.0
  0
VERTEX
  5
4DF9
  8
0
 10
163.4684645093772986
 20
27.0804659871962485
 30
0.0
  0
VERTEX
  5
4DFA
  8
0
 10
163.4278652524889992
 20
27.0390576761825514
 30
0.0
  0
VERTEX
  5
4DFB
  8
0
 10
163.3460152011087132
 20
26.9637668209620607
 30
0.0
  0
VERTEX
  5
4DFC
  8
0
 10
163.2635015807852028
 20
26.8984881491143213
 30
0.0
  0
VERTEX
  5
4DFD
  8
0
 10
163.1805840132707885
 20
26.8431400519938315
 30
0.0
  0
VERTEX
  5
4DFE
  8
0
 10
163.0975356196618122
 20
26.7975742095371814
 30
0.0
  0
VERTEX
  5
4DFF
  8
0
 10
163.0146393908379991
 20
26.7615719784311104
 30
0.0
  0
VERTEX
  5
4E00
  8
0
 10
162.9732692980531112
 20
26.7470468402636889
 30
0.0
  0
VERTEX
  5
4E01
  8
0
 10
162.9314969596964033
 20
26.7346574077037111
 30
0.0
  0
VERTEX
  5
4E02
  8
0
 10
162.846581147194911
 20
26.7163904198562285
 30
0.0
  0
VERTEX
  5
4E03
  8
0
 10
162.7600187983520925
 20
26.7071091532354785
 30
0.0
  0
VERTEX
  5
4E04
  8
0
 10
162.7161902803590863
 20
26.7059362365283803
 30
0.0
  0
SEQEND
  5
4E05
  8
0
  0
POLYLINE
  5
43E9
  8
0
 66
     1
 10
0.0
 20
0.0
 30
0.0
  0
VERTEX
  5
4E06
  8
0
 10
168.0467689550002888
 20
37.790871558510851
 30
0.0
  0
VERTEX
  5
4E07
  8
0
 10
168.052226119193989
 20
37.7907775195022921
 30
0.0
  0
VERTEX
  5
4E08
  8
0
 10
168.0631548585253938
 20
37.790021430339273
 30
0.0
  0
VERTEX
  5
4E09
  8
0
 10
168.0740994415081957
 20
37.7884999271852919
 30
0.0
  0
VERTEX
  5
4E0A
  8
0
 10
168.079576419247303
 20
37.7874492676559228
 30
0.0
  0
SEQEND
  5
4E0B
  8
0
  0
POLYLINE
  5
43EA
  8
0
 66
     1
 10
0.0
 20
0.0
 30
0.0
  0
VERTEX
  5
4E0C
  8
0
 10
158.1219840780175048
 20
37.4513721084006193
 30
0.0
  0
VERTEX
  5
4E0D
  8
0
 10
158.121627612320907
 20
37.443543072428497
 30
0.0
  0
VERTEX
  5
4E0E
  8
0
 10
158.1187552659195887
 20
37.4284706177666067
 30
0.0
  0
VERTEX
  5
4E0F
  8
0
 10
158.1129604650080012
 20
37.4141996757613313
 30
0.0
  0
VERTEX
  5
4E10
  8
0
 10
158.1089521119876906
 20
37.4073720074619587
 30
0.0
  0
VERTEX
  5
4E11
  8
0
 10
158.1041957439003909
 20
37.4007531114696192
 30
0.0
  0
VERTEX
  5
4E12
  8
0
 10
158.0924187487254926
 20
37.3881514550663496
 30
0.0
  0
VERTEX
  5
4E13
  8
0
 10
158.0775922681972929
 20
37.3764128182060631
 30
0.0
  0
VERTEX
  5
4E14
  8
0
 10
158.0596842182843886
 20
37.3655528308020166
 30
0.0
  0
VERTEX
  5
4E15
  8
0
 10
158.0386675799209115
 20
37.355584598307253
 30
0.0
  0
VERTEX
  5
4E16
  8
0
 10
158.0145202886523919
 20
37.3465186795560911
 30
0.0
  0
VERTEX
  5
4E17
  8
0
 10
158.0012670695421093
 20
37.3423266903158719
 30
0.0
  0
VERTEX
  5
4E18
  8
0
 10
157.9872250749137947
 20
37.3383630851714088
 30
0.0
  0
VERTEX
  5
4E19
  8
0
 10
157.9567692534963044
 20
37.3311232964823603
 30
0.0
  0
VERTEX
  5
4E1A
  8
0
 10
157.9231444933768103
 20
37.3248023102398818
 30
0.0
  0
VERTEX
  5
4E1B
  8
0
 10
157.8863469631965017
 20
37.3194007513341219
 30
0.0
  0
VERTEX
  5
4E1C
  8
0
 10
157.8463776920200132
 20
37.3149169459067025
 30
0.0
  0
VERTEX
  5
4E1D
  8
0
 10
157.8032426120446132
 20
37.3113469093874528
 30
0.0
  0
VERTEX
  5
4E1E
  8
0
 10
157.7804910796552917
 20
37.3099026768161366
 30
0.0
  0
VERTEX
  5
4E1F
  8
0
 10
157.7569525200391922
 20
37.3086843456061388
 30
0.0
  0
VERTEX
  5
4E20
  8
0
 10
157.7075229962466949
 20
37.3069206662014494
 30
0.0
  0
VERTEX
  5
4E21
  8
0
 10
157.654974281449995
 20
37.3060450294206021
 30
0.0
  0
VERTEX
  5
4E22
  8
0
 10
157.6275377874482899
 20
37.3059362365284031
 30
0.0
  0
SEQEND
  5
4E23
  8
0
  0
POLYLINE
  5
43EB
  8
0
 66
     1
 10
0.0
 20
0.0
 30
0.0
  0
VERTEX
  5
4E24
  8
0
 10
157.6275377874482899
 20
37.3059362365284031
 30
0.0
  0
VERTEX
  5
4E25
  8
0
 10
157.595423878351113
 20
37.3060758613173675
 30
0.0
  0
VERTEX
  5
4E26
  8
0
 10
157.5282347732814117
 20
37.307183870812537
 30
0.0
  0
VERTEX
  5
4E27
  8
0
 10
157.457139052211204
 20
37.3093752005794386
 30
0.0
  0
VERTEX
  5
4E28
  8
0
 10
157.4201425975896029
 20
37.3108682638570599
 30
0.0
  0
SEQEND
  5
4E29
  8
0
  0
POLYLINE
  5
43EC
  8
0
 66
     1
 10
0.0
 20
0.0
 30
0.0
  0
VERTEX
  5
4E2A
  8
0
 10
164.1305533792931044
 20
39.180066289235242
 30
0.0
  0
VERTEX
  5
4E2B
  8
0
 10
164.386263517401801
 20
38.8806750019834908
 30
0.0
  0
VERTEX
  5
4E2C
  8
0
 10
164.8811146435174919
 20
38.3641805788404326
 30
0.0
  0
VERTEX
  5
4E2D
  8
0
 10
165.3497523481900942
 20
37.9566308690928125
 30
0.0
  0
VERTEX
  5
4E2E
  8
0
 10
165.5758048376171985
 20
37.7907506880260371
 30
0.0
  0
SEQEND
  5
4E2F
  8
0
  0
LINE
  5
43ED
  8
0
 10
143.1219840780175048
 20
27.2059362365283697
 30
0.0
 11
143.1219840780175048
 21
40.2059362365283732
 31
0.0
  0
LINE
  5
43EE
  8
0
 10
153.6219840780175048
 20
40.7059362365283732
 30
0.0
 11
153.6219840780175048
 21
26.7059362365283803
 31
0.0
  0
POLYLINE
  5
43EF
  8
0
 66
     1
 10
0.0
 20
0.0
 30
0.0
  0
VERTEX
  5
4E30
  8
0
 10
157.4201425975896029
 20
37.3108682638570599
 30
0.0
  0
VERTEX
  5
4E31
  8
0
 10
157.3275018219599133
 20
37.3156733520578427
 30
0.0
  0
VERTEX
  5
4E32
  8
0
 10
157.1392230088746942
 20
37.3301880498380569
 30
0.0
  0
VERTEX
  5
4E33
  8
0
 10
156.9470733494621868
 20
37.3512826535389877
 30
0.0
  0
VERTEX
  5
4E34
  8
0
 10
156.8495966349634898
 20
37.3643070452158099
 30
0.0
  0
VERTEX
  5
4E35
  8
0
 10
156.7512134309347118
 20
37.3789849805449421
 30
0.0
  0
VERTEX
  5
4E36
  8
0
 10
156.5518164532313108
 20
37.4132990390535269
 30
0.0
  0
VERTEX
  5
4E37
  8
0
 10
156.3490675241812085
 20
37.4542052762272988
 30
0.0
  0
VERTEX
  5
4E38
  8
0
 10
156.1431629189389128
 20
37.5016609820285112
 30
0.0
  0
VERTEX
  5
4E39
  8
0
 10
155.9343092763139964
 20
37.5556008396832794
 30
0.0
  0
VERTEX
  5
4E3A
  8
0
 10
155.7227222833055009
 20
37.6159377468211531
 30
0.0
  0
VERTEX
  5
4E3B
  8
0
 10
155.615968264757413
 20
37.6484737370611811
 30
0.0
  0
VERTEX
  5
4E3C
  8
0
 10
155.5086092056907887
 20
37.6825690455733593
 30
0.0
  0
VERTEX
  5
4E3D
  8
0
 10
155.2921949427604886
 20
37.7553701288884511
 30
0.0
  0
VERTEX
  5
4E3E
  8
0
 10
155.0737242868601129
 20
37.8341929088808229
 30
0.0
  0
VERTEX
  5
4E3F
  8
0
 10
154.8534523559468994
 20
37.9188687135331293
 30
0.0
  0
VERTEX
  5
4E40
  8
0
 10
154.6316437003293061
 20
38.0092089225714815
 30
0.0
  0
VERTEX
  5
4E41
  8
0
 10
154.4085713886732094
 20
38.1050056950761018
 30
0.0
  0
VERTEX
  5
4E42
  8
0
 10
154.2966487942453
 20
38.1548802849910089
 30
0.0
  0
VERTEX
  5
4E43
  8
0
 10
154.1845160613927135
 20
38.2060327849078476
 30
0.0
  0
VERTEX
  5
4E44
  8
0
 10
153.9597649890046966
 20
38.3120464196575767
 30
0.0
  0
VERTEX
  5
4E45
  8
0
 10
153.7346143772552125
 20
38.422784606484008
 30
0.0
  0
VERTEX
  5
4E46
  8
0
 10
153.6219840780175048
 20
38.4798386858713002
 30
0.0
  0
SEQEND
  5
4E47
  8
0
  0
POLYLINE
  5
43F0
  8
0
 66
     1
 10
0.0
 20
0.0
 30
0.0
  0
VERTEX
  5
4E48
  8
0
 10
153.6219840780175048
 20
28.93203378718556
 30
0.0
  0
VERTEX
  5
4E49
  8
0
 10
153.7346143772552125
 20
28.9890878665727314
 30
0.0
  0
VERTEX
  5
4E4A
  8
0
 10
153.9597649890046966
 20
29.0998260533991697
 30
0.0
  0
VERTEX
  5
4E4B
  8
0
 10
154.1845160613927135
 20
29.205839688149009
 30
0.0
  0
VERTEX
  5
4E4C
  8
0
 10
154.2966487942453
 20
29.2569921880657411
 30
0.0
  0
VERTEX
  5
4E4D
  8
0
 10
154.4085713886728968
 20
29.3068667779806411
 30
0.0
  0
VERTEX
  5
4E4E
  8
0
 10
154.6316437003293061
 20
29.4026635504852685
 30
0.0
  0
VERTEX
  5
4E4F
  8
0
 10
154.8534523559468994
 20
29.4930037595236207
 30
0.0
  0
VERTEX
  5
4E50
  8
0
 10
155.0737242868601129
 20
29.5776795641759307
 30
0.0
  0
VERTEX
  5
4E51
  8
0
 10
155.2921949427604886
 20
29.6565023441682989
 30
0.0
  0
VERTEX
  5
4E52
  8
0
 10
155.5086092056907887
 20
29.7293034274833907
 30
0.0
  0
VERTEX
  5
4E53
  8
0
 10
155.615968264757413
 20
29.7633987359956791
 30
0.0
  0
VERTEX
  5
4E54
  8
0
 10
155.7227222833055009
 20
29.7959347262357213
 30
0.0
  0
VERTEX
  5
4E55
  8
0
 10
155.9343092763139964
 20
29.8562716333735807
 30
0.0
  0
VERTEX
  5
4E56
  8
0
 10
156.1431629189389128
 20
29.9102114910282388
 30
0.0
  0
VERTEX
  5
4E57
  8
0
 10
156.3490675241812085
 20
29.9576671968294512
 30
0.0
  0
VERTEX
  5
4E58
  8
0
 10
156.5518164532313108
 20
29.9985734340032195
 30
0.0
  0
VERTEX
  5
4E59
  8
0
 10
156.7512134309347118
 20
30.0328874925118114
 30
0.0
  0
VERTEX
  5
4E5A
  8
0
 10
156.8495966349634898
 20
30.0475654278409401
 30
0.0
  0
VERTEX
  5
4E5B
  8
0
 10
156.9470733494621868
 20
30.0605898195177588
 30
0.0
  0
VERTEX
  5
4E5C
  8
0
 10
157.1392230088746942
 20
30.0816844232186895
 30
0.0
  0
VERTEX
  5
4E5D
  8
0
 10
157.3275018219599133
 20
30.0961991209989002
 30
0.0
  0
VERTEX
  5
4E5E
  8
0
 10
157.4201425975896029
 20
30.1010042091998002
 30
0.0
  0
SEQEND
  5
4E5F
  8
0
  0
LINE
  5
43F1
  8
0
 10
139.1219840780175048
 20
38.4059362365284187
 30
0.0
 11
139.1219840780175048
 21
29.0059362365283313
 31
0.0
  0
LINE
  5
43F2
  8
0
 10
139.4219840780176014
 20
38.7059362365283732
 30
0.0
 11
139.4219840780176014
 21
28.7059362365283697
 31
0.0
  0
LINE
  5
43F3
  8
1
 10
172.9890254970337082
 20
33.7059362365283732
 30
0.0
 11
95.8219840780172945
 21
33.7059362365283732
 31
0.0
  0
LINE
  5
43F4
  8
1
 10
95.8219840780170671
 20
103.6802909949999929
 30
0.0
 11
166.6219840780173911
 21
103.6802909949999929
 31
0.0
  0
LINE
  5
43F5
  8
0
 10
167.971122303013999
 20
63.6802909949999218
 30
0.0
 11
166.746661412337005
 21
63.6802909949999218
 31
0.0
  0
LINE
  5
43F6
  8
0
 10
153.6219840780175048
 20
97.1902909949999128
 30
0.0
 11
143.1219840780175048
 21
97.1902909949999128
 31
0.0
  0
LINE
  5
43F7
  8
0
 10
143.2719614263070866
 20
110.1902909949998985
 30
0.0
 11
157.9093098515540987
 21
110.1902909949998985
 31
0.0
  0
LINE
  5
43F8
  8
0
 10
139.1219840780175048
 20
108.3802909949998963
 30
0.0
 11
139.4219840780174025
 21
108.6802909949998934
 31
0.0
  0
LINE
  5
43F9
  8
0
 10
139.4219840780174025
 20
98.6802909949999218
 30
0.0
 11
139.1219840780175048
 21
98.9802909949998764
 31
0.0
  0
LINE
  5
43FA
  8
0
 10
161.1629073657150002
 20
107.9802909949999048
 30
0.0
 11
163.6219840780175048
 21
107.9802909949999048
 31
0.0
  0
LINE
  5
43FB
  8
0
 10
139.4219840780174025
 20
108.6802909949998934
 30
0.0
 11
143.1219840780175048
 21
108.6802909949998934
 31
0.0
  0
LINE
  5
43FC
  8
0
 10
143.1219840780175048
 20
98.6802909949999218
 30
0.0
 11
139.4219840780174025
 21
98.6802909949999218
 31
0.0
  0
POLYLINE
  5
43FD
  8
0
 66
     1
 10
0.0
 20
0.0
 30
0.0
  0
VERTEX
  5
4E60
  8
0
 10
167.8964631052760978
 20
83.9036697950913037
 30
0.0
  0
VERTEX
  5
4E61
  8
0
 10
167.8138351882315931
 20
84.3477962218986193
 30
0.0
  0
VERTEX
  5
4E62
  8
0
 10
167.6433213330003014
 20
85.2399297040273893
 30
0.0
  0
VERTEX
  5
4E63
  8
0
 10
167.4660434085353131
 20
86.1354805159082559
 30
0.0
  0
VERTEX
  5
4E64
  8
0
 10
167.3749691693631121
 20
86.5838996504550948
 30
0.0
  0
VERTEX
  5
4E65
  8
0
 10
167.2823186473478927
 20
87.0324730383492664
 30
0.0
  0
VERTEX
  5
4E66
  8
0
 10
167.0924916984199058
 20
87.9290505665286162
 30
0.0
  0
VERTEX
  5
4E67
  8
0
 10
166.8970120645003021
 20
88.8231108151980635
 30
0.0
  0
VERTEX
  5
4E68
  8
0
 10
166.6963894361865073
 20
89.7125395367838507
 30
0.0
  0
VERTEX
  5
4E69
  8
0
 10
166.4911868117090137
 20
90.595241695785802
 30
0.0
  0
VERTEX
  5
4E6A
  8
0
 10
166.2820137903648003
 20
91.4691653124169477
 30
0.0
  0
VERTEX
  5
4E6B
  8
0
 10
166.1761417171044002
 20
91.9022032945312901
 30
0.0
  0
VERTEX
  5
4E6C
  8
0
 10
166.0695278824306911
 20
92.3322880169604048
 30
0.0
  0
VERTEX
  5
4E6D
  8
0
 10
165.854440162476692
 20
93.1825876327088451
 30
0.0
  0
VERTEX
  5
4E6E
  8
0
 10
165.6375094080756014
 20
94.0180598665773175
 30
0.0
  0
VERTEX
  5
4E6F
  8
0
 10
165.4195336959041924
 20
94.8367415827533193
 30
0.0
  0
VERTEX
  5
4E70
  8
0
 10
165.1990251543865895
 20
95.6451241123819216
 30
0.0
  0
VERTEX
  5
4E71
  8
0
 10
164.9718503810661048
 20
96.4584555876245844
 30
0.0
  0
VERTEX
  5
4E72
  8
0
 10
164.8558609449715107
 20
96.866498974783525
 30
0.0
  0
VERTEX
  5
4E73
  8
0
 10
164.7383561919509134
 20
97.2751051195487833
 30
0.0
  0
VERTEX
  5
4E74
  8
0
 10
164.4990742568170106
 20
98.0929565953029936
 30
0.0
  0
VERTEX
  5
4E75
  8
0
 10
164.254573937636593
 20
98.9099515867810339
 30
0.0
  0
VERTEX
  5
4E76
  8
0
 10
164.1305533792929054
 20
99.3175051687128132
 30
0.0
  0
SEQEND
  5
4E77
  8
0
  0
LINE
  5
43FE
  8
0
 10
153.6219840780175048
 20
110.1902909949998985
 30
0.0
 11
153.6219840780175048
 21
97.1902909949999128
 31
0.0
  0
POLYLINE
  5
43FF
  8
0
 66
     1
 10
0.0
 20
0.0
 30
0.0
  0
VERTEX
  5
4E78
  8
0
 10
157.4201425975892903
 20
89.4242554376097445
 30
0.0
  0
VERTEX
  5
4E79
  8
0
 10
157.4588400612971952
 20
89.3303298955059546
 30
0.0
  0
VERTEX
  5
4E7A
  8
0
 10
157.533059873802614
 20
89.1412058952106037
 30
0.0
  0
VERTEX
  5
4E7B
  8
0
 10
157.6029956835448047
 20
88.9505195853949715
 30
0.0
  0
VERTEX
  5
4E7C
  8
0
 10
157.6363394277180134
 20
88.8546436523034657
 30
0.0
  0
VERTEX
  5
4E7D
  8
0
 10
157.6685919684238968
 20
88.7584415114443743
 30
0.0
  0
VERTEX
  5
4E7E
  8
0
 10
157.7298013007795987
 20
88.5651472237912856
 30
0.0
  0
VERTEX
  5
4E7F
  8
0
 10
157.7865849123120086
 20
88.3708162316887353
 30
0.0
  0
VERTEX
  5
4E80
  8
0
 10
157.8389131436113075
 20
88.175630910883541
 30
0.0
  0
VERTEX
  5
4E81
  8
0
 10
157.8867657777632019
 20
87.9797753642892246
 30
0.0
  0
VERTEX
  5
4E82
  8
0
 10
157.9301322566903139
 20
87.7834342343448668
 30
0.0
  0
VERTEX
  5
4E83
  8
0
 10
157.9501325559687928
 20
87.6851391204052959
 30
0.0
  0
VERTEX
  5
4E84
  8
0
 10
157.9690117765651109
 20
87.5867914732757242
 30
0.0
  0
VERTEX
  5
4E85
  8
0
 10
158.0034130477122005
 20
87.3900303707975752
 30
0.0
  0
VERTEX
  5
4E86
  8
0
 10
158.0333535465958903
 20
87.1933374939318071
 30
0.0
  0
VERTEX
  5
4E87
  8
0
 10
158.0588596796825982
 20
86.9969036877364346
 30
0.0
  0
VERTEX
  5
4E88
  8
0
 10
158.0799673108379011
 20
86.800922900351992
 30
0.0
  0
VERTEX
  5
4E89
  8
0
 10
158.096722155597007
 20
86.6055909578064558
 30
0.0
  0
VERTEX
  5
4E8A
  8
0
 10
158.103484328566708
 20
86.5082297117860151
 30
0.0
  0
VERTEX
  5
4E8B
  8
0
 10
158.1091800362924005
 20
86.4111043425504874
 30
0.0
  0
VERTEX
  5
4E8C
  8
0
 10
158.1174070022991032
 20
86.2176589759527161
 30
0.0
  0
VERTEX
  5
4E8D
  8
0
 10
158.1214793188626118
 20
86.025449003086095
 30
0.0
  0
VERTEX
  5
4E8E
  8
0
 10
158.1219840780175048
 20
85.9298671746805383
 30
0.0
  0
SEQEND
  5
4E8F
  8
0
  0
POLYLINE
  5
4400
  8
0
 66
     1
 10
0.0
 20
0.0
 30
0.0
  0
VERTEX
  5
4E90
  8
0
 10
167.971122303013999
 20
63.6802909949999218
 30
0.0
  0
VERTEX
  5
4E91
  8
0
 10
167.9714511599644879
 20
63.6803665606668901
 30
0.0
  0
VERTEX
  5
4E92
  8
0
 10
167.9740237151472115
 20
63.6809592405186109
 30
0.0
  0
VERTEX
  5
4E93
  8
0
 10
167.9790119446865901
 20
63.6821162995290422
 30
0.0
  0
VERTEX
  5
4E94
  8
0
 10
167.9823579636058071
 20
63.6828982393882086
 30
0.0
  0
VERTEX
  5
4E95
  8
0
 10
167.9862425345943109
 20
63.6838118878475612
 30
0.0
  0
VERTEX
  5
4E96
  8
0
 10
167.9955395472977955
 20
63.6860241153172808
 30
0.0
  0
VERTEX
  5
4E97
  8
0
 10
168.0067308339428109
 20
63.6887350497395133
 30
0.0
  0
VERTEX
  5
4E98
  8
0
 10
168.0196523596360123
 20
63.6919304963267621
 30
0.0
  0
VERTEX
  5
4E99
  8
0
 10
168.0341504439925018
 20
63.695599561239959
 30
0.0
  0
VERTEX
  5
4E9A
  8
0
 10
168.0500823905850041
 20
63.6997340695957917
 30
0.0
  0
VERTEX
  5
4E9B
  8
0
 10
168.0585443960393945
 20
63.7019738975888927
 30
0.0
  0
VERTEX
  5
4E9C
  8
0
 10
168.0673161306239933
 20
63.7043279320759765
 30
0.0
  0
VERTEX
  5
4E9D
  8
0
 10
168.085729452458196
 20
63.7093765505696581
 30
0.0
  0
VERTEX
  5
4E9E
  8
0
 10
168.105209926649195
 20
63.714876532759007
 30
0.0
  0
VERTEX
  5
4E9F
  8
0
 10
168.1256561908107869
 20
63.7208259301901023
 30
0.0
  0
VERTEX
  5
4EA0
  8
0
 10
168.1469774298427069
 20
63.7272241091992271
 30
0.0
  0
VERTEX
  5
4EA1
  8
0
 10
168.1690920406435907
 20
63.7340714413748728
 30
0.0
  0
VERTEX
  5
4EA2
  8
0
 10
168.1804235505771885
 20
63.7376638575703609
 30
0.0
  0
VERTEX
  5
4EA3
  8
0
 10
168.1919263086890055
 20
63.7413690078894604
 30
0.0
  0
VERTEX
  5
4EA4
  8
0
 10
168.2154132014620131
 20
63.7491183332961882
 30
0.0
  0
VERTEX
  5
4EA5
  8
0
 10
168.2394913268674088
 20
63.7573211567672331
 30
0.0
  0
VERTEX
  5
4EA6
  8
0
 10
168.2517342434495902
 20
63.7615931854688611
 30
0.0
  0
VERTEX
  5
4EA7
  8
0
 10
168.3276300816384889
 20
63.7896230918382514
 30
0.0
  0
VERTEX
  5
4EA8
  8
0
 10
168.4875198282452118
 20
63.8577461921927068
 30
0.0
  0
VERTEX
  5
4EA9
  8
0
 10
168.6509171509651139
 20
63.9410503791955023
 30
0.0
  0
VERTEX
  5
4EAA
  8
0
 10
168.8109413091642068
 20
64.0375619936833971
 30
0.0
  0
VERTEX
  5
4EAB
  8
0
 10
168.9666766773862037
 20
64.1476485990834533
 30
0.0
  0
VERTEX
  5
4EAC
  8
0
 10
169.1233057214460018
 20
64.2772141982860319
 30
0.0
  0
VERTEX
  5
4EAD
  8
0
 10
169.2007020417605929
 20
64.349398848350873
 30
0.0
  0
VERTEX
  5
4EAE
  8
0
 10
169.2134871162652132
 20
64.3619048426635061
 30
0.0
  0
VERTEX
  5
4EAF
  8
0
 10
169.23893764865349
 20
64.3873208906988737
 30
0.0
  0
VERTEX
  5
4EB0
  8
0
 10
169.2642129570585894
 20
64.413272728758642
 30
0.0
  0
VERTEX
  5
4EB1
  8
0
 10
169.2767790668100929
 20
64.426448355569363
 30
0.0
  0
VERTEX
  5
4EB2
  8
0
 10
169.2892944046475066
 20
64.4397564192001653
 30
0.0
  0
VERTEX
  5
4EB3
  8
0
 10
169.3141636540374009
 20
64.4667675942107223
 30
0.0
  0
VERTEX
  5
4EB4
  8
0
 10
169.338802688810091
 20
64.4943014770965135
 30
0.0
  0
VERTEX
  5
4EB5
  8
0
 10
169.3631938353514101
 20
64.5223529074335858
 30
0.0
  0
VERTEX
  5
4EB6
  8
0
 10
169.3873197849187875
 20
64.5509163704606124
 30
0.0
  0
VERTEX
  5
4EB7
  8
0
 10
169.4111636158096985
 20
64.5799860311114742
 30
0.0
  0
VERTEX
  5
4EB8
  8
0
 10
169.4229745618212917
 20
64.5947087863083595
 30
0.0
  0
VERTEX
  5
4EB9
  8
0
 10
169.4347090781178906
 20
64.6095561079345941
 30
0.0
  0
VERTEX
  5
4EBA
  8
0
 10
169.4579410842169978
 20
64.6396215847724704
 30
0.0
  0
VERTEX
  5
4EBB
  8
0
 10
169.4808432462606902
 20
64.6701750503457049
 30
0.0
  0
VERTEX
  5
4EBC
  8
0
 10
169.5033992045385105
 20
64.7012082275893761
 30
0.0
  0
VERTEX
  5
4EBD
  8
0
 10
169.5255928672976893
 20
64.7327122427201118
 30
0.0
  0
VERTEX
  5
4EBE
  8
0
 10
169.5474084410805062
 20
64.7646776376090827
 30
0.0
  0
VERTEX
  5
4EBF
  8
0
 10
169.5581695982336896
 20
64.780830240778144
 30
0.0
  0
VERTEX
  5
4EC0
  8
0
 10
169.5688304612934019
 20
64.7970943853647157
 30
0.0
  0
VERTEX
  5
4EC1
  8
0
 10
169.5898438229721137
 20
64.8299519095324541
 30
0.0
  0
VERTEX
  5
4EC2
  8
0
 10
169.6104338116473969
 20
64.8632391073548149
 30
0.0
  0
VERTEX
  5
4EC3
  8
0
 10
169.6305861342027015
 20
64.8969443775712023
 30
0.0
  0
VERTEX
  5
4EC4
  8
0
 10
169.6502869495579944
 20
64.9310556532691123
 30
0.0
  0
VERTEX
  5
4EC5
  8
0
 10
169.6695228990041926
 20
64.9655604403719451
 30
0.0
  0
VERTEX
  5
4EC6
  8
0
 10
169.6789625132387016
 20
64.9829563896050502
 30
0.0
  0
VERTEX
  5
4EC7
  8
0
 10
169.6882811264327131
 20
65.0004458443533792
 30
0.0
  0
VERTEX
  5
4EC8
  8
0
 10
169.7065492033289047
 20
65.0356984142049157
 30
0.0
  0
VERTEX
  5
4EC9
  8
0
 10
169.7243150746928109
 20
65.0713039907369364
 30
0.0
  0
VERTEX
  5
4ECA
  8
0
 10
169.7415670979193862
 20
65.1072477152646059
 30
0.0
  0
VERTEX
  5
4ECB
  8
0
 10
169.7582940881449929
 20
65.143514055167401
 30
0.0
  0
VERTEX
  5
4ECC
  8
0
 10
169.7744853629293971
 20
65.1800868346012692
 30
0.0
  0
VERTEX
  5
4ECD
  8
0
 10
169.782376916946987
 20
65.1984829171422859
 30
0.0
  0
VERTEX
  5
4ECE
  8
0
 10
169.7901307860360873
 20
65.2169492709019352
 30
0.0
  0
VERTEX
  5
4ECF
  8
0
 10
169.8052208100201881
 20
65.2540840172569858
 30
0.0
  0
VERTEX
  5
4ED0
  8
0
 10
169.8197465172817999
 20
65.2914732122471548
 30
0.0
  0
VERTEX
  5
4ED1
  8
0
 10
169.833699659181093
 20
65.3290985368940653
 30
0.0
  0
VERTEX
  5
4ED2
  8
0
 10
169.8470726927484975
 20
65.3669412798634255
 30
0.0
  0
VERTEX
  5
4ED3
  8
0
 10
169.8599211332420964
 20
65.4051726962725013
 30
0.0
  0
VERTEX
  5
4ED4
  8
0
 10
169.8661849279226033
 20
65.4245575740050924
 30
0.0
  0
VERTEX
  5
4ED5
  8
0
 10
169.8723368788195955
 20
65.4441206503404089
 30
0.0
  0
VERTEX
  5
4ED6
  8
0
 10
169.8842883075211887
 20
65.4837696745356368
 30
0.0
  0
VERTEX
  5
4ED7
  8
0
 10
169.8957421221695938
 20
65.5240955367209779
 30
0.0
  0
VERTEX
  5
4ED8
  8
0
 10
169.9012722920938074
 20
65.5445043805219427
 30
0.0
  0
VERTEX
  5
4ED9
  8
0
 10
169.9066660347563982
 20
65.5650728110572061
 30
0.0
  0
VERTEX
  5
4EDA
  8
0
 10
169.9170288639419937
 20
65.6066749777375833
 30
0.0
  0
VERTEX
  5
4EDB
  8
0
 10
169.9268006260462869
 20
65.6488745433379961
 30
0.0
  0
VERTEX
  5
4EDC
  8
0
 10
169.9314558350926916
 20
65.6701895275907361
 30
0.0
  0
VERTEX
  5
4EDD
  8
0
 10
169.9359526177935891
 20
65.6916431842005011
 30
0.0
  0
VERTEX
  5
4EDE
  8
0
 10
169.9444574886983901
 20
65.7349519151386801
 30
0.0
  0
VERTEX
  5
4EDF
  8
0
 10
169.95228930047071
 20
65.7787712849097659
 30
0.0
  0
VERTEX
  5
4EE0
  8
0
 10
169.9594235356292131
 20
65.8230713701842376
 30
0.0
  0
VERTEX
  5
4EE1
  8
0
 10
169.9658370125578131
 20
65.8678210624178462
 30
0.0
  0
VERTEX
  5
4EE2
  8
0
 10
169.9715079361635048
 20
65.9129878543338634
 30
0.0
  0
VERTEX
  5
4EE3
  8
0
 10
169.974058536739193
 20
65.9357171624614864
 30
0.0
  0
VERTEX
  5
4EE4
  8
0
 10
169.9764160110478031
 20
65.9585380080110042
 30
0.0
  0
VERTEX
  5
4EE5
  8
0
 10
169.9805425412266118
 20
66.0044367493905639
 30
0.0
  0
VERTEX
  5
4EE6
  8
0
 10
169.9838705128942991
 20
66.050648483139156
 30
0.0
  0
VERTEX
  5
4EE7
  8
0
 10
169.9863846578732023
 20
66.097137029172444
 30
0.0
  0
VERTEX
  5
4EE8
  8
0
 10
169.9880714951474943
 20
66.1438658818093188
 30
0.0
  0
VERTEX
  5
4EE9
  8
0
 10
169.9889193498962925
 20
66.1907987390786445
 30
0.0
  0
VERTEX
  5
4EEA
  8
0
 10
169.9890254966935004
 20
66.2143344797678708
 30
0.0
  0
VERTEX
  5
4EEB
  8
0
 10
169.9889182020355918
 20
66.2379128197256648
 30
0.0
  0
VERTEX
  5
4EEC
  8
0
 10
169.988059020419314
 20
66.2851778679995221
 30
0.0
  0
VERTEX
  5
4EED
  8
0
 10
169.9863344970196977
 20
66.3325546820710485
 30
0.0
  0
VERTEX
  5
4EEE
  8
0
 10
169.9851459910532867
 20
66.3562726488383703
 30
0.0
  0
SEQEND
  5
4EEF
  8
0
  0
POLYLINE
  5
4401
  8
0
 66
     1
 10
0.0
 20
0.0
 30
0.0
  0
VERTEX
  5
4EF0
  8
0
 10
169.9851459910532867
 20
66.3562726488383703
 30
0.0
  0
VERTEX
  5
4EF1
  8
0
 10
169.9838885215386028
 20
66.3792306390705136
 30
0.0
  0
VERTEX
  5
4EF2
  8
0
 10
169.9813591402902944
 20
66.4252005047939917
 30
0.0
  0
VERTEX
  5
4EF3
  8
0
 10
169.9788111673576054
 20
66.47122915616157
 30
0.0
  0
VERTEX
  5
4EF4
  8
0
 10
169.9775304644938103
 20
66.4942606037655821
 30
0.0
  0
VERTEX
  5
4EF5
  8
0
 10
169.976245423004201
 20
66.5173008389018321
 30
0.0
  0
VERTEX
  5
4EF6
  8
0
 10
169.9736627333624881
 20
66.5634000679891358
 30
0.0
  0
VERTEX
  5
4EF7
  8
0
 10
169.9710639468484885
 20
66.6095113300329729
 30
0.0
  0
VERTEX
  5
4EF8
  8
0
 10
169.9684499505148949
 20
66.6556187969534619
 30
0.0
  0
VERTEX
  5
4EF9
  8
0
 10
169.9658216648487894
 20
66.701706426288041
 30
0.0
  0
VERTEX
  5
4EFA
  8
0
 10
169.9631800422571075
 20
66.7477579935363963
 30
0.0
  0
VERTEX
  5
4EFB
  8
0
 10
169.9618545355779133
 20
66.7707651419165984
 30
0.0
  0
VERTEX
  5
4EFC
  8
0
 10
169.9605260654684002
 20
66.7937571245531387
 30
0.0
  0
VERTEX
  5
4EFD
  8
0
 10
169.9578607458443003
 20
66.8396873279849331
 30
0.0
  0
VERTEX
  5
4EFE
  8
0
 10
169.9551851216054104
 20
66.8855320277562839
 30
0.0
  0
VERTEX
  5
4EFF
  8
0
 10
169.9525002559655036
 20
66.9312745956223978
 30
0.0
  0
VERTEX
  5
4F00
  8
0
 10
169.9498072351769054
 20
66.9768983838195737
 30
0.0
  0
VERTEX
  5
4F01
  8
0
 10
169.9471071664802082
 20
67.0223867578488068
 30
0.0
  0
VERTEX
  5
4F02
  8
0
 10
169.9457548403925102
 20
67.045074978005303
 30
0.0
  0
VERTEX
  5
4F03
  8
0
 10
169.9444011759599107
 20
67.0677231294446017
 30
0.0
  0
VERTEX
  5
4F04
  8
0
 10
169.9416904062985907
 20
67.1128909897866635
 30
0.0
  0
VERTEX
  5
4F05
  8
0
 10
169.9389760144302102
 20
67.1578739430231906
 30
0.0
  0
VERTEX
  5
4F06
  8
0
 10
169.9376178250047076
 20
67.1802909949999218
 30
0.0
  0
SEQEND
  5
4F07
  8
0
  0
POLYLINE
  5
4402
  8
0
 66
     1
 10
0.0
 20
0.0
 30
0.0
  0
VERTEX
  5
4F08
  8
0
 10
161.6636077586904037
 20
67.1802909949999218
 30
0.0
  0
VERTEX
  5
4F09
  8
0
 10
161.6772499620871884
 20
67.1517988792903395
 30
0.0
  0
VERTEX
  5
4F0A
  8
0
 10
161.7050193043185118
 20
67.0949339604256636
 30
0.0
  0
VERTEX
  5
4F0B
  8
0
 10
161.7334320192869086
 20
67.0382425069948056
 30
0.0
  0
VERTEX
  5
4F0C
  8
0
 10
161.7478783083969915
 20
67.009967224214023
 30
0.0
  0
VERTEX
  5
4F0D
  8
0
 10
161.7624837729123897
 20
66.9817417765443395
 30
0.0
  0
VERTEX
  5
4F0E
  8
0
 10
161.7921696926308925
 20
66.9254489734182414
 30
0.0
  0
VERTEX
  5
4F0F
  8
0
 10
161.8224843866815092
 20
66.8693811932010647
 30
0.0
  0
VERTEX
  5
4F10
  8
0
 10
161.8534219655294066
 20
66.8135553700576281
 30
0.0
  0
VERTEX
  5
4F11
  8
0
 10
161.8849760651864926
 20
66.7579882271635086
 30
0.0
  0
VERTEX
  5
4F12
  8
0
 10
161.9171398722083097
 20
66.7026962303670814
 30
0.0
  0
VERTEX
  5
4F13
  8
0
 10
161.9334481703662902
 20
66.6751584763133849
 30
0.0
  0
VERTEX
  5
4F14
  8
0
 10
161.9499061501537085
 20
66.6476955451650639
 30
0.0
  0
VERTEX
  5
4F15
  8
0
 10
161.9832672673080083
 20
66.593001997031223
 30
0.0
  0
VERTEX
  5
4F16
  8
0
 10
162.0172152254837954
 20
66.5386310350909014
 30
0.0
  0
VERTEX
  5
4F17
  8
0
 10
162.0517416897334897
 20
66.484597699103432
 30
0.0
  0
VERTEX
  5
4F18
  8
0
 10
162.0868380188171045
 20
66.4309165896832639
 30
0.0
  0
VERTEX
  5
4F19
  8
0
 10
162.1224952962934083
 20
66.3776018416646991
 30
0.0
  0
VERTEX
  5
4F1A
  8
0
 10
162.1405314367549977
 20
66.3510861371600811
 30
0.0
  0
VERTEX
  5
4F1B
  8
0
 10
162.1587043575129883
 20
66.3246671071420622
 30
0.0
  0
VERTEX
  5
4F1C
  8
0
 10
162.1954557171347915
 20
66.2721256817506656
 30
0.0
  0
VERTEX
  5
4F1D
  8
0
 10
162.2327394352818999
 20
66.219990699725912
 30
0.0
  0
VERTEX
  5
4F1E
  8
0
 10
162.2515776975012045
 20
66.1940796835475282
 30
0.0
  0
VERTEX
  5
4F1F
  8
0
 10
162.2705451168124
 20
66.1682751233801838
 30
0.0
  0
VERTEX
  5
4F20
  8
0
 10
162.3088619335092062
 20
66.1169917025603979
 30
0.0
  0
VERTEX
  5
4F21
  8
0
 10
162.3476786468046953
 20
66.0661529375906582
 30
0.0
  0
VERTEX
  5
4F22
  8
0
 10
162.36727084611789
 20
66.0409041307942459
 30
0.0
  0
VERTEX
  5
4F23
  8
0
 10
162.3869836309652044
 20
66.0157710454955833
 30
0.0
  0
VERTEX
  5
4F24
  8
0
 10
162.4267648965966941
 20
65.965857929392044
 30
0.0
  0
VERTEX
  5
4F25
  8
0
 10
162.4670101143622105
 20
65.9164251509164103
 30
0.0
  0
VERTEX
  5
4F26
  8
0
 10
162.5077066388145965
 20
65.8674839055367727
 30
0.0
  0
VERTEX
  5
4F27
  8
0
 10
162.5488415322716094
 20
65.81904500059008
 30
0.0
  0
VERTEX
  5
4F28
  8
0
 10
162.5904015886773948
 20
65.7711188358771039
 30
0.0
  0
VERTEX
  5
4F29
  8
0
 10
162.6113368585704109
 20
65.7473511653758749
 30
0.0
  0
VERTEX
  5
4F2A
  8
0
 10
162.6323733574089943
 20
65.7237153866434056
 30
0.0
  0
VERTEX
  5
4F2B
  8
0
 10
162.6747431670038964
 20
65.6768441887760162
 30
0.0
  0
VERTEX
  5
4F2C
  8
0
 10
162.7174971487974915
 20
65.6305143260456987
 30
0.0
  0
VERTEX
  5
4F2D
  8
0
 10
162.7606237555899042
 20
65.5847317974833857
 30
0.0
  0
VERTEX
  5
4F2E
  8
0
 10
162.8041130446842999
 20
65.5395005358701326
 30
0.0
  0
VERTEX
  5
4F2F
  8
0
 10
162.8479507470323995
 20
65.4948285761186924
 30
0.0
  0
VERTEX
  5
4F30
  8
0
 10
162.8699956788306906
 20
65.4727047947077097
 30
0.0
  0
VERTEX
  5
4F31
  8
0
 10
162.8921221831178059
 20
65.4507237556773305
 30
0.0
  0
VERTEX
  5
4F32
  8
0
 10
162.9366123465246972
 20
65.4071936218527696
 30
0.0
  0
VERTEX
  5
4F33
  8
0
 10
162.9814059237560002
 20
65.364245409839981
 30
0.0
  0
VERTEX
  5
4F34
  8
0
 10
163.1403452180292959
 20
65.2186057825267369
 30
0.0
  0
VERTEX
  5
4F35
  8
0
 10
163.4189972573927037
 20
64.9864308014078631
 30
0.0
  0
VERTEX
  5
4F36
  8
0
 10
163.7022605534324953
 20
64.7770933350675051
 30
0.0
  0
VERTEX
  5
4F37
  8
0
 10
163.8443937822248984
 20
64.6811459660518437
 30
0.0
  0
VERTEX
  5
4F38
  8
0
 10
163.986171874069413
 20
64.5910408257826418
 30
0.0
  0
VERTEX
  5
4F39
  8
0
 10
164.2691032748736859
 20
64.4268519291868813
 30
0.0
  0
VERTEX
  5
4F3A
  8
0
 10
164.556997769344008
 20
64.2795812435550431
 30
0.0
  0
VERTEX
  5
4F3B
  8
0
 10
164.8472602236892897
 20
64.1497467196698636
 30
0.0
  0
VERTEX
  5
4F3C
  8
0
 10
165.1362012719064012
 20
64.0378515744368713
 30
0.0
  0
VERTEX
  5
4F3D
  8
0
 10
165.4200112297208136
 20
63.9438342275804814
 30
0.0
  0
VERTEX
  5
4F3E
  8
0
 10
165.558754119241712
 20
63.9033707469085073
 30
0.0
  0
VERTEX
  5
4F3F
  8
0
 10
165.6947105189912861
 20
63.8671240195205598
 30
0.0
  0
VERTEX
  5
4F40
  8
0
 10
165.957303006853806
 20
63.8064320167114474
 30
0.0
  0
VERTEX
  5
4F41
  8
0
 10
166.2073942973268004
 20
63.7597672057271225
 30
0.0
  0
VERTEX
  5
4F42
  8
0
 10
166.3262332751652934
 20
63.7413250968085876
 30
0.0
  0
SEQEND
  5
4F43
  8
0
  0
POLYLINE
  5
4403
  8
0
 66
     1
 10
0.0
 20
0.0
 30
0.0
  0
VERTEX
  5
4F44
  8
0
 10
166.3262332751652934
 20
63.7413250968085876
 30
0.0
  0
VERTEX
  5
4F45
  8
0
 10
166.3492024890167045
 20
63.7379906260328823
 30
0.0
  0
VERTEX
  5
4F46
  8
0
 10
166.3932203900237141
 20
63.7316004898503579
 30
0.0
  0
VERTEX
  5
4F47
  8
0
 10
166.4346736575297996
 20
63.725582664863019
 30
0.0
  0
VERTEX
  5
4F48
  8
0
 10
166.4544371443973887
 20
63.7227135736607977
 30
0.0
  0
VERTEX
  5
4F49
  8
0
 10
166.4735578163538037
 20
63.7199378007387267
 30
0.0
  0
VERTEX
  5
4F4A
  8
0
 10
166.5098686686675933
 20
63.7146665068814499
 30
0.0
  0
VERTEX
  5
4F4B
  8
0
 10
166.5436022944516026
 20
63.7097693523657824
 30
0.0
  0
VERTEX
  5
4F4C
  8
0
 10
166.574755051915389
 20
63.7052468658750684
 30
0.0
  0
VERTEX
  5
4F4D
  8
0
 10
166.6033235778924961
 20
63.7010995356446017
 30
0.0
  0
VERTEX
  5
4F4E
  8
0
 10
166.6293047882030862
 20
63.6973278094088471
 30
0.0
  0
VERTEX
  5
4F4F
  8
0
 10
166.6413242625453108
 20
63.6955829266196005
 30
0.0
  0
VERTEX
  5
4F50
  8
0
 10
166.6526958779869858
 20
63.69393209435313
 30
0.0
  0
VERTEX
  5
4F51
  8
0
 10
166.6734943220058085
 20
63.6909127570692988
 30
0.0
  0
VERTEX
  5
4F52
  8
0
 10
166.6916978749164002
 20
63.6882701235170714
 30
0.0
  0
VERTEX
  5
4F53
  8
0
 10
166.7073045715131059
 20
63.6860044789876483
 30
0.0
  0
VERTEX
  5
4F54
  8
0
 10
166.7203127269393974
 20
63.684116068073962
 30
0.0
  0
VERTEX
  5
4F55
  8
0
 10
166.7307209368709948
 20
63.682605094643769
 30
0.0
  0
VERTEX
  5
4F56
  8
0
 10
166.73494970017029
 20
63.6819911995522503
 30
0.0
  0
VERTEX
  5
4F57
  8
0
 10
166.7355912649256879
 20
63.6818980627586768
 30
0.0
  0
VERTEX
  5
4F58
  8
0
 10
166.7368201935910008
 20
63.6817196575792295
 30
0.0
  0
VERTEX
  5
4F59
  8
0
 10
166.7379768514128955
 20
63.6815517440524914
 30
0.0
  0
VERTEX
  5
4F5A
  8
0
 10
166.7385280776653929
 20
63.6814717218174735
 30
0.0
  0
VERTEX
  5
4F5B
  8
0
 10
166.7390612349230992
 20
63.6813943226819319
 30
0.0
  0
VERTEX
  5
4F5C
  8
0
 10
166.7400733408699125
 20
63.6812473939397421
 30
0.0
  0
VERTEX
  5
4F5D
  8
0
 10
166.741013166217698
 20
63.6811109582664301
 30
0.0
  0
VERTEX
  5
4F5E
  8
0
 10
166.7418807081484999
 20
63.6809850160712827
 30
0.0
  0
VERTEX
  5
4F5F
  8
0
 10
166.7426759640601972
 20
63.6808695677318326
 30
0.0
  0
VERTEX
  5
4F60
  8
0
 10
166.7433989315684073
 20
63.6807646135942775
 30
0.0
  0
VERTEX
  5
4F61
  8
0
 10
166.7437333064854101
 20
63.6807160719509682
 30
0.0
  0
VERTEX
  5
4F62
  8
0
 10
166.7440496085050086
 20
63.6806701539735229
 30
0.0
  0
VERTEX
  5
4F63
  8
0
 10
166.7446279929185948
 20
63.6805861891527627
 30
0.0
  0
VERTEX
  5
4F64
  8
0
 10
166.7451340830747881
 20
63.6805127193838132
 30
0.0
  0
VERTEX
  5
4F65
  8
0
 10
166.7455678774556134
 20
63.6804497448869995
 30
0.0
  0
VERTEX
  5
4F66
  8
0
 10
166.7459293747606068
 20
63.6803972658510418
 30
0.0
  0
VERTEX
  5
4F67
  8
0
 10
166.746218573905395
 20
63.6803552824333892
 30
0.0
  0
VERTEX
  5
4F68
  8
0
 10
166.7463360613882912
 20
63.6803382266220694
 30
0.0
  0
VERTEX
  5
4F69
  8
0
 10
166.7464354740228885
 20
63.6803237947600209
 30
0.0
  0
VERTEX
  5
4F6A
  8
0
 10
166.7465800744625994
 20
63.6803028029254108
 30
0.0
  0
VERTEX
  5
4F6B
  8
0
 10
166.7466523747910117
 20
63.6802923069922997
 30
0.0
  0
VERTEX
  5
4F6C
  8
0
 10
166.746661412337005
 20
63.6802909949999218
 30
0.0
  0
SEQEND
  5
4F6D
  8
0
  0
POLYLINE
  5
4404
  8
0
 66
     1
 10
0.0
 20
0.0
 30
0.0
  0
VERTEX
  5
4F6E
  8
0
 10
169.9376178250047076
 20
67.1802909949999218
 30
0.0
  0
VERTEX
  5
4F6F
  8
0
 10
169.7528131647381997
 20
69.8116180535630235
 30
0.0
  0
VERTEX
  5
4F70
  8
0
 10
169.2330511976950049
 20
75.061328807040212
 30
0.0
  0
VERTEX
  5
4F71
  8
0
 10
168.5137443380303921
 20
80.2874376022336662
 30
0.0
  0
VERTEX
  5
4F72
  8
0
 10
168.079576419247104
 20
82.8892702390267857
 30
0.0
  0
SEQEND
  5
4F73
  8
0
  0
LINE
  5
4405
  8
0
 10
158.1219840780175048
 20
85.9298671746805383
 30
0.0
 11
158.1219840780175048
 21
80.6336224106275665
 31
0.0
  0
POLYLINE
  5
4406
  8
0
 66
     1
 10
0.0
 20
0.0
 30
0.0
  0
VERTEX
  5
4F74
  8
0
 10
158.1219840780175048
 20
80.6336224106275665
 30
0.0
  0
VERTEX
  5
4F75
  8
0
 10
158.1222495877024983
 20
80.5642995803068089
 30
0.0
  0
VERTEX
  5
4F76
  8
0
 10
158.1243735717090999
 20
80.4256701898201243
 30
0.0
  0
VERTEX
  5
4F77
  8
0
 10
158.1286210412206117
 20
80.287089605979844
 30
0.0
  0
VERTEX
  5
4F78
  8
0
 10
158.131540790976203
 20
80.2178277812822387
 30
0.0
  0
VERTEX
  5
4F79
  8
0
 10
158.1349909993504923
 20
80.1485903538224136
 30
0.0
  0
VERTEX
  5
4F7A
  8
0
 10
158.1434819510621139
 20
80.0102049392954342
 30
0.0
  0
VERTEX
  5
4F7B
  8
0
 10
158.1540919035178092
 20
79.8719658416289064
 30
0.0
  0
VERTEX
  5
4F7C
  8
0
 10
158.1668183665487959
 20
79.7339055057120447
 30
0.0
  0
VERTEX
  5
4F7D
  8
0
 10
158.1816583532383902
 20
79.5960563344783338
 30
0.0
  0
VERTEX
  5
4F7E
  8
0
 10
158.198608380622801
 20
79.4584506813008318
 30
0.0
  0
VERTEX
  5
4F7F
  8
0
 10
158.207873435710809
 20
79.3897492689913804
 30
0.0
  0
VERTEX
  5
4F80
  8
0
 10
158.2176644705097885
 20
79.3211208423983578
 30
0.0
  0
VERTEX
  5
4F81
  8
0
 10
158.2388221504108969
 20
79.1840990492558774
 30
0.0
  0
VERTEX
  5
4F82
  8
0
 10
158.2620764545924885
 20
79.0474174610598936
 30
0.0
  0
VERTEX
  5
4F83
  8
0
 10
158.287421925239812
 20
78.9111081571498687
 30
0.0
  0
VERTEX
  5
4F84
  8
0
 10
158.3148526137397027
 20
78.7752031294902224
 30
0.0
  0
VERTEX
  5
4F85
  8
0
 10
158.3443620820750937
 20
78.6397342751607482
 30
0.0
  0
VERTEX
  5
4F86
  8
0
 10
158.3598942133488947
 20
78.5721733530446755
 30
0.0
  0
VERTEX
  5
4F87
  8
0
 10
158.3759434043367946
 20
78.5047333888712444
 30
0.0
  0
VERTEX
  5
4F88
  8
0
 10
158.4095891683487025
 20
78.370232155498428
 30
0.0
  0
VERTEX
  5
4F89
  8
0
 10
158.4452914774084888
 20
78.2362621426501335
 30
0.0
  0
VERTEX
  5
4F8A
  8
0
 10
158.463911236577303
 20
78.1694861749103609
 30
0.0
  0
SEQEND
  5
4F8B
  8
0
  0
LINE
  5
4407
  8
0
 10
158.463911236577303
 20
78.1694861749103609
 30
0.0
 11
161.3003200227508103
 21
68.145830031194663
 31
0.0
  0
POLYLINE
  5
4408
  8
0
 66
     1
 10
0.0
 20
0.0
 30
0.0
  0
VERTEX
  5
4F8C
  8
0
 10
161.3003200227508103
 20
68.145830031194663
 30
0.0
  0
VERTEX
  5
4F8D
  8
0
 10
161.3495058835509894
 20
67.9808726428184116
 30
0.0
  0
VERTEX
  5
4F8E
  8
0
 10
161.4616496643938888
 20
67.6554172081525564
 30
0.0
  0
VERTEX
  5
4F8F
  8
0
 10
161.5918564505230108
 20
67.3367580479498145
 30
0.0
  0
VERTEX
  5
4F90
  8
0
 10
161.6636077586904037
 20
67.1802909949999218
 30
0.0
  0
SEQEND
  5
4F91
  8
0
  0
POLYLINE
  5
4409
  8
0
 66
     1
 10
0.0
 20
0.0
 30
0.0
  0
VERTEX
  5
4F92
  8
0
 10
168.079576419247104
 20
82.8892702390267857
 30
0.0
  0
VERTEX
  5
4F93
  8
0
 10
168.0498952522264062
 20
83.0566701074731952
 30
0.0
  0
VERTEX
  5
4F94
  8
0
 10
167.9897551611313133
 20
83.3922542711996755
 30
0.0
  0
VERTEX
  5
4F95
  8
0
 10
167.9278781239684122
 20
83.7326666782509648
 30
0.0
  0
VERTEX
  5
4F96
  8
0
 10
167.8964631052760978
 20
83.9036697950913037
 30
0.0
  0
SEQEND
  5
4F97
  8
0
  0
POLYLINE
  5
440A
  8
0
 66
     1
 10
0.0
 20
0.0
 30
0.0
  0
VERTEX
  5
4F98
  8
0
 10
164.1305533792929054
 20
99.3175051687128132
 30
0.0
  0
VERTEX
  5
4F99
  8
0
 10
164.12000143216369
 20
99.3519741955943658
 30
0.0
  0
VERTEX
  5
4F9A
  8
0
 10
164.0986881605136034
 20
99.4214986575861701
 30
0.0
  0
VERTEX
  5
4F9B
  8
0
 10
164.0770992618033972
 20
99.4917897632275015
 30
0.0
  0
VERTEX
  5
4F9C
  8
0
 10
164.0662028351746073
 20
99.5272169381821357
 30
0.0
  0
VERTEX
  5
4F9D
  8
0
 10
164.0552391894698019
 20
99.562828650777746
 30
0.0
  0
VERTEX
  5
4F9E
  8
0
 10
164.0331126202111136
 20
99.6345958285785116
 30
0.0
  0
VERTEX
  5
4F9F
  8
0
 10
164.0107244449492896
 20
99.7070712141683941
 30
0.0
  0
VERTEX
  5
4FA0
  8
0
 10
163.988079759348409
 20
99.7802341744734065
 30
0.0
  0
VERTEX
  5
4FA1
  8
0
 10
163.9651838538700019
 20
99.8540635670836707
 30
0.0
  0
VERTEX
  5
4FA2
  8
0
 10
163.942042203350411
 20
99.9285377826351748
 30
0.0
  0
VERTEX
  5
4FA3
  8
0
 10
163.9303809823236122
 20
99.9660098290887333
 30
0.0
  0
VERTEX
  5
4FA4
  8
0
 10
163.9186604560765943
 20
100.003634788319502
 30
0.0
  0
VERTEX
  5
4FA5
  8
0
 10
163.895044422341698
 20
100.0793321725534071
 30
0.0
  0
VERTEX
  5
4FA6
  8
0
 10
163.8712000624524876
 20
100.1556071908402998
 30
0.0
  0
VERTEX
  5
4FA7
  8
0
 10
163.8471334741670944
 20
100.2324368128674053
 30
0.0
  0
VERTEX
  5
4FA8
  8
0
 10
163.8228508795355083
 20
100.3097977708784043
 30
0.0
  0
VERTEX
  5
4FA9
  8
0
 10
163.7983586111149066
 20
100.387666609370001
 30
0.0
  0
VERTEX
  5
4FAA
  8
0
 10
163.7860358548356885
 20
100.4267841151531968
 30
0.0
  0
VERTEX
  5
4FAB
  8
0
 10
163.7736628516570079
 20
100.4660205154631996
 30
0.0
  0
VERTEX
  5
4FAC
  8
0
 10
163.7487668440336961
 20
100.5448461402400966
 30
0.0
  0
VERTEX
  5
4FAD
  8
0
 10
163.7236761770984117
 20
100.6241228192969999
 30
0.0
  0
VERTEX
  5
4FAE
  8
0
 10
163.7110599663874098
 20
100.6639227104831065
 30
0.0
  0
VERTEX
  5
4FAF
  8
0
 10
163.6983976616888867
 20
100.7038261912883002
 30
0.0
  0
VERTEX
  5
4FB0
  8
0
 10
163.6729383201808901
 20
100.7839314152455046
 30
0.0
  0
VERTEX
  5
4FB1
  8
0
 10
163.6473053756870115
 20
100.8644132123892945
 30
0.0
  0
VERTEX
  5
4FB2
  8
0
 10
163.6344261116979908
 20
100.9047873169648
 30
0.0
  0
VERTEX
  5
4FB3
  8
0
 10
163.621506240917995
 20
100.9452459083918967
 30
0.0
  0
VERTEX
  5
4FB4
  8
0
 10
163.5955485066978952
 20
101.0264034761016063
 30
0.0
  0
VERTEX
  5
4FB5
  8
0
 10
163.5694399301160047
 20
101.1078595787465986
 30
0.0
  0
VERTEX
  5
4FB6
  8
0
 10
163.5431884223004886
 20
101.1895876136501045
 30
0.0
  0
VERTEX
  5
4FB7
  8
0
 10
163.5168020357928071
 20
101.2715607564956031
 30
0.0
  0
VERTEX
  5
4FB8
  8
0
 10
163.4902889514966944
 20
101.3537520061956059
 30
0.0
  0
VERTEX
  5
4FB9
  8
0
 10
163.4769874859968866
 20
101.3949209461300001
 30
0.0
  0
VERTEX
  5
4FBA
  8
0
 10
163.4636574651786134
 20
101.4361342304200946
 30
0.0
  0
VERTEX
  5
4FBB
  8
0
 10
163.4369159734881123
 20
101.518680211856605
 30
0.0
  0
VERTEX
  5
4FBC
  8
0
 10
163.4100729594692893
 20
101.6013626952781976
 30
0.0
  0
VERTEX
  5
4FBD
  8
0
 10
163.3831369779215947
 20
101.6841544342823056
 30
0.0
  0
VERTEX
  5
4FBE
  8
0
 10
163.3561166736976134
 20
101.7670281363464966
 30
0.0
  0
VERTEX
  5
4FBF
  8
0
 10
163.3290208734632927
 20
101.8499561837956975
 30
0.0
  0
VERTEX
  5
4FC0
  8
0
 10
163.3154474770639979
 20
101.8914318482866008
 30
0.0
  0
VERTEX
  5
4FC1
  8
0
 10
163.3018586088531094
 20
101.9329105674552949
 30
0.0
  0
VERTEX
  5
4FC2
  8
0
 10
163.2746391036793909
 20
102.0158629303946043
 30
0.0
  0
VERTEX
  5
4FC3
  8
0
 10
163.2473717604493118
 20
102.0987846130288972
 30
0.0
  0
VERTEX
  5
4FC4
  8
0
 10
163.1516987923569104
 20
102.3883495964691974
 30
0.0
  0
VERTEX
  5
4FC5
  8
0
 10
162.9878237719115077
 20
102.8794347785941028
 30
0.0
  0
VERTEX
  5
4FC6
  8
0
 10
162.8206894698116116
 20
103.3740949813967944
 30
0.0
  0
VERTEX
  5
4FC7
  8
0
 10
162.7347021799041045
 20
103.6262189258859934
 30
0.0
  0
VERTEX
  5
4FC8
  8
0
 10
162.647391213021109
 20
103.880613699584103
 30
0.0
  0
VERTEX
  5
4FC9
  8
0
 10
162.5441528810829084
 20
104.1793589751707003
 30
0.0
  0
VERTEX
  5
4FCA
  8
0
 10
162.5144307328212108
 20
104.2649599298298995
 30
0.0
  0
VERTEX
  5
4FCB
  8
0
 10
162.4846236614951067
 20
104.3506244613157037
 30
0.0
  0
VERTEX
  5
4FCC
  8
0
 10
162.4696909320722966
 20
104.3934727975666021
 30
0.0
  0
VERTEX
  5
4FCD
  8
0
 10
162.4547401675469871
 20
104.4363276924415942
 30
0.0
  0
VERTEX
  5
4FCE
  8
0
 10
162.4247888496510939
 20
104.5220446733365947
 30
0.0
  0
VERTEX
  5
4FCF
  8
0
 10
162.394778390924813
 20
104.6077504220608034
 30
0.0
  0
VERTEX
  5
4FD0
  8
0
 10
162.364717545157589
 20
104.6934199645118042
 30
0.0
  0
VERTEX
  5
4FD1
  8
0
 10
162.3346151230323073
 20
104.7790283737044064
 30
0.0
  0
VERTEX
  5
4FD2
  8
0
 10
162.30447997831169
 20
104.8645508084987057
 30
0.0
  0
VERTEX
  5
4FD3
  8
0
 10
162.2894029101479987
 20
104.9072720555358984
 30
0.0
  0
VERTEX
  5
4FD4
  8
0
 10
162.2743209939727933
 20
104.9499625518524937
 30
0.0
  0
VERTEX
  5
4FD5
  8
0
 10
162.2441470682612987
 20
105.0352390486678047
 30
0.0
  0
VERTEX
  5
4FD6
  8
0
 10
162.2139671006486878
 20
105.1203559432976959
 30
0.0
  0
VERTEX
  5
4FD7
  8
0
 10
162.1837899776733138
 20
105.2052891167741961
 30
0.0
  0
VERTEX
  5
4FD8
  8
0
 10
162.1536245586470955
 20
105.2900147238160002
 30
0.0
  0
VERTEX
  5
4FD9
  8
0
 10
162.1234796612160949
 20
105.3745092296660033
 30
0.0
  0
VERTEX
  5
4FDA
  8
0
 10
162.10841764862991
 20
105.4166625589783024
 30
0.0
  0
VERTEX
  5
4FDB
  8
0
 10
162.0933635342937009
 20
105.4587508788231958
 30
0.0
  0
VERTEX
  5
4FDC
  8
0
 10
162.0632813102562864
 20
105.5427267810724032
 30
0.0
  0
VERTEX
  5
4FDD
  8
0
 10
162.033241075852402
 20
105.6264159250997068
 30
0.0
  0
VERTEX
  5
4FDE
  8
0
 10
162.0032516793318962
 20
105.7097953500369982
 30
0.0
  0
VERTEX
  5
4FDF
  8
0
 10
161.9733220203812891
 20
105.7928421319744956
 30
0.0
  0
VERTEX
  5
4FE0
  8
0
 10
161.9434610348808121
 20
105.8755334242971031
 30
0.0
  0
VERTEX
  5
4FE1
  8
0
 10
161.9285590933033916
 20
105.9167386531522936
 30
0.0
  0
VERTEX
  5
4FE2
  8
0
 10
161.9136776797535902
 20
105.9578464971610003
 30
0.0
  0
VERTEX
  5
4FE3
  8
0
 10
161.8839809178905114
 20
106.0397587761784024
 30
0.0
  0
VERTEX
  5
4FE4
  8
0
 10
161.8543797031312863
 20
106.1212478803772967
 30
0.0
  0
VERTEX
  5
4FE5
  8
0
 10
161.8248829652827112
 20
106.2022916595052067
 30
0.0
  0
VERTEX
  5
4FE6
  8
0
 10
161.7954995951610897
 20
106.2828682307420962
 30
0.0
  0
VERTEX
  5
4FE7
  8
0
 10
161.7662384296386051
 20
106.3629560148900026
 30
0.0
  0
VERTEX
  5
4FE8
  8
0
 10
161.7516564166911905
 20
106.4028099601290052
 30
0.0
  0
VERTEX
  5
4FE9
  8
0
 10
161.7371082366765052
 20
106.4425337721015978
 30
0.0
  0
VERTEX
  5
4FEA
  8
0
 10
161.7081177003331049
 20
106.521580637209496
 30
0.0
  0
VERTEX
  5
4FEB
  8
0
 10
161.6792754057283048
 20
106.6000761547166036
 30
0.0
  0
VERTEX
  5
4FEC
  8
0
 10
161.6649125011620072
 20
106.6391108863426069
 30
0.0
  0
VERTEX
  5
4FED
  8
0
 10
161.5796162922434007
 20
106.8701829732863047
 30
0.0
  0
VERTEX
  5
4FEE
  8
0
 10
161.4142657178896911
 20
107.3145654711778008
 30
0.0
  0
VERTEX
  5
4FEF
  8
0
 10
161.2573559367604048
 20
107.7320153281788038
 30
0.0
  0
VERTEX
  5
4FF0
  8
0
 10
161.1816155512881039
 20
107.9320701249132952
 30
0.0
  0
SEQEND
  5
4FF1
  8
0
  0
LINE
  5
440B
  8
0
 10
143.1219840780175048
 20
110.040313646710203
 30
0.0
 11
143.1219840780175048
 21
97.1902909949999128
 31
0.0
  0
POLYLINE
  5
440C
  8
0
 66
     1
 10
0.0
 20
0.0
 30
0.0
  0
VERTEX
  5
4FF2
  8
0
 10
153.6219840780175048
 20
97.1902909949999128
 30
0.0
  0
VERTEX
  5
4FF3
  8
0
 10
153.7346143772548999
 20
96.9897639689893083
 30
0.0
  0
VERTEX
  5
4FF4
  8
0
 10
153.9597649890044977
 20
96.5844686465833036
 30
0.0
  0
VERTEX
  5
4FF5
  8
0
 10
154.1845160613924861
 20
96.1738236854292552
 30
0.0
  0
VERTEX
  5
4FF6
  8
0
 10
154.296648794245101
 20
95.9666114019771328
 30
0.0
  0
VERTEX
  5
4FF7
  8
0
 10
154.4085713886728968
 20
95.7582016889009253
 30
0.0
  0
VERTEX
  5
4FF8
  8
0
 10
154.6316437003289934
 20
95.3379816574313992
 30
0.0
  0
VERTEX
  5
4FF9
  8
0
 10
154.8534523559468994
 20
94.9135539926586063
 30
0.0
  0
VERTEX
  5
4FFA
  8
0
 10
155.0737242868601129
 20
94.4853195613198551
 30
0.0
  0
VERTEX
  5
4FFB
  8
0
 10
155.2921949427602044
 20
94.0536885940639138
 30
0.0
  0
VERTEX
  5
4FFC
  8
0
 10
155.5086092056905898
 20
93.6190794762311214
 30
0.0
  0
VERTEX
  5
4FFD
  8
0
 10
155.6159682647571003
 20
93.4007907563863853
 30
0.0
  0
VERTEX
  5
4FFE
  8
0
 10
155.722722283305302
 20
93.1819173945353754
 30
0.0
  0
VERTEX
  5
4FFF
  8
0
 10
155.9343092763137975
 20
92.742614618833457
 30
0.0
  0
VERTEX
  5
5000
  8
0
 10
156.1431629189387138
 20
92.3015738763187557
 30
0.0
  0
VERTEX
  5
5001
  8
0
 10
156.3490675241812085
 20
91.8592436085538964
 30
0.0
  0
VERTEX
  5
5002
  8
0
 10
156.5518164532313108
 20
91.4160830566920311
 30
0.0
  0
VERTEX
  5
5003
  8
0
 10
156.7512134309345129
 20
90.9725597449445047
 30
0.0
  0
VERTEX
  5
5004
  8
0
 10
156.8495966349632909
 20
90.7508100058466454
 30
0.0
  0
VERTEX
  5
5005
  8
0
 10
156.9470733494621868
 20
90.5291477877807154
 30
0.0
  0
VERTEX
  5
5006
  8
0
 10
157.1392230088744952
 20
90.0863260890717754
 30
0.0
  0
VERTEX
  5
5007
  8
0
 10
157.3275018219596859
 20
89.644576360782338
 30
0.0
  0
VERTEX
  5
5008
  8
0
 10
157.4201425975896029
 20
89.4242554376097445
 30
0.0
  0
SEQEND
  5
5009
  8
0
  0
POLYLINE
  5
440D
  8
0
 66
     1
 10
0.0
 20
0.0
 30
0.0
  0
VERTEX
  5
500A
  8
0
 10
143.1219840780175048
 20
110.040313646710203
 30
0.0
  0
VERTEX
  5
500B
  8
0
 10
143.1301704227888933
 20
110.0484999914820037
 30
0.0
  0
VERTEX
  5
500C
  8
0
 10
143.1458610085381054
 20
110.064190577230903
 30
0.0
  0
VERTEX
  5
500D
  8
0
 10
143.1606402666033944
 20
110.0789698352962063
 30
0.0
  0
VERTEX
  5
500E
  8
0
 10
143.1676874823097023
 20
110.0860170510025995
 30
0.0
  0
VERTEX
  5
500F
  8
0
 10
143.1745060838755137
 20
110.0928356525682972
 30
0.0
  0
VERTEX
  5
5010
  8
0
 10
143.1874564778472063
 20
110.1057860465401035
 30
0.0
  0
VERTEX
  5
5011
  8
0
 10
143.1994895968963988
 20
110.1178191655892959
 30
0.0
  0
VERTEX
  5
5012
  8
0
 10
143.2106037205514895
 20
110.1289332892444008
 30
0.0
  0
VERTEX
  5
5013
  8
0
 10
143.2207972597365995
 20
110.1391268284294966
 30
0.0
  0
VERTEX
  5
5014
  8
0
 10
143.2300687569996001
 20
110.1483983256922983
 30
0.0
  0
VERTEX
  5
5015
  8
0
 10
143.2343583204988136
 20
110.152687889191597
 30
0.0
  0
VERTEX
  5
5016
  8
0
 10
143.2384168867197047
 20
110.1567464554126019
 30
0.0
  0
VERTEX
  5
5017
  8
0
 10
143.2458404552978095
 20
110.1641700239908062
 30
0.0
  0
VERTEX
  5
5018
  8
0
 10
143.2523384013269947
 20
110.1706679700198066
 30
0.0
  0
VERTEX
  5
5019
  8
0
 10
143.2579097957431884
 20
110.1762393644360003
 30
0.0
  0
VERTEX
  5
501A
  8
0
 10
143.2625538419592885
 20
110.1808834106521005
 30
0.0
  0
VERTEX
  5
501B
  8
0
 10
143.2662698759791056
 20
110.1845994446718038
 30
0.0
  0
VERTEX
  5
501C
  8
0
 10
143.2677797171949976
 20
110.1861092858879942
 30
0.0
  0
VERTEX
  5
501D
  8
0
 10
143.2690573664908129
 20
110.1873869351836959
 30
0.0
  0
VERTEX
  5
501E
  8
0
 10
143.2709159149449079
 20
110.189245483637805
 30
0.0
  0
VERTEX
  5
501F
  8
0
 10
143.2718452556096054
 20
110.1901748243025025
 30
0.0
  0
VERTEX
  5
5020
  8
0
 10
143.2719614263070866
 20
110.1902909949998985
 30
0.0
  0
SEQEND
  5
5021
  8
0
  0
POLYLINE
  5
440E
  8
0
 66
     1
 10
0.0
 20
0.0
 30
0.0
  0
VERTEX
  5
5022
  8
0
 10
161.1816155512881039
 20
107.9320701249132952
 30
0.0
  0
VERTEX
  5
5023
  8
0
 10
161.1359918364998975
 20
108.046212588613102
 30
0.0
  0
VERTEX
  5
5024
  8
0
 10
161.0341059949793987
 20
108.2668851285782949
 30
0.0
  0
VERTEX
  5
5025
  8
0
 10
160.9191117791110059
 20
108.4766538799910052
 30
0.0
  0
VERTEX
  5
5026
  8
0
 10
160.8571340874001976
 20
108.5771752719386001
 30
0.0
  0
VERTEX
  5
5027
  8
0
 10
160.7924153232071944
 20
108.6746555883454022
 30
0.0
  0
VERTEX
  5
5028
  8
0
 10
160.6555173253260875
 20
108.8601629983675991
 30
0.0
  0
VERTEX
  5
5029
  8
0
 10
160.5099754242785082
 20
109.0326271320318057
 30
0.0
  0
VERTEX
  5
502A
  8
0
 10
160.3574078012649977
 20
109.1916539092169955
 30
0.0
  0
VERTEX
  5
502B
  8
0
 10
160.1992207451527861
 20
109.3372341563424044
 30
0.0
  0
VERTEX
  5
502C
  8
0
 10
160.0307485935121861
 20
109.4740829527652011
 30
0.0
  0
VERTEX
  5
502D
  8
0
 10
159.9420276781964105
 20
109.5395116318145057
 30
0.0
  0
VERTEX
  5
502E
  8
0
 10
159.8504889799446005
 20
109.6026480458267969
 30
0.0
  0
VERTEX
  5
502F
  8
0
 10
159.6594521479107129
 20
109.7212977489520966
 30
0.0
  0
VERTEX
  5
5030
  8
0
 10
159.458541499713192
 20
109.8287430498100008
 30
0.0
  0
VERTEX
  5
5031
  8
0
 10
159.2484436618682935
 20
109.9239762978814952
 30
0.0
  0
VERTEX
  5
5032
  8
0
 10
159.1218781878050947
 20
109.9735329949021008
 30
0.0
  0
VERTEX
  5
5033
  8
0
 10
159.0852078202167093
 20
109.9868443416477959
 30
0.0
  0
VERTEX
  5
5034
  8
0
 10
159.0483070356928863
 20
109.9997751563948043
 30
0.0
  0
VERTEX
  5
5035
  8
0
 10
159.029769028401688
 20
110.006097266937104
 30
0.0
  0
VERTEX
  5
5036
  8
0
 10
159.0111718723809986
 20
110.0123235184800023
 30
0.0
  0
VERTEX
  5
5037
  8
0
 10
158.9737976100205117
 20
110.0244874217383995
 30
0.0
  0
VERTEX
  5
5038
  8
0
 10
158.9361787547069866
 20
110.036264733052505
 30
0.0
  0
VERTEX
  5
5039
  8
0
 10
158.89830903422191
 20
110.047653146553202
 30
0.0
  0
VERTEX
  5
503A
  8
0
 10
158.8601814062517121
 20
110.0586501335815939
 30
0.0
  0
VERTEX
  5
503B
  8
0
 10
158.821788082112306
 20
110.0692528886525992
 30
0.0
  0
VERTEX
  5
503C
  8
0
 10
158.8024891558661125
 20
110.0744054626781008
 30
0.0
  0
VERTEX
  5
503D
  8
0
 10
158.783120568857413
 20
110.0794582718285
 30
0.0
  0
VERTEX
  5
503E
  8
0
 10
158.7441697328549139
 20
110.0892627481325974
 30
0.0
  0
VERTEX
  5
503F
  8
0
 10
158.7049258880412879
 20
110.0986623249000047
 30
0.0
  0
VERTEX
  5
5040
  8
0
 10
158.6851909373312992
 20
110.1032088874685968
 30
0.0
  0
VERTEX
  5
5041
  8
0
 10
158.6653789120209126
 20
110.1076524882873997
 30
0.0
  0
VERTEX
  5
5042
  8
0
 10
158.6255183929592931
 20
110.1162281405438961
 30
0.0
  0
VERTEX
  5
5043
  8
0
 10
158.5853351783046037
 20
110.1243832706371961
 30
0.0
  0
VERTEX
  5
5044
  8
0
 10
158.5651208834574106
 20
110.128300868521805
 30
0.0
  0
VERTEX
  5
5045
  8
0
 10
158.5448226445450928
 20
110.1321107883569965
 30
0.0
  0
VERTEX
  5
5046
  8
0
 10
158.5039667394729861
 20
110.1394043862427026
 30
0.0
  0
VERTEX
  5
5047
  8
0
 10
158.4627514236246952
 20
110.1462572023440032
 30
0.0
  0
VERTEX
  5
5048
  8
0
 10
158.4211593954013892
 20
110.1526615766192947
 30
0.0
  0
VERTEX
  5
5049
  8
0
 10
158.3791722788189134
 20
110.1586089301732017
 30
0.0
  0
VERTEX
  5
504A
  8
0
 10
158.3367708801553988
 20
110.1640896461923944
 30
0.0
  0
VERTEX
  5
504B
  8
0
 10
158.3154086823383011
 20
110.1666516983268025
 30
0.0
  0
VERTEX
  5
504C
  8
0
 10
158.2939355143128068
 20
110.1690929582550069
 30
0.0
  0
VERTEX
  5
504D
  8
0
 10
158.2506463906169927
 20
110.1736068530725987
 30
0.0
  0
VERTEX
  5
504E
  8
0
 10
158.2068835580759867
 20
110.177618035755799
 30
0.0
  0
VERTEX
  5
504F
  8
0
 10
158.162625802106902
 20
110.1811119627947022
 30
0.0
  0
VERTEX
  5
5050
  8
0
 10
158.1178504623042045
 20
110.1840727302644041
 30
0.0
  0
VERTEX
  5
5051
  8
0
 10
158.0725337842229123
 20
110.1864829159053016
 30
0.0
  0
VERTEX
  5
5052
  8
0
 10
158.0496648271322897
 20
110.1874756456626017
 30
0.0
  0
VERTEX
  5
5053
  8
0
 10
158.0266513562471005
 20
110.1883234378563969
 30
0.0
  0
VERTEX
  5
5054
  8
0
 10
157.9801786030540995
 20
110.1895734385960992
 30
0.0
  0
VERTEX
  5
5055
  8
0
 10
157.9330913035462061
 20
110.1902102001447048
 30
0.0
  0
VERTEX
  5
5056
  8
0
 10
157.9093098515540987
 20
110.1902909949998985
 30
0.0
  0
SEQEND
  5
5057
  8
0
  0
POLYLINE
  5
440F
  8
0
 66
     1
 10
0.0
 20
0.0
 30
0.0
  0
VERTEX
  5
5058
  8
0
 10
161.1628429654089985
 20
107.9804546578931053
 30
0.0
  0
VERTEX
  5
5059
  8
0
 10
161.1555462213875103
 20
107.9987058493828016
 30
0.0
  0
VERTEX
  5
505A
  8
0
 10
161.1448272210909067
 20
108.0249922167816976
 30
0.0
  0
VERTEX
  5
505B
  8
0
 10
161.1394658676256029
 20
108.0379156132959935
 30
0.0
  0
VERTEX
  5
505C
  8
0
 10
161.1388023476388014
 20
108.0395049208590024
 30
0.0
  0
SEQEND
  5
505D
  8
0
  0
POLYLINE
  5
4410
  8
0
 66
     1
 10
0.0
 20
0.0
 30
0.0
  0
VERTEX
  5
505E
  8
0
 10
164.2114251840091015
 20
99.0522574036675394
 30
0.0
  0
VERTEX
  5
505F
  8
0
 10
164.2109667686193006
 20
99.0537663220862754
 30
0.0
  0
VERTEX
  5
5060
  8
0
 10
164.2072389855447909
 20
99.0660343863260948
 30
0.0
  0
VERTEX
  5
5061
  8
0
 10
164.1996540355787033
 20
99.0909837190892802
 30
0.0
  0
VERTEX
  5
5062
  8
0
 10
164.1943853636738879
 20
99.1083041432200105
 30
0.0
  0
VERTEX
  5
5063
  8
0
 10
164.1881224217565887
 20
99.1288825963260649
 30
0.0
  0
VERTEX
  5
5064
  8
0
 10
164.1725990420131893
 20
99.1798391305045186
 30
0.0
  0
VERTEX
  5
5065
  8
0
 10
164.1530807201411051
 20
99.2438097799822287
 30
0.0
  0
VERTEX
  5
5066
  8
0
 10
164.1296081384948025
 20
99.320594203040713
 30
0.0
  0
VERTEX
  5
5067
  8
0
 10
164.1022643261624125
 20
99.4098421993059844
 30
0.0
  0
VERTEX
  5
5068
  8
0
 10
164.0711538725668106
 20
99.5111239839321513
 30
0.0
  0
VERTEX
  5
5069
  8
0
 10
164.0542269514025975
 20
99.5661148483289651
 30
0.0
  0
VERTEX
  5
506A
  8
0
 10
164.0364151742261924
 20
99.6238928168983051
 30
0.0
  0
VERTEX
  5
506B
  8
0
 10
163.9982419360291885
 20
99.7474188025264255
 30
0.0
  0
VERTEX
  5
506C
  8
0
 10
163.9568681376800043
 20
99.8808421557698409
 30
0.0
  0
VERTEX
  5
506D
  8
0
 10
163.9125640621763864
 20
100.0231903978506978
 30
0.0
  0
VERTEX
  5
506E
  8
0
 10
163.8656431344911084
 20
100.1733609084430014
 30
0.0
  0
VERTEX
  5
506F
  8
0
 10
163.816464292768103
 20
100.3301182564202065
 30
0.0
  0
VERTEX
  5
5070
  8
0
 10
163.7911493232176952
 20
100.4105567655217044
 30
0.0
  0
VERTEX
  5
5071
  8
0
 10
163.7651503956076056
 20
100.492991050713897
 30
0.0
  0
VERTEX
  5
5072
  8
0
 10
163.7106303690140976
 20
100.6652772124188999
 30
0.0
  0
VERTEX
  5
5073
  8
0
 10
163.6528770901470011
 20
100.8469336868876951
 30
0.0
  0
VERTEX
  5
5074
  8
0
 10
163.6228439208211967
 20
100.9410589482665017
 30
0.0
  0
SEQEND
  5
5075
  8
0
  0
LINE
  5
4411
  8
0
 10
139.1219840780175048
 20
98.9802909949998764
 30
0.0
 11
139.1219840780175048
 21
108.3802909949998963
 31
0.0
  0
LINE
  5
4412
  8
0
 10
163.6219840780175048
 20
100.9433561087557933
 30
0.0
 11
163.6219840780175048
 21
107.9802909949999048
 31
0.0
  0
LINE
  5
4413
  8
0
 10
139.4219840780174025
 20
98.6802909949999218
 30
0.0
 11
139.4219840780174025
 21
108.6802909949998934
 31
0.0
  0
LINE
  5
4414
  8
2
 10
111.2219840780174991
 20
191.4802909949999048
 30
0.0
 11
111.2219840780174991
 21
210.8802909949999105
 31
0.0
  0
LINE
  5
4415
  8
1
 10
97.321984078017536
 20
213.1802909950000071
 30
0.0
 11
97.321984078017536
 21
189.1802909950000071
 31
0.0
  0
LINE
  5
4416
  8
1
 10
131.3219840780174934
 20
213.1802909950000071
 30
0.0
 11
131.3219840780174934
 21
189.1802909950000071
 31
0.0
  0
LINE
  5
4417
  8
0
 10
169.9890254970331966
 20
197.8162388571612098
 30
0.0
 11
169.9890254970331966
 21
204.5443431328388897
 31
0.0
  0
LINE
  5
4418
  8
0
 10
168.0467689550000046
 20
205.2652263169825915
 30
0.0
 11
165.5757548054770893
 21
205.2652263169825915
 31
0.0
  0
LINE
  5
4419
  8
0
 10
153.6219840780171921
 20
194.1802909950000924
 30
0.0
 11
162.7161902803586031
 21
194.1802909950000924
 31
0.0
  0
LINE
  5
441A
  8
0
 10
162.7161902803586031
 20
208.1802909950000924
 30
0.0
 11
153.6219840780171921
 21
208.1802909950000924
 31
0.0
  0
LINE
  5
441B
  8
0
 10
165.5757548054772883
 20
197.0953556730175933
 30
0.0
 11
168.0467689550000046
 21
197.0953556730175933
 31
0.0
  0
LINE
  5
441C
  8
0
 10
153.6219840780171921
 20
207.6802909950000924
 30
0.0
 11
143.1219840780171921
 21
207.6802909950000924
 31
0.0
  0
LINE
  5
441D
  8
0
 10
143.1219840780171921
 20
194.6802909950000924
 30
0.0
 11
153.6219840780171921
 21
194.6802909950000924
 31
0.0
  0
LINE
  5
441E
  8
0
 10
139.1219840780171921
 20
196.4802909949999901
 30
0.0
 11
139.4219840780174025
 21
196.1802909950000924
 31
0.0
  0
LINE
  5
441F
  8
0
 10
139.4219840780174025
 20
206.1802909950000924
 30
0.0
 11
139.1219840780171921
 21
205.8802909950001947
 31
0.0
  0
LINE
  5
4420
  8
0
 10
162.3048751088790027
 20
196.8802909950001094
 30
0.0
 11
163.6219840780171921
 21
196.8802909950001094
 31
0.0
  0
LINE
  5
4421
  8
0
 10
163.6219840780171921
 20
205.4802909950001037
 30
0.0
 11
162.3048734635798951
 21
205.4802909950001037
 31
0.0
  0
LINE
  5
4422
  8
0
 10
139.4219840780174025
 20
196.1802909950000924
 30
0.0
 11
143.1219840780171921
 21
196.1802909950000924
 31
0.0
  0
LINE
  5
4423
  8
0
 10
143.1219840780171921
 20
206.1802909950000924
 30
0.0
 11
139.4219840780174025
 21
206.1802909950000924
 31
0.0
  0
POLYLINE
  5
4424
  8
0
 66
     1
 10
0.0
 20
0.0
 30
0.0
  0
VERTEX
  5
5076
  8
0
 10
167.8964631052758989
 20
205.1959498424135973
 30
0.0
  0
VERTEX
  5
5077
  8
0
 10
167.7418134063987054
 20
205.0689698259477041
 30
0.0
  0
VERTEX
  5
5078
  8
0
 10
167.4148641191931972
 20
204.8839617928215944
 30
0.0
  0
VERTEX
  5
5079
  8
0
 10
167.0660815385845126
 20
204.7917410187777136
 30
0.0
  0
VERTEX
  5
507A
  8
0
 10
166.8842992609775138
 20
204.7802909950000867
 30
0.0
  0
SEQEND
  5
507B
  8
0
  0
POLYLINE
  5
4425
  8
0
 66
     1
 10
0.0
 20
0.0
 30
0.0
  0
VERTEX
  5
507C
  8
0
 10
166.8842992609775138
 20
204.7802909950000867
 30
0.0
  0
VERTEX
  5
507D
  8
0
 10
166.8154383164514911
 20
204.7818696802393958
 30
0.0
  0
VERTEX
  5
507E
  8
0
 10
166.6759777411120922
 20
204.7944389886544911
 30
0.0
  0
VERTEX
  5
507F
  8
0
 10
166.5343583676520041
 20
204.819402971437512
 30
0.0
  0
VERTEX
  5
5080
  8
0
 10
166.4628013514385998
 20
204.8364657457080114
 30
0.0
  0
VERTEX
  5
5081
  8
0
 10
166.3907804901691065
 20
204.8565416885145112
 30
0.0
  0
VERTEX
  5
5082
  8
0
 10
166.2454544888437056
 20
204.905596574372197
 30
0.0
  0
VERTEX
  5
5083
  8
0
 10
166.0986030062649093
 20
204.9662700460872031
 30
0.0
  0
VERTEX
  5
5084
  8
0
 10
165.9504610169124135
 20
205.0382250345460875
 30
0.0
  0
VERTEX
  5
5085
  8
0
 10
165.8012746259196035
 20
205.1210850970911963
 30
0.0
  0
VERTEX
  5
5086
  8
0
 10
165.6512997756395009
 20
205.2144349313882969
 30
0.0
  0
VERTEX
  5
5087
  8
0
 10
165.5760990159201071
 20
205.2649033156060909
 30
0.0
  0
VERTEX
  5
5088
  8
0
 10
165.5008008817827942
 20
205.3178212597310903
 30
0.0
  0
VERTEX
  5
5089
  8
0
 10
165.349998905775891
 20
205.4307934249825109
 30
0.0
  0
VERTEX
  5
508A
  8
0
 10
165.1969518152436081
 20
205.5546966883626112
 30
0.0
  0
VERTEX
  5
508B
  8
0
 10
165.0406565702951127
 20
205.6905188590966986
 30
0.0
  0
VERTEX
  5
508C
  8
0
 10
164.8812718617814141
 20
205.8383849097589859
 30
0.0
  0
VERTEX
  5
508D
  8
0
 10
164.7189667992454076
 20
205.9983842442414925
 30
0.0
  0
VERTEX
  5
508E
  8
0
 10
164.6367746053346934
 20
206.0829522974547956
 30
0.0
  0
VERTEX
  5
508F
  8
0
 10
164.5539199871799951
 20
206.1705715038623907
 30
0.0
  0
VERTEX
  5
5090
  8
0
 10
164.3863185098605015
 20
206.3549677034563956
 30
0.0
  0
VERTEX
  5
5091
  8
0
 10
164.2163568194903007
 20
206.5515617042196084
 30
0.0
  0
VERTEX
  5
5092
  8
0
 10
164.1305533792929054
 20
206.6544210477069043
 30
0.0
  0
SEQEND
  5
5093
  8
0
  0
POLYLINE
  5
4426
  8
0
 66
     1
 10
0.0
 20
0.0
 30
0.0
  0
VERTEX
  5
5094
  8
0
 10
168.079576419247104
 20
197.098777963872493
 30
0.0
  0
VERTEX
  5
5095
  8
0
 10
168.5137443380303921
 20
197.1950922793735117
 30
0.0
  0
VERTEX
  5
5096
  8
0
 10
169.2330511976946923
 20
197.3885517218546113
 30
0.0
  0
VERTEX
  5
5097
  8
0
 10
169.7528131647381997
 20
197.5828848586787956
 30
0.0
  0
VERTEX
  5
5098
  8
0
 10
169.9376178250047076
 20
197.6802909950000924
 30
0.0
  0
SEQEND
  5
5099
  8
0
  0
POLYLINE
  5
4427
  8
0
 66
     1
 10
0.0
 20
0.0
 30
0.0
  0
VERTEX
  5
509A
  8
0
 10
169.9376178250047076
 20
197.6802909950000924
 30
0.0
  0
VERTEX
  5
509B
  8
0
 10
169.9389759952451016
 20
197.6803627828797119
 30
0.0
  0
VERTEX
  5
509C
  8
0
 10
169.9416903537415067
 20
197.680940004170111
 30
0.0
  0
VERTEX
  5
509D
  8
0
 10
169.9444010963229061
 20
197.682101638318187
 30
0.0
  0
VERTEX
  5
509E
  8
0
 10
169.9457547494365883
 20
197.6829038215732055
 30
0.0
  0
VERTEX
  5
509F
  8
0
 10
169.9471070656132099
 20
197.6838546968448895
 30
0.0
  0
VERTEX
  5
50A0
  8
0
 10
169.9498071184941068
 20
197.6862056715443998
 30
0.0
  0
VERTEX
  5
50A1
  8
0
 10
169.9525001284528116
 20
197.6891605317061078
 30
0.0
  0
VERTEX
  5
50A2
  8
0
 10
169.9551849878293979
 20
197.6927247234226002
 30
0.0
  0
VERTEX
  5
50A3
  8
0
 10
169.9578606099609885
 20
197.6969031709749061
 30
0.0
  0
VERTEX
  5
50A4
  8
0
 10
169.9605259312349972
 20
197.7017002803015941
 30
0.0
  0
VERTEX
  5
50A5
  8
0
 10
169.9618544034570107
 20
197.7043320695769921
 30
0.0
  0
VERTEX
  5
50A6
  8
0
 10
169.9631799130434047
 20
197.7071199445597074
 30
0.0
  0
VERTEX
  5
50A7
  8
0
 10
169.9658215436500086
 20
197.7131655518037974
 30
0.0
  0
VERTEX
  5
50A8
  8
0
 10
169.9684498399655865
 20
197.7198399948071028
 30
0.0
  0
VERTEX
  5
50A9
  8
0
 10
169.9710638492364865
 20
197.7271456830640943
 30
0.0
  0
VERTEX
  5
50AA
  8
0
 10
169.9736626506457924
 20
197.7350845570130105
 30
0.0
  0
VERTEX
  5
50AB
  8
0
 10
169.9762453568264107
 20
197.7436581045259913
 30
0.0
  0
VERTEX
  5
50AC
  8
0
 10
169.9775304071272046
 20
197.7481832292585011
 30
0.0
  0
VERTEX
  5
50AD
  8
0
 10
169.9788111190970881
 20
197.752867393907195
 30
0.0
  0
VERTEX
  5
50AE
  8
0
 10
169.9813591109077038
 20
197.7627130287181103
 30
0.0
  0
VERTEX
  5
50AF
  8
0
 10
169.9838885116537028
 20
197.7731950769421019
 30
0.0
  0
VERTEX
  5
50B0
  8
0
 10
169.9851459910530025
 20
197.7786746490272947
 30
0.0
  0
SEQEND
  5
50B1
  8
0
  0
POLYLINE
  5
4428
  8
0
 66
     1
 10
0.0
 20
0.0
 30
0.0
  0
VERTEX
  5
50B2
  8
0
 10
169.9851459910530025
 20
197.7786746490272947
 30
0.0
  0
VERTEX
  5
50B3
  8
0
 10
169.9863348181204117
 20
197.7845096141273871
 30
0.0
  0
VERTEX
  5
50B4
  8
0
 10
169.9880595962430903
 20
197.7966931041127054
 30
0.0
  0
VERTEX
  5
50B5
  8
0
 10
169.9889185206448019
 20
197.8095555815752959
 30
0.0
  0
VERTEX
  5
50B6
  8
0
 10
169.9890254970331966
 20
197.8162388571684005
 30
0.0
  0
SEQEND
  5
50B7
  8
0
  0
POLYLINE
  5
4429
  8
0
 66
     1
 10
0.0
 20
0.0
 30
0.0
  0
VERTEX
  5
50B8
  8
0
 10
169.9890254970331966
 20
204.5443431328318127
 30
0.0
  0
VERTEX
  5
50B9
  8
0
 10
169.9889185206448019
 20
204.5510264084248888
 30
0.0
  0
VERTEX
  5
50BA
  8
0
 10
169.9880595962430903
 20
204.5638888858873941
 30
0.0
  0
VERTEX
  5
50BB
  8
0
 10
169.9863348181204117
 20
204.5760723758727977
 30
0.0
  0
VERTEX
  5
50BC
  8
0
 10
169.9851459910530025
 20
204.5819073409728901
 30
0.0
  0
SEQEND
  5
50BD
  8
0
  0
POLYLINE
  5
442A
  8
0
 66
     1
 10
0.0
 20
0.0
 30
0.0
  0
VERTEX
  5
50BE
  8
0
 10
169.9851459910530025
 20
204.5819073409728901
 30
0.0
  0
VERTEX
  5
50BF
  8
0
 10
169.9838885215386028
 20
204.5873868706921996
 30
0.0
  0
VERTEX
  5
50C0
  8
0
 10
169.9813591402902944
 20
204.5978688436526056
 30
0.0
  0
VERTEX
  5
50C1
  8
0
 10
169.9788111673574065
 20
204.6077144162750017
 30
0.0
  0
VERTEX
  5
50C2
  8
0
 10
169.9775304644936114
 20
204.6123985548389896
 30
0.0
  0
VERTEX
  5
50C3
  8
0
 10
169.976245423004201
 20
204.6169236569116094
 30
0.0
  0
VERTEX
  5
50C4
  8
0
 10
169.9736627333622891
 20
204.6254971694071116
 30
0.0
  0
VERTEX
  5
50C5
  8
0
 10
169.9710639468484885
 20
204.6334360215026891
 30
0.0
  0
VERTEX
  5
50C6
  8
0
 10
169.968449950514696
 20
204.6407417004135993
 30
0.0
  0
VERTEX
  5
50C7
  8
0
 10
169.9658216648485904
 20
204.6474161456964964
 30
0.0
  0
VERTEX
  5
50C8
  8
0
 10
169.9631800422571075
 20
204.6534617657289061
 30
0.0
  0
VERTEX
  5
50C9
  8
0
 10
169.9618545355779133
 20
204.6562496506311959
 30
0.0
  0
VERTEX
  5
50CA
  8
0
 10
169.9605260654682013
 20
204.6588814519234063
 30
0.0
  0
VERTEX
  5
50CB
  8
0
 10
169.9578607458443003
 20
204.6636785907201102
 30
0.0
  0
VERTEX
  5
50CC
  8
0
 10
169.9551851216050977
 20
204.6678570734034111
 30
0.0
  0
VERTEX
  5
50CD
  8
0
 10
169.9525002559653046
 20
204.6714213037741956
 30
0.0
  0
VERTEX
  5
50CE
  8
0
 10
169.9498072351765927
 20
204.674376203708789
 30
0.0
  0
VERTEX
  5
50CF
  8
0
 10
169.9471071664802082
 20
204.6767272166248972
 30
0.0
  0
VERTEX
  5
50D0
  8
0
 10
169.9457548403923113
 20
204.6776781095111915
 30
0.0
  0
VERTEX
  5
50D1
  8
0
 10
169.9444011759597117
 20
204.6784803088658009
 30
0.0
  0
VERTEX
  5
50D2
  8
0
 10
169.9416904062985907
 20
204.6796419690091113
 30
0.0
  0
VERTEX
  5
50D3
  8
0
 10
169.9389760144298975
 20
204.6802192050897133
 30
0.0
  0
VERTEX
  5
50D4
  8
0
 10
169.9376178250047076
 20
204.6802909950000924
 30
0.0
  0
SEQEND
  5
50D5
  8
0
  0
POLYLINE
  5
442B
  8
0
 66
     1
 10
0.0
 20
0.0
 30
0.0
  0
VERTEX
  5
50D6
  8
0
 10
169.9376178250047076
 20
204.6802909950000924
 30
0.0
  0
VERTEX
  5
50D7
  8
0
 10
169.7528131647381997
 20
204.7776971313213892
 30
0.0
  0
VERTEX
  5
50D8
  8
0
 10
169.2330511976946923
 20
204.9720302681456019
 30
0.0
  0
VERTEX
  5
50D9
  8
0
 10
168.5137443380303921
 20
205.1654897106267015
 30
0.0
  0
VERTEX
  5
50DA
  8
0
 10
168.079576419247104
 20
205.2618040261276064
 30
0.0
  0
SEQEND
  5
50DB
  8
0
  0
POLYLINE
  5
442C
  8
0
 66
     1
 10
0.0
 20
0.0
 30
0.0
  0
VERTEX
  5
50DC
  8
0
 10
168.079576419247104
 20
205.2618040261276064
 30
0.0
  0
VERTEX
  5
50DD
  8
0
 10
168.0740994415077125
 20
205.262854685657004
 30
0.0
  0
VERTEX
  5
50DE
  8
0
 10
168.0631548585251949
 20
205.2643761888110134
 30
0.0
  0
VERTEX
  5
50DF
  8
0
 10
168.0522261191935911
 20
205.2651322779740042
 30
0.0
  0
VERTEX
  5
50E0
  8
0
 10
168.0467689550000046
 20
205.2652263169825915
 30
0.0
  0
SEQEND
  5
50E1
  8
0
  0
POLYLINE
  5
442D
  8
0
 66
     1
 10
0.0
 20
0.0
 30
0.0
  0
VERTEX
  5
50E2
  8
0
 10
168.0467689550000046
 20
205.2652263169825915
 30
0.0
  0
VERTEX
  5
50E3
  8
0
 10
168.0224403491345129
 20
205.2633701874268013
 30
0.0
  0
VERTEX
  5
50E4
  8
0
 10
167.9728029951911026
 20
205.248242454337003
 30
0.0
  0
VERTEX
  5
50E5
  8
0
 10
167.922109427656693
 20
205.2173978338508107
 30
0.0
  0
VERTEX
  5
50E6
  8
0
 10
167.8964631052758989
 20
205.1959498424135973
 30
0.0
  0
SEQEND
  5
50E7
  8
0
  0
LINE
  5
442E
  8
0
 10
153.6219840780171921
 20
198.6073743620715959
 30
0.0
 11
157.9093098515540987
 21
198.6073743620715959
 31
0.0
  0
POLYLINE
  5
442F
  8
0
 66
     1
 10
0.0
 20
0.0
 30
0.0
  0
VERTEX
  5
50E8
  8
0
 10
161.181615551287905
 20
195.6195020014818908
 30
0.0
  0
VERTEX
  5
50E9
  8
0
 10
161.2189902566165074
 20
195.5454777709365999
 30
0.0
  0
VERTEX
  5
50EA
  8
0
 10
161.294328035776914
 20
195.4037843892361082
 30
0.0
  0
VERTEX
  5
50EB
  8
0
 10
161.3718242392776006
 20
195.2679682293650103
 30
0.0
  0
VERTEX
  5
50EC
  8
0
 10
161.4113991766647871
 20
195.2023071186858942
 30
0.0
  0
VERTEX
  5
50ED
  8
0
 10
161.4514918510805899
 20
195.1382412227162888
 30
0.0
  0
VERTEX
  5
50EE
  8
0
 10
161.5331263083899103
 20
195.0151675887555029
 30
0.0
  0
VERTEX
  5
50EF
  8
0
 10
161.6165152442621888
 20
194.8992585054942026
 30
0.0
  0
VERTEX
  5
50F0
  8
0
 10
161.7014423650844037
 20
194.7909692753923139
 30
0.0
  0
VERTEX
  5
50F1
  8
0
 10
161.7876888941127049
 20
194.6907007944593033
 30
0.0
  0
VERTEX
  5
50F2
  8
0
 10
161.875029548118107
 20
194.5988063892029913
 30
0.0
  0
VERTEX
  5
50F3
  8
0
 10
161.9190381472467095
 20
194.5560966619520968
 30
0.0
  0
VERTEX
  5
50F4
  8
0
 10
161.9632334438919941
 20
194.5155906833655024
 30
0.0
  0
VERTEX
  5
50F5
  8
0
 10
162.0520674948525084
 20
194.4413062855844032
 30
0.0
  0
VERTEX
  5
50F6
  8
0
 10
162.1413029080362946
 20
194.37614974107629
 30
0.0
  0
VERTEX
  5
50F7
  8
0
 10
162.2307418465069873
 20
194.3202492269547861
 30
0.0
  0
VERTEX
  5
50F8
  8
0
 10
162.3201622885526092
 20
194.2737064541773861
 30
0.0
  0
VERTEX
  5
50F9
  8
0
 10
162.4093327153254904
 20
194.2365779054792085
 30
0.0
  0
VERTEX
  5
50FA
  8
0
 10
162.4537522097971021
 20
194.2215467915264924
 30
0.0
  0
VERTEX
  5
50FB
  8
0
 10
162.4980233396589995
 20
194.2088656644631897
 30
0.0
  0
VERTEX
  5
50FC
  8
0
 10
162.5860092796932861
 20
194.1905159309386875
 30
0.0
  0
VERTEX
  5
50FD
  8
0
 10
162.6730723213917997
 20
194.1814190357156065
 30
0.0
  0
VERTEX
  5
50FE
  8
0
 10
162.7161902803586031
 20
194.1802909950000924
 30
0.0
  0
SEQEND
  5
50FF
  8
0
  0
POLYLINE
  5
4430
  8
0
 66
     1
 10
0.0
 20
0.0
 30
0.0
  0
VERTEX
  5
5100
  8
0
 10
162.7161902803586031
 20
194.1802909950000924
 30
0.0
  0
VERTEX
  5
5101
  8
0
 10
162.7600187983518936
 20
194.1814639117071977
 30
0.0
  0
VERTEX
  5
5102
  8
0
 10
162.8465811471945983
 20
194.1907451783278873
 30
0.0
  0
VERTEX
  5
5103
  8
0
 10
162.9314969596962044
 20
194.2090121661753983
 30
0.0
  0
VERTEX
  5
5104
  8
0
 10
162.9732692980527986
 20
194.2214015987354969
 30
0.0
  0
VERTEX
  5
5105
  8
0
 10
163.0146393908379991
 20
194.2359267369029112
 30
0.0
  0
VERTEX
  5
5106
  8
0
 10
163.0975356196618122
 20
194.2719289680090071
 30
0.0
  0
VERTEX
  5
5107
  8
0
 10
163.1805840132709875
 20
194.3174948104658029
 30
0.0
  0
VERTEX
  5
5108
  8
0
 10
163.263501580785487
 20
194.3728429075864028
 30
0.0
  0
VERTEX
  5
5109
  8
0
 10
163.3460152011089122
 20
194.438121579434096
 30
0.0
  0
VERTEX
  5
510A
  8
0
 10
163.4278652524891982
 20
194.5134124346546969
 30
0.0
  0
VERTEX
  5
510B
  8
0
 10
163.4684645093774975
 20
194.5548207456685077
 30
0.0
  0
VERTEX
  5
510C
  8
0
 10
163.5088068772342922
 20
194.5987338724910956
 30
0.0
  0
VERTEX
  5
510D
  8
0
 10
163.5886047294598029
 20
194.6940372466715132
 30
0.0
  0
VERTEX
  5
510E
  8
0
 10
163.6670328931110987
 20
194.7992055751745966
 30
0.0
  0
VERTEX
  5
510F
  8
0
 10
163.743878201366897
 20
194.9140569269989101
 30
0.0
  0
VERTEX
  5
5110
  8
0
 10
163.8189483362365877
 20
195.0383587188813124
 30
0.0
  0
VERTEX
  5
5111
  8
0
 10
163.892091176950089
 20
195.1718716140939875
 30
0.0
  0
VERTEX
  5
5112
  8
0
 10
163.9278870218612951
 20
195.2419790964800086
 30
0.0
  0
VERTEX
  5
5113
  8
0
 10
163.9631378908079
 20
195.3142555416139885
 30
0.0
  0
VERTEX
  5
5114
  8
0
 10
164.0319258418184916
 20
195.4650962978035977
 30
0.0
  0
VERTEX
  5
5115
  8
0
 10
164.0983069755681925
 20
195.6239192237682119
 30
0.0
  0
VERTEX
  5
5116
  8
0
 10
164.1305533792929054
 20
195.7061609422931951
 30
0.0
  0
SEQEND
  5
5117
  8
0
  0
LINE
  5
4431
  8
0
 10
153.6219840780171921
 20
194.1802909950000924
 30
0.0
 11
153.6219840780171921
 21
208.1802909950000924
 31
0.0
  0
POLYLINE
  5
4432
  8
0
 66
     1
 10
0.0
 20
0.0
 30
0.0
  0
VERTEX
  5
5118
  8
0
 10
164.1305533792929054
 20
206.6544210477069043
 30
0.0
  0
VERTEX
  5
5119
  8
0
 10
164.0983069755675103
 20
206.7366627662339909
 30
0.0
  0
VERTEX
  5
511A
  8
0
 10
164.0319258418178094
 20
206.895485692198406
 30
0.0
  0
VERTEX
  5
511B
  8
0
 10
163.9631378908075021
 20
207.0463264483877879
 30
0.0
  0
VERTEX
  5
511C
  8
0
 10
163.9278870218608972
 20
207.1186028935215973
 30
0.0
  0
VERTEX
  5
511D
  8
0
 10
163.8920911769492079
 20
207.1887103759075046
 30
0.0
  0
VERTEX
  5
511E
  8
0
 10
163.8189483362357066
 20
207.3222232711200945
 30
0.0
  0
VERTEX
  5
511F
  8
0
 10
163.7438782013664138
 20
207.4465250630022126
 30
0.0
  0
VERTEX
  5
5120
  8
0
 10
163.6670328931103882
 20
207.5613764148264977
 30
0.0
  0
VERTEX
  5
5121
  8
0
 10
163.5886047294592913
 20
207.6665447433294105
 30
0.0
  0
VERTEX
  5
5122
  8
0
 10
163.508806877233809
 20
207.7618481175096008
 30
0.0
  0
VERTEX
  5
5123
  8
0
 10
163.4684645093770996
 20
207.8057612443321887
 30
0.0
  0
VERTEX
  5
5124
  8
0
 10
163.4278652524888003
 20
207.8471695553459142
 30
0.0
  0
VERTEX
  5
5125
  8
0
 10
163.3460152011084006
 20
207.9224604105664014
 30
0.0
  0
VERTEX
  5
5126
  8
0
 10
163.2635015807850039
 20
207.9877390824142083
 30
0.0
  0
VERTEX
  5
5127
  8
0
 10
163.1805840132705896
 20
208.0430871795346093
 30
0.0
  0
VERTEX
  5
5128
  8
0
 10
163.0975356196616133
 20
208.0886530219912913
 30
0.0
  0
VERTEX
  5
5129
  8
0
 10
163.0146393908378002
 20
208.1246552530973872
 30
0.0
  0
VERTEX
  5
512A
  8
0
 10
162.9732692980527986
 20
208.1391803912646878
 30
0.0
  0
VERTEX
  5
512B
  8
0
 10
162.9314969596962044
 20
208.1515698238247865
 30
0.0
  0
VERTEX
  5
512C
  8
0
 10
162.8465811471945983
 20
208.1698368116722122
 30
0.0
  0
VERTEX
  5
512D
  8
0
 10
162.7600187983516093
 20
208.1791180782929871
 30
0.0
  0
VERTEX
  5
512E
  8
0
 10
162.7161902803586031
 20
208.1802909950000924
 30
0.0
  0
SEQEND
  5
512F
  8
0
  0
POLYLINE
  5
4433
  8
0
 66
     1
 10
0.0
 20
0.0
 30
0.0
  0
VERTEX
  5
5130
  8
0
 10
162.7161902803586031
 20
208.1802909950000924
 30
0.0
  0
VERTEX
  5
5131
  8
0
 10
162.6730723213917997
 20
208.179162954284493
 30
0.0
  0
VERTEX
  5
5132
  8
0
 10
162.5860092796932861
 20
208.1700660590614973
 30
0.0
  0
VERTEX
  5
5133
  8
0
 10
162.4980233396589995
 20
208.1517163255369098
 30
0.0
  0
VERTEX
  5
5134
  8
0
 10
162.4537522097971021
 20
208.1390351984736071
 30
0.0
  0
VERTEX
  5
5135
  8
0
 10
162.4093327153254904
 20
208.1240040845210046
 30
0.0
  0
VERTEX
  5
5136
  8
0
 10
162.3201622885526092
 20
208.0868755358227986
 30
0.0
  0
VERTEX
  5
5137
  8
0
 10
162.2307418465069873
 20
208.0403327630453134
 30
0.0
  0
VERTEX
  5
5138
  8
0
 10
162.1413029080362946
 20
207.9844322489238095
 30
0.0
  0
VERTEX
  5
5139
  8
0
 10
162.0520674948525084
 20
207.91927570441581
 30
0.0
  0
VERTEX
  5
513A
  8
0
 10
161.9632334438919941
 20
207.8449913066345971
 30
0.0
  0
VERTEX
  5
513B
  8
0
 10
161.9190381472467095
 20
207.8044853280480879
 30
0.0
  0
VERTEX
  5
513C
  8
0
 10
161.875029548118107
 20
207.7617756007971934
 30
0.0
  0
VERTEX
  5
513D
  8
0
 10
161.7876888941127049
 20
207.6698811955409099
 30
0.0
  0
VERTEX
  5
513E
  8
0
 10
161.7014423650844037
 20
207.5696127146078993
 30
0.0
  0
VERTEX
  5
513F
  8
0
 10
161.6165152442621888
 20
207.4613234845058969
 30
0.0
  0
VERTEX
  5
5140
  8
0
 10
161.5331263083899103
 20
207.3454144012447102
 30
0.0
  0
VERTEX
  5
5141
  8
0
 10
161.4514918510805899
 20
207.222340767283896
 30
0.0
  0
VERTEX
  5
5142
  8
0
 10
161.4113991766647871
 20
207.1582748713142905
 30
0.0
  0
VERTEX
  5
5143
  8
0
 10
161.3718242392776006
 20
207.0926137606352029
 30
0.0
  0
VERTEX
  5
5144
  8
0
 10
161.294328035776914
 20
206.956797600764105
 30
0.0
  0
VERTEX
  5
5145
  8
0
 10
161.2189902566165074
 20
206.8151042190636133
 30
0.0
  0
VERTEX
  5
5146
  8
0
 10
161.181615551287905
 20
206.7410799885182087
 30
0.0
  0
SEQEND
  5
5147
  8
0
  0
LINE
  5
4434
  8
0
 10
157.9093098515540987
 20
203.7532076279285889
 30
0.0
 11
153.6219840780171921
 21
203.7532076279285889
 31
0.0
  0
POLYLINE
  5
4435
  8
0
 66
     1
 10
0.0
 20
0.0
 30
0.0
  0
VERTEX
  5
5148
  8
0
 10
167.8964631052758989
 20
197.1646321475865022
 30
0.0
  0
VERTEX
  5
5149
  8
0
 10
167.922109427656693
 20
197.1431841561494025
 30
0.0
  0
VERTEX
  5
514A
  8
0
 10
167.9728029951911026
 20
197.1123395356632102
 30
0.0
  0
VERTEX
  5
514B
  8
0
 10
168.0224403491345129
 20
197.0972118025734119
 30
0.0
  0
VERTEX
  5
514C
  8
0
 10
168.0467689550000046
 20
197.0953556730175933
 30
0.0
  0
SEQEND
  5
514D
  8
0
  0
POLYLINE
  5
4436
  8
0
 66
     1
 10
0.0
 20
0.0
 30
0.0
  0
VERTEX
  5
514E
  8
0
 10
168.0467689550000046
 20
197.0953556730175933
 30
0.0
  0
VERTEX
  5
514F
  8
0
 10
168.0522261191935911
 20
197.095449712026209
 30
0.0
  0
VERTEX
  5
5150
  8
0
 10
168.0631548585251949
 20
197.0962058011891997
 30
0.0
  0
VERTEX
  5
5151
  8
0
 10
168.0740994415077125
 20
197.0977273043432092
 30
0.0
  0
VERTEX
  5
5152
  8
0
 10
168.079576419247104
 20
197.098777963872493
 30
0.0
  0
SEQEND
  5
5153
  8
0
  0
POLYLINE
  5
4437
  8
0
 66
     1
 10
0.0
 20
0.0
 30
0.0
  0
VERTEX
  5
5154
  8
0
 10
164.1305533792929054
 20
195.7061609422931951
 30
0.0
  0
VERTEX
  5
5155
  8
0
 10
164.2163568194964114
 20
195.8090202857881081
 30
0.0
  0
VERTEX
  5
5156
  8
0
 10
164.3863185098666122
 20
196.0056142865502977
 30
0.0
  0
VERTEX
  5
5157
  8
0
 10
164.5539199871855089
 20
196.1900104861435921
 30
0.0
  0
VERTEX
  5
5158
  8
0
 10
164.6367746053402072
 20
196.2776296925507893
 30
0.0
  0
VERTEX
  5
5159
  8
0
 10
164.7189667992506088
 20
196.3621977457636092
 30
0.0
  0
VERTEX
  5
515A
  8
0
 10
164.881271861786189
 20
196.5221970802456042
 30
0.0
  0
VERTEX
  5
515B
  8
0
 10
165.0406565702992054
 20
196.6700631309072094
 30
0.0
  0
VERTEX
  5
515C
  8
0
 10
165.1969518152475018
 20
196.8058853016406999
 30
0.0
  0
VERTEX
  5
515D
  8
0
 10
165.3499989057791026
 20
196.9297885650202886
 30
0.0
  0
VERTEX
  5
515E
  8
0
 10
165.500800881785807
 20
197.0427607302711976
 30
0.0
  0
VERTEX
  5
515F
  8
0
 10
165.5760990159228072
 20
197.0956786743961118
 30
0.0
  0
VERTEX
  5
5160
  8
0
 10
165.651299775642201
 20
197.1461470586137068
 30
0.0
  0
VERTEX
  5
5161
  8
0
 10
165.8012746259221046
 20
197.2394968929102959
 30
0.0
  0
VERTEX
  5
5162
  8
0
 10
165.950461016914204
 20
197.322356955455092
 30
0.0
  0
VERTEX
  5
5163
  8
0
 10
166.0986030062668135
 20
197.3943119439138059
 30
0.0
  0
VERTEX
  5
5164
  8
0
 10
166.2454544888450982
 20
197.4549854156284141
 30
0.0
  0
VERTEX
  5
5165
  8
0
 10
166.3907804901701013
 20
197.504040301485901
 30
0.0
  0
VERTEX
  5
5166
  8
0
 10
166.4628013514395093
 20
197.5241162442924008
 30
0.0
  0
VERTEX
  5
5167
  8
0
 10
166.5343583676526009
 20
197.5411790185629002
 30
0.0
  0
VERTEX
  5
5168
  8
0
 10
166.6759777411124901
 20
197.5661430013456936
 30
0.0
  0
VERTEX
  5
5169
  8
0
 10
166.8154383164514911
 20
197.5787123097607036
 30
0.0
  0
VERTEX
  5
516A
  8
0
 10
166.8842992609775138
 20
197.5802909950000981
 30
0.0
  0
SEQEND
  5
516B
  8
0
  0
POLYLINE
  5
4438
  8
0
 66
     1
 10
0.0
 20
0.0
 30
0.0
  0
VERTEX
  5
516C
  8
0
 10
166.8842992609775138
 20
197.5802909950000981
 30
0.0
  0
VERTEX
  5
516D
  8
0
 10
167.0660815385845126
 20
197.5688409712224995
 30
0.0
  0
VERTEX
  5
516E
  8
0
 10
167.4148641191931972
 20
197.4766201971785904
 30
0.0
  0
VERTEX
  5
516F
  8
0
 10
167.7418134063987054
 20
197.2916121640525091
 30
0.0
  0
VERTEX
  5
5170
  8
0
 10
167.8964631052758989
 20
197.1646321475865022
 30
0.0
  0
SEQEND
  5
5171
  8
0
  0
LINE
  5
4439
  8
0
 10
143.1219840780171921
 20
194.6802909950000924
 30
0.0
 11
143.1219840780171921
 21
207.6802909950000924
 31
0.0
  0
LINE
  5
443A
  8
0
 10
161.181615551287905
 20
195.6195020014818908
 30
0.0
 11
161.181615551287905
 21
200.2016231937228099
 31
0.0
  0
POLYLINE
  5
443B
  8
0
 66
     1
 10
0.0
 20
0.0
 30
0.0
  0
VERTEX
  5
5172
  8
0
 10
157.9093098515540987
 20
198.6073743620715959
 30
0.0
  0
VERTEX
  5
5173
  8
0
 10
157.9330913035460071
 20
198.6071699441191072
 30
0.0
  0
VERTEX
  5
5174
  8
0
 10
157.9801786030540995
 20
198.6055595391993904
 30
0.0
  0
VERTEX
  5
5175
  8
0
 10
158.0266513562469015
 20
198.6024016019640897
 30
0.0
  0
VERTEX
  5
5176
  8
0
 10
158.0496648271322897
 20
198.6002623280701016
 30
0.0
  0
VERTEX
  5
5177
  8
0
 10
158.0725337842227134
 20
198.5977599325836991
 30
0.0
  0
VERTEX
  5
5178
  8
0
 10
158.1178504623038918
 20
198.591696175403996
 30
0.0
  0
VERTEX
  5
5179
  8
0
 10
158.162625802106902
 20
198.5842696652186987
 30
0.0
  0
VERTEX
  5
517A
  8
0
 10
158.2068835580757877
 20
198.5755373933205021
 30
0.0
  0
VERTEX
  5
517B
  8
0
 10
158.2506463906169927
 20
198.5655540737589035
 30
0.0
  0
VERTEX
  5
517C
  8
0
 10
158.2939355143128068
 20
198.5543722830713875
 30
0.0
  0
VERTEX
  5
517D
  8
0
 10
158.3154086823383011
 20
198.5483478295163877
 30
0.0
  0
VERTEX
  5
517E
  8
0
 10
158.3367708801551998
 20
198.5420425133756055
 30
0.0
  0
VERTEX
  5
517F
  8
0
 10
158.3791722788189134
 20
198.528612897867589
 30
0.0
  0
VERTEX
  5
5180
  8
0
 10
158.4211593954013892
 20
198.5141291367874032
 30
0.0
  0
VERTEX
  5
5181
  8
0
 10
158.462751423624411
 20
198.4986346028640014
 30
0.0
  0
VERTEX
  5
5182
  8
0
 10
158.5039667394729861
 20
198.482170501199306
 30
0.0
  0
VERTEX
  5
5183
  8
0
 10
158.5448226445450928
 20
198.4647760615029881
 30
0.0
  0
VERTEX
  5
5184
  8
0
 10
158.5651208834574106
 20
198.4557417348536035
 30
0.0
  0
VERTEX
  5
5185
  8
0
 10
158.5853351783046037
 20
198.4464887448233981
 30
0.0
  0
VERTEX
  5
5186
  8
0
 10
158.6255183929592931
 20
198.4273447444157057
 30
0.0
  0
VERTEX
  5
5187
  8
0
 10
158.6653789120209126
 20
198.4073820108096982
 30
0.0
  0
VERTEX
  5
5188
  8
0
 10
158.6851909373312992
 20
198.3971047370208112
 30
0.0
  0
VERTEX
  5
5189
  8
0
 10
158.7049258880410036
 20
198.3866357779918133
 30
0.0
  0
VERTEX
  5
518A
  8
0
 10
158.7441697328549139
 20
198.3651389444800941
 30
0.0
  0
VERTEX
  5
518B
  8
0
 10
158.7831205688571004
 20
198.3429228195307985
 30
0.0
  0
VERTEX
  5
518C
  8
0
 10
158.8024891558661125
 20
198.3315544023631958
 30
0.0
  0
VERTEX
  5
518D
  8
0
 10
158.821788082112306
 20
198.3200172456093924
 30
0.0
  0
VERTEX
  5
518E
  8
0
 10
158.8601814062517121
 20
198.2964507256247089
 30
0.0
  0
VERTEX
  5
518F
  8
0
 10
158.898309034221711
 20
198.2722505497918064
 30
0.0
  0
VERTEX
  5
5190
  8
0
 10
158.9361787547067877
 20
198.247442918268888
 30
0.0
  0
VERTEX
  5
5191
  8
0
 10
158.973797610020199
 20
198.2220530568079084
 30
0.0
  0
VERTEX
  5
5192
  8
0
 10
159.0111718723809986
 20
198.196105323566286
 30
0.0
  0
VERTEX
  5
5193
  8
0
 10
159.029769028401688
 20
198.1829296537667062
 30
0.0
  0
VERTEX
  5
5194
  8
0
 10
159.0483070356928863
 20
198.1696233059518875
 30
0.0
  0
VERTEX
  5
5195
  8
0
 10
159.0852078202165103
 20
198.1426299069449044
 30
0.0
  0
VERTEX
  5
5196
  8
0
 10
159.1218781878050947
 20
198.115147420766192
 30
0.0
  0
VERTEX
  5
5197
  8
0
 10
159.2484436618682935
 20
198.0154223028455931
 30
0.0
  0
VERTEX
  5
5198
  8
0
 10
159.458541499713192
 20
197.8341682641814998
 30
0.0
  0
VERTEX
  5
5199
  8
0
 10
159.659452147910514
 20
197.6438750976961103
 30
0.0
  0
VERTEX
  5
519A
  8
0
 10
159.8504889799446005
 20
197.4485773186146957
 30
0.0
  0
VERTEX
  5
519B
  8
0
 10
159.9420276781964105
 20
197.3502082897408911
 30
0.0
  0
VERTEX
  5
519C
  8
0
 10
160.0307485935121861
 20
197.2519357730103877
 30
0.0
  0
VERTEX
  5
519D
  8
0
 10
160.1992207451527861
 20
197.0573073581975905
 30
0.0
  0
VERTEX
  5
519E
  8
0
 10
160.3574078012649977
 20
196.8646359082499941
 30
0.0
  0
VERTEX
  5
519F
  8
0
 10
160.5099754242785082
 20
196.668916716997586
 30
0.0
  0
VERTEX
  5
51A0
  8
0
 10
160.6555173253258886
 20
196.4719020955220117
 30
0.0
  0
VERTEX
  5
51A1
  8
0
 10
160.7924153232071944
 20
196.275566506434302
 30
0.0
  0
VERTEX
  5
51A2
  8
0
 10
160.8571340873999986
 20
196.178238978250306
 30
0.0
  0
VERTEX
  5
51A3
  8
0
 10
160.9191117791110059
 20
196.0817713004730933
 30
0.0
  0
VERTEX
  5
51A4
  8
0
 10
161.0341059949791997
 20
195.8922711147590974
 30
0.0
  0
VERTEX
  5
51A5
  8
0
 10
161.1359918364996133
 20
195.7086615632474889
 30
0.0
  0
VERTEX
  5
51A6
  8
0
 10
161.181615551287905
 20
195.6195020014818908
 30
0.0
  0
SEQEND
  5
51A7
  8
0
  0
LINE
  5
443C
  8
0
 10
157.9093098515540987
 20
198.6073743620715959
 30
0.0
 11
157.9093098515540987
 21
203.7532076279285889
 31
0.0
  0
POLYLINE
  5
443D
  8
0
 66
     1
 10
0.0
 20
0.0
 30
0.0
  0
VERTEX
  5
51A8
  8
0
 10
161.181615551287905
 20
206.7410799885182087
 30
0.0
  0
VERTEX
  5
51A9
  8
0
 10
161.1359918364996133
 20
206.6519204267526959
 30
0.0
  0
VERTEX
  5
51AA
  8
0
 10
161.0341059949791997
 20
206.4683108752410874
 30
0.0
  0
VERTEX
  5
51AB
  8
0
 10
160.9191117791110059
 20
206.2788106895270914
 30
0.0
  0
VERTEX
  5
51AC
  8
0
 10
160.8571340873999986
 20
206.1823430117497935
 30
0.0
  0
VERTEX
  5
51AD
  8
0
 10
160.7924153232071944
 20
206.0850154835657975
 30
0.0
  0
VERTEX
  5
51AE
  8
0
 10
160.6555173253258886
 20
205.8886798944782015
 30
0.0
  0
VERTEX
  5
51AF
  8
0
 10
160.5099754242785082
 20
205.6916652730025135
 30
0.0
  0
VERTEX
  5
51B0
  8
0
 10
160.3574078012649977
 20
205.4959460817501906
 30
0.0
  0
VERTEX
  5
51B1
  8
0
 10
160.1992207451527861
 20
205.3032746318025943
 30
0.0
  0
VERTEX
  5
51B2
  8
0
 10
160.0307485935121861
 20
205.108646216989797
 30
0.0
  0
VERTEX
  5
51B3
  8
0
 10
159.9420276781964105
 20
205.0103737002592936
 30
0.0
  0
VERTEX
  5
51B4
  8
0
 10
159.8504889799446005
 20
204.9120046713854038
 30
0.0
  0
VERTEX
  5
51B5
  8
0
 10
159.659452147910514
 20
204.7167068923041029
 30
0.0
  0
VERTEX
  5
51B6
  8
0
 10
159.458541499713192
 20
204.5264137258187134
 30
0.0
  0
VERTEX
  5
51B7
  8
0
 10
159.2484436618682935
 20
204.3451596871545064
 30
0.0
  0
VERTEX
  5
51B8
  8
0
 10
159.1218781878050947
 20
204.2454345692339075
 30
0.0
  0
VERTEX
  5
51B9
  8
0
 10
159.0852078202165103
 20
204.2179520830553088
 30
0.0
  0
VERTEX
  5
51BA
  8
0
 10
159.0483070356928863
 20
204.1909586840482973
 30
0.0
  0
VERTEX
  5
51BB
  8
0
 10
159.029769028401688
 20
204.177652336233507
 30
0.0
  0
VERTEX
  5
51BC
  8
0
 10
159.0111718723809986
 20
204.1644766664338988
 30
0.0
  0
VERTEX
  5
51BD
  8
0
 10
158.973797610020199
 20
204.1385289331921911
 30
0.0
  0
VERTEX
  5
51BE
  8
0
 10
158.9361787547067877
 20
204.1131390717312115
 30
0.0
  0
VERTEX
  5
51BF
  8
0
 10
158.898309034221711
 20
204.0883314402082931
 30
0.0
  0
VERTEX
  5
51C0
  8
0
 10
158.8601814062517121
 20
204.0641312643753906
 30
0.0
  0
VERTEX
  5
51C1
  8
0
 10
158.821788082112306
 20
204.0405647443907924
 30
0.0
  0
VERTEX
  5
51C2
  8
0
 10
158.8024891558661125
 20
204.0290275876371027
 30
0.0
  0
VERTEX
  5
51C3
  8
0
 10
158.7831205688571004
 20
204.017659170469301
 30
0.0
  0
VERTEX
  5
51C4
  8
0
 10
158.7441697328549139
 20
203.9954430455200054
 30
0.0
  0
VERTEX
  5
51C5
  8
0
 10
158.7049258880410036
 20
203.9739462120082862
 30
0.0
  0
VERTEX
  5
51C6
  8
0
 10
158.6851909373312992
 20
203.9634772529794873
 30
0.0
  0
VERTEX
  5
51C7
  8
0
 10
158.6653789120209126
 20
203.9531999791904866
 30
0.0
  0
VERTEX
  5
51C8
  8
0
 10
158.6255183929592931
 20
203.9332372455845075
 30
0.0
  0
VERTEX
  5
51C9
  8
0
 10
158.5853351783046037
 20
203.9140932451767867
 30
0.0
  0
VERTEX
  5
51CA
  8
0
 10
158.5651208834574106
 20
203.904840255146496
 30
0.0
  0
VERTEX
  5
51CB
  8
0
 10
158.5448226445450928
 20
203.8958059284971966
 30
0.0
  0
VERTEX
  5
51CC
  8
0
 10
158.5039667394729861
 20
203.8784114888007934
 30
0.0
  0
VERTEX
  5
51CD
  8
0
 10
158.462751423624411
 20
203.8619473871362118
 30
0.0
  0
VERTEX
  5
51CE
  8
0
 10
158.4211593954013892
 20
203.8464528532128099
 30
0.0
  0
VERTEX
  5
51CF
  8
0
 10
158.3791722788189134
 20
203.8319690921325957
 30
0.0
  0
VERTEX
  5
51D0
  8
0
 10
158.3367708801551998
 20
203.8185394766246077
 30
0.0
  0
VERTEX
  5
51D1
  8
0
 10
158.3154086823383011
 20
203.812234160483797
 30
0.0
  0
VERTEX
  5
51D2
  8
0
 10
158.2939355143128068
 20
203.806209706928712
 30
0.0
  0
VERTEX
  5
51D3
  8
0
 10
158.2506463906169927
 20
203.7950279162413949
 30
0.0
  0
VERTEX
  5
51D4
  8
0
 10
158.2068835580757877
 20
203.785044596679711
 30
0.0
  0
VERTEX
  5
51D5
  8
0
 10
158.162625802106902
 20
203.776312324781486
 30
0.0
  0
VERTEX
  5
51D6
  8
0
 10
158.1178504623038918
 20
203.7688858145961888
 30
0.0
  0
VERTEX
  5
51D7
  8
0
 10
158.0725337842227134
 20
203.7628220574164004
 30
0.0
  0
VERTEX
  5
51D8
  8
0
 10
158.0496648271322897
 20
203.7603196619299979
 30
0.0
  0
VERTEX
  5
51D9
  8
0
 10
158.0266513562469015
 20
203.7581803880360951
 30
0.0
  0
VERTEX
  5
51DA
  8
0
 10
157.9801786030540995
 20
203.7550224508007943
 30
0.0
  0
VERTEX
  5
51DB
  8
0
 10
157.9330913035460071
 20
203.7534120458811913
 30
0.0
  0
VERTEX
  5
51DC
  8
0
 10
157.9093098515540987
 20
203.7532076279285889
 30
0.0
  0
SEQEND
  5
51DD
  8
0
  0
LINE
  5
443E
  8
0
 10
161.181615551287905
 20
202.1589587962774033
 30
0.0
 11
161.181615551287905
 21
206.7410799885182087
 31
0.0
  0
POLYLINE
  5
443F
  8
0
 66
     1
 10
0.0
 20
0.0
 30
0.0
  0
VERTEX
  5
51DE
  8
0
 10
161.181615551287905
 20
200.2016231937228099
 30
0.0
  0
VERTEX
  5
51DF
  8
0
 10
161.1771255200906126
 20
200.2560867447974999
 30
0.0
  0
VERTEX
  5
51E0
  8
0
 10
161.1688115891219866
 20
200.3652209471923129
 30
0.0
  0
VERTEX
  5
51E1
  8
0
 10
161.1614347697517928
 20
200.4745288483424019
 30
0.0
  0
VERTEX
  5
51E2
  8
0
 10
161.158113850642593
 20
200.5292088889366937
 30
0.0
  0
VERTEX
  5
51E3
  8
0
 10
161.1550452554095045
 20
200.5838849154530976
 30
0.0
  0
VERTEX
  5
51E4
  8
0
 10
161.1496831356218991
 20
200.6931593106953073
 30
0.0
  0
VERTEX
  5
51E5
  8
0
 10
161.1453779162675062
 20
200.80221908663259
 30
0.0
  0
VERTEX
  5
51E6
  8
0
 10
161.1421482099835885
 20
200.9109294414641909
 30
0.0
  0
VERTEX
  5
51E7
  8
0
 10
161.1400016156889876
 20
201.0191550455786
 30
0.0
  0
VERTEX
  5
51E8
  8
0
 10
161.1389348008428897
 20
201.1267614340380021
 30
0.0
  0
VERTEX
  5
51E9
  8
0
 10
161.1388023476388014
 20
201.1802909950000924
 30
0.0
  0
VERTEX
  5
51EA
  8
0
 10
161.1389348008428897
 20
201.2338205559620974
 30
0.0
  0
VERTEX
  5
51EB
  8
0
 10
161.1400016156889876
 20
201.3414269444214995
 30
0.0
  0
VERTEX
  5
51EC
  8
0
 10
161.1421482099835885
 20
201.4496525485359086
 30
0.0
  0
VERTEX
  5
51ED
  8
0
 10
161.1453779162675062
 20
201.5583629033675948
 30
0.0
  0
VERTEX
  5
51EE
  8
0
 10
161.1496831356218991
 20
201.6674226793049058
 30
0.0
  0
VERTEX
  5
51EF
  8
0
 10
161.1550452554095045
 20
201.7766970745470871
 30
0.0
  0
VERTEX
  5
51F0
  8
0
 10
161.158113850642593
 20
201.831373101063491
 30
0.0
  0
VERTEX
  5
51F1
  8
0
 10
161.1614347697517928
 20
201.8860531416576976
 30
0.0
  0
VERTEX
  5
51F2
  8
0
 10
161.1688115891219866
 20
201.9953610428079003
 30
0.0
  0
VERTEX
  5
51F3
  8
0
 10
161.1771255200906126
 20
202.1044952452027132
 30
0.0
  0
VERTEX
  5
51F4
  8
0
 10
161.181615551287905
 20
202.1589587962774033
 30
0.0
  0
SEQEND
  5
51F5
  8
0
  0
POLYLINE
  5
4440
  8
0
 66
     1
 10
0.0
 20
0.0
 30
0.0
  0
VERTEX
  5
51F6
  8
0
 10
161.181615551287905
 20
202.1589587962774033
 30
0.0
  0
VERTEX
  5
51F7
  8
0
 10
161.1840012061819891
 20
202.1867873825362096
 30
0.0
  0
VERTEX
  5
51F8
  8
0
 10
161.1889760017216133
 20
202.2423676102274044
 30
0.0
  0
VERTEX
  5
51F9
  8
0
 10
161.1942213431061077
 20
202.2978309582059069
 30
0.0
  0
VERTEX
  5
51FA
  8
0
 10
161.1969451299501088
 20
202.3255134431238957
 30
0.0
  0
VERTEX
  5
51FB
  8
0
 10
161.1997361202911065
 20
202.3531602796404059
 30
0.0
  0
VERTEX
  5
51FC
  8
0
 10
161.205519010186606
 20
202.4083384596063127
 30
0.0
  0
VERTEX
  5
51FD
  8
0
 10
161.2115684792674983
 20
202.4633484532189982
 30
0.0
  0
VERTEX
  5
51FE
  8
0
 10
161.2178827870125133
 20
202.5181733227018128
 30
0.0
  0
VERTEX
  5
51FF
  8
0
 10
161.2244599901605113
 20
202.5727962734158893
 30
0.0
  0
VERTEX
  5
5200
  8
0
 10
161.231297947763295
 20
202.6272006888748933
 30
0.0
  0
VERTEX
  5
5201
  8
0
 10
161.2348139878054099
 20
202.6543158103399094
 30
0.0
  0
VERTEX
  5
5202
  8
0
 10
161.2383943270264979
 20
202.6813701647755863
 30
0.0
  0
VERTEX
  5
5203
  8
0
 10
161.2457466099234864
 20
202.7352885420633015
 30
0.0
  0
VERTEX
  5
5204
  8
0
 10
161.2533521005707087
 20
202.7889399390554956
 30
0.0
  0
VERTEX
  5
5205
  8
0
 10
161.2612079333630106
 20
202.842308782643812
 30
0.0
  0
VERTEX
  5
5206
  8
0
 10
161.269311327876494
 20
202.8953814212707982
 30
0.0
  0
VERTEX
  5
5207
  8
0
 10
161.277660619979514
 20
202.9481522257412962
 30
0.0
  0
VERTEX
  5
5208
  8
0
 10
161.2819265812003948
 20
202.9744203821092867
 30
0.0
  0
VERTEX
  5
5209
  8
0
 10
161.286252871027898
 20
203.0006079132824084
 30
0.0
  0
VERTEX
  5
520A
  8
0
 10
161.2950847186374972
 20
203.0527337437733024
 30
0.0
  0
VERTEX
  5
520B
  8
0
 10
161.3041526066533038
 20
203.1045150693954895
 30
0.0
  0
VERTEX
  5
520C
  8
0
 10
161.3087739025135932
 20
203.1302719997208897
 30
0.0
  0
VERTEX
  5
520D
  8
0
 10
161.3134527891992889
 20
203.1559373712597107
 30
0.0
  0
VERTEX
  5
520E
  8
0
 10
161.3229813354041084
 20
203.2069862945386944
 30
0.0
  0
VERTEX
  5
520F
  8
0
 10
161.332734134782612
 20
203.2576476821396909
 30
0.0
  0
VERTEX
  5
5210
  8
0
 10
161.3376932972373083
 20
203.2828286880040878
 30
0.0
  0
VERTEX
  5
5211
  8
0
 10
161.342706903241293
 20
203.307907606960697
 30
0.0
  0
VERTEX
  5
5212
  8
0
 10
161.3528951896994101
 20
203.3577524027693073
 30
0.0
  0
VERTEX
  5
5213
  8
0
 10
161.3632943832963065
 20
203.4071686937548975
 30
0.0
  0
VERTEX
  5
5214
  8
0
 10
161.373899721179896
 20
203.4561434227973109
 30
0.0
  0
VERTEX
  5
5215
  8
0
 10
161.3847062968629871
 20
203.5046638785026119
 30
0.0
  0
VERTEX
  5
5216
  8
0
 10
161.3957090691347105
 20
203.5527177210520904
 30
0.0
  0
VERTEX
  5
5217
  8
0
 10
161.4012824190936044
 20
203.5765659139063928
 30
0.0
  0
VERTEX
  5
5218
  8
0
 10
161.4069028715306899
 20
203.6002930069130059
 30
0.0
  0
VERTEX
  5
5219
  8
0
 10
161.4182824223510124
 20
203.6473782124388094
 30
0.0
  0
VERTEX
  5
521A
  8
0
 10
161.4298423279992107
 20
203.6939622276676118
 30
0.0
  0
VERTEX
  5
521B
  8
0
 10
161.4415770455570964
 20
203.7400341933511925
 30
0.0
  0
VERTEX
  5
521C
  8
0
 10
161.4534808579714991
 20
203.785583410621399
 30
0.0
  0
VERTEX
  5
521D
  8
0
 10
161.4655478780572935
 20
203.8305993713705107
 30
0.0
  0
VERTEX
  5
521E
  8
0
 10
161.4716407061918915
 20
203.852904157530304
 30
0.0
  0
VERTEX
  5
521F
  8
0
 10
161.4777720545542081
 20
203.8750717930458904
 30
0.0
  0
VERTEX
  5
5220
  8
0
 10
161.4901471786658931
 20
203.9189906514837958
 30
0.0
  0
VERTEX
  5
5221
  8
0
 10
161.5026668910608976
 20
203.962346211837712
 30
0.0
  0
VERTEX
  5
5222
  8
0
 10
161.5153246893021048
 20
204.0051290576656982
 30
0.0
  0
VERTEX
  5
5223
  8
0
 10
161.5281139356852123
 20
204.0473301182429964
 30
0.0
  0
VERTEX
  5
5224
  8
0
 10
161.5410278654740068
 20
204.0889406941701054
 30
0.0
  0
VERTEX
  5
5225
  8
0
 10
161.5475294400420978
 20
204.1095219392948081
 30
0.0
  0
VERTEX
  5
5226
  8
0
 10
161.5540595955149001
 20
204.1299524813503012
 30
0.0
  0
VERTEX
  5
5227
  8
0
 10
161.5672021332310919
 20
204.1703575934103867
 30
0.0
  0
VERTEX
  5
5228
  8
0
 10
161.5804483859892002
 20
204.2101485826410965
 30
0.0
  0
VERTEX
  5
5229
  8
0
 10
161.5937911708452077
 20
204.249318459533697
 30
0.0
  0
VERTEX
  5
522A
  8
0
 10
161.6072232246756073
 20
204.2878607109894915
 30
0.0
  0
VERTEX
  5
522B
  8
0
 10
161.6207862172574892
 20
204.3259052277122123
 30
0.0
  0
VERTEX
  5
522C
  8
0
 10
161.627642214538298
 20
204.3448122147580079
 30
0.0
  0
VERTEX
  5
522D
  8
0
 10
161.6345476181656977
 20
204.3636403936619104
 30
0.0
  0
VERTEX
  5
522E
  8
0
 10
161.648505173349605
 20
204.4010527327893101
 30
0.0
  0
VERTEX
  5
522F
  8
0
 10
161.6626558543140959
 20
204.4381272122089115
 30
0.0
  0
VERTEX
  5
5230
  8
0
 10
161.6769964996836109
 20
204.4748490622374959
 30
0.0
  0
VERTEX
  5
5231
  8
0
 10
161.6915238227375085
 20
204.5112037955858
 30
0.0
  0
VERTEX
  5
5232
  8
0
 10
161.7062344191668046
 20
204.5471772251297864
 30
0.0
  0
VERTEX
  5
5233
  8
0
 10
161.7136573508554989
 20
204.5650166036407995
 30
0.0
  0
VERTEX
  5
5234
  8
0
 10
161.7211247750489918
 20
204.5827554803200883
 30
0.0
  0
VERTEX
  5
5235
  8
0
 10
161.7361912750442912
 20
204.6179250222793939
 30
0.0
  0
VERTEX
  5
5236
  8
0
 10
161.7514302108102129
 20
204.6526726576335022
 30
0.0
  0
VERTEX
  5
5237
  8
0
 10
161.7591131599396874
 20
204.6698842350031953
 30
0.0
  0
VERTEX
  5
5238
  8
0
 10
161.7668377896357015
 20
204.6869855511112064
 30
0.0
  0
VERTEX
  5
5239
  8
0
 10
161.7824101432983923
 20
204.7208512369423943
 30
0.0
  0
VERTEX
  5
523A
  8
0
 10
161.7981433371423918
 20
204.7542576290788929
 30
0.0
  0
VERTEX
  5
523B
  8
0
 10
161.8060690036708991
 20
204.7707849192048002
 30
0.0
  0
VERTEX
  5
523C
  8
0
 10
161.8140333793776051
 20
204.7871930302532917
 30
0.0
  0
VERTEX
  5
523D
  8
0
 10
161.8300762306012075
 20
204.8196461398869133
 30
0.0
  0
VERTEX
  5
523E
  8
0
 10
161.8462678135425961
 20
204.8516060608492921
 30
0.0
  0
VERTEX
  5
523F
  8
0
 10
161.8626040207282131
 20
204.8830623006888061
 30
0.0
  0
VERTEX
  5
5240
  8
0
 10
161.8790806870323991
 20
204.9140047068426895
 30
0.0
  0
VERTEX
  5
5241
  8
0
 10
161.8956935503946966
 20
204.9444233893698026
 30
0.0
  0
VERTEX
  5
5242
  8
0
 10
161.9040496978396106
 20
204.959433316854188
 30
0.0
  0
VERTEX
  5
5243
  8
0
 10
161.9124382535219127
 20
204.9743087276553979
 30
0.0
  0
VERTEX
  5
5244
  8
0
 10
161.929310351196392
 20
205.0036513867707129
 30
0.0
  0
VERTEX
  5
5245
  8
0
 10
161.9463053176637004
 20
205.0324423325151031
 30
0.0
  0
VERTEX
  5
5246
  8
0
 10
161.9634185541048907
 20
205.06067284519699
 30
0.0
  0
VERTEX
  5
5247
  8
0
 10
161.9806453961938928
 20
205.0883345321981039
 30
0.0
  0
VERTEX
  5
5248
  8
0
 10
161.9979811217426118
 20
205.1154193393591072
 30
0.0
  0
VERTEX
  5
5249
  8
0
 10
162.0066883262097122
 20
205.1287429911654101
 30
0.0
  0
VERTEX
  5
524A
  8
0
 10
162.0154209584329124
 20
205.1419195612214139
 30
0.0
  0
VERTEX
  5
524B
  8
0
 10
162.0329600916410868
 20
205.1678278501555042
 30
0.0
  0
VERTEX
  5
524C
  8
0
 10
162.0505936723589002
 20
205.1931372243998055
 30
0.0
  0
VERTEX
  5
524D
  8
0
 10
162.0683168252143957
 20
205.2178410750296109
 30
0.0
  0
VERTEX
  5
524E
  8
0
 10
162.0861246565951035
 20
205.2419331718728017
 30
0.0
  0
VERTEX
  5
524F
  8
0
 10
162.1040122628855897
 20
205.2654076683820961
 30
0.0
  0
VERTEX
  5
5250
  8
0
 10
162.1129844485589899
 20
205.2769115953275048
 30
0.0
  0
VERTEX
  5
5251
  8
0
 10
162.1219747388171868
 20
205.2882591054685122
 30
0.0
  0
VERTEX
  5
5252
  8
0
 10
162.1400079283203013
 20
205.3104833145490886
 30
0.0
  0
VERTEX
  5
5253
  8
0
 10
162.1581091026804984
 20
205.3320780593865038
 30
0.0
  0
VERTEX
  5
5254
  8
0
 10
162.1762734689054923
 20
205.353038793516788
 30
0.0
  0
VERTEX
  5
5255
  8
0
 10
162.1944960333752874
 20
205.373361102267495
 30
0.0
  0
VERTEX
  5
5256
  8
0
 10
162.2127717467660091
 20
205.3930408895284927
 30
0.0
  0
VERTEX
  5
5257
  8
0
 10
162.2219279429519077
 20
205.4026386479349071
 30
0.0
  0
VERTEX
  5
5258
  8
0
 10
162.2310955113269131
 20
205.4120743909066107
 30
0.0
  0
VERTEX
  5
5259
  8
0
 10
162.2494621881810133
 20
205.430458185679214
 30
0.0
  0
VERTEX
  5
525A
  8
0
 10
162.2678666046425917
 20
205.4481892075766041
 30
0.0
  0
VERTEX
  5
525B
  8
0
 10
162.3325040466428959
 20
205.5050715673270076
 30
0.0
  0
VERTEX
  5
525C
  8
0
 10
162.3880549696272908
 20
205.5473788572143121
 30
0.0
  0
VERTEX
  5
525D
  8
0
 10
162.4435935914011111
 20
205.5837154446201112
 30
0.0
  0
VERTEX
  5
525E
  8
0
 10
162.55407598660031
 20
205.6385725859294951
 30
0.0
  0
VERTEX
  5
525F
  8
0
 10
162.6628218622749955
 20
205.6701480928502122
 30
0.0
  0
VERTEX
  5
5260
  8
0
 10
162.7161902803586031
 20
205.6775084829548064
 30
0.0
  0
SEQEND
  5
5261
  8
0
  0
POLYLINE
  5
4441
  8
0
 66
     1
 10
0.0
 20
0.0
 30
0.0
  0
VERTEX
  5
5262
  8
0
 10
162.7161902803586031
 20
205.6775084829548064
 30
0.0
  0
VERTEX
  5
5263
  8
0
 10
162.7296745739292874
 20
205.6785158356364036
 30
0.0
  0
VERTEX
  5
5264
  8
0
 10
162.7567401396360935
 20
205.6794948621727031
 30
0.0
  0
VERTEX
  5
5265
  8
0
 10
162.7839194743959865
 20
205.6790706704115053
 30
0.0
  0
VERTEX
  5
5266
  8
0
 10
162.7975459631074955
 20
205.6783245157629949
 30
0.0
  0
VERTEX
  5
5267
  8
0
 10
162.8111938805373029
 20
205.6772184112766126
 30
0.0
  0
VERTEX
  5
5268
  8
0
 10
162.8385446545576087
 20
205.6739154556555036
 30
0.0
  0
VERTEX
  5
5269
  8
0
 10
162.8659531489956009
 20
205.6691414008456036
 30
0.0
  0
VERTEX
  5
526A
  8
0
 10
162.8934008331607117
 20
205.6628780622843919
 30
0.0
  0
VERTEX
  5
526B
  8
0
 10
162.9208693529402865
 20
205.6551094504270907
 30
0.0
  0
VERTEX
  5
526C
  8
0
 10
162.9483405898635908
 20
205.6458217324893951
 30
0.0
  0
VERTEX
  5
526D
  8
0
 10
162.962071644059904
 20
205.6406044628199083
 30
0.0
  0
VERTEX
  5
526E
  8
0
 10
162.9757967195492085
 20
205.6350031786394936
 30
0.0
  0
VERTEX
  5
526F
  8
0
 10
163.0032202696206127
 20
205.6226440921057019
 30
0.0
  0
VERTEX
  5
5270
  8
0
 10
163.0305941733560928
 20
205.6087367245802966
 30
0.0
  0
VERTEX
  5
5271
  8
0
 10
163.0579016871170097
 20
205.5932752563151951
 30
0.0
  0
VERTEX
  5
5272
  8
0
 10
163.0851261475463048
 20
205.5762559122518951
 30
0.0
  0
VERTEX
  5
5273
  8
0
 10
163.1122509620682024
 20
205.5576770016548096
 30
0.0
  0
VERTEX
  5
5274
  8
0
 10
163.1257708505854112
 20
205.5478027499318898
 30
0.0
  0
VERTEX
  5
5275
  8
0
 10
163.1392596668486021
 20
205.5375389147143892
 30
0.0
  0
VERTEX
  5
5276
  8
0
 10
163.1661359830505091
 20
205.5158441053040974
 30
0.0
  0
VERTEX
  5
5277
  8
0
 10
163.1928638712510917
 20
205.4925970599267089
 30
0.0
  0
VERTEX
  5
5278
  8
0
 10
163.2061672210099914
 20
205.4803933957770141
 30
0.0
  0
SEQEND
  5
5279
  8
0
  0
POLYLINE
  5
4442
  8
0
 66
     1
 10
0.0
 20
0.0
 30
0.0
  0
VERTEX
  5
527A
  8
0
 10
163.62185868601631
 20
204.8487262161355886
 30
0.0
  0
VERTEX
  5
527B
  8
0
 10
163.6319700723684036
 20
204.8260081277541929
 30
0.0
  0
VERTEX
  5
527C
  8
0
 10
163.6519428627952948
 20
204.7798341283159971
 30
0.0
  0
VERTEX
  5
527D
  8
0
 10
163.6715761908845082
 20
204.7327038745528967
 30
0.0
  0
VERTEX
  5
527E
  8
0
 10
163.6812633149743021
 20
204.7087908267791079
 30
0.0
  0
VERTEX
  5
527F
  8
0
 10
163.6908629219591944
 20
204.6846517108990042
 30
0.0
  0
VERTEX
  5
5280
  8
0
 10
163.7097962393334001
 20
204.6357134508093054
 30
0.0
  0
VERTEX
  5
5281
  8
0
 10
163.7283696800722907
 20
204.5859263066330129
 30
0.0
  0
VERTEX
  5
5282
  8
0
 10
163.7465771686152038
 20
204.5353288092215962
 30
0.0
  0
VERTEX
  5
5283
  8
0
 10
163.7644130483359106
 20
204.4839607169760995
 30
0.0
  0
VERTEX
  5
5284
  8
0
 10
163.781872111120208
 20
204.4318629139318944
 30
0.0
  0
VERTEX
  5
5285
  8
0
 10
163.79045883811159
 20
204.4055534272557111
 30
0.0
  0
VERTEX
  5
5286
  8
0
 10
163.7989596591785073
 20
204.3790457320592111
 30
0.0
  0
VERTEX
  5
5287
  8
0
 10
163.8158095263219991
 20
204.3250987703858073
 30
0.0
  0
VERTEX
  5
5288
  8
0
 10
163.8324527404492983
 20
204.2698965444155874
 30
0.0
  0
VERTEX
  5
5289
  8
0
 10
163.8488740400570975
 20
204.2134572251096074
 30
0.0
  0
VERTEX
  5
528A
  8
0
 10
163.8650585828212911
 20
204.1558007942946062
 30
0.0
  0
VERTEX
  5
528B
  8
0
 10
163.8809919828142938
 20
204.0969489334752893
 30
0.0
  0
VERTEX
  5
528C
  8
0
 10
163.8888601418288999
 20
204.0670819272064875
 30
0.0
  0
VERTEX
  5
528D
  8
0
 10
163.8966603442054009
 20
204.0369249016511901
 30
0.0
  0
VERTEX
  5
528E
  8
0
 10
163.9120502915536122
 20
203.9757534015471947
 30
0.0
  0
VERTEX
  5
528F
  8
0
 10
163.9271489967501907
 20
203.9134604336805126
 30
0.0
  0
VERTEX
  5
5290
  8
0
 10
163.9345852802927936
 20
203.8819018405922066
 30
0.0
  0
VERTEX
  5
5291
  8
0
 10
163.9419442026060096
 20
203.8500731377245074
 30
0.0
  0
VERTEX
  5
5292
  8
0
 10
163.9564242430386969
 20
203.7856196206766128
 30
0.0
  0
VERTEX
  5
5293
  8
0
 10
163.9705780597473108
 20
203.7201287714283069
 30
0.0
  0
VERTEX
  5
5294
  8
0
 10
163.9775293459352099
 20
203.6870035497665015
 30
0.0
  0
VERTEX
  5
5295
  8
0
 10
163.9843951950869894
 20
203.6536301602785954
 30
0.0
  0
VERTEX
  5
5296
  8
0
 10
163.9978656587250043
 20
203.5861545741709051
 30
0.0
  0
VERTEX
  5
5297
  8
0
 10
164.010979850399508
 20
203.5177344040606044
 30
0.0
  0
VERTEX
  5
5298
  8
0
 10
164.023728589257189
 20
203.4484035478793089
 30
0.0
  0
VERTEX
  5
5299
  8
0
 10
164.0361031457584886
 20
203.3781972757568894
 30
0.0
  0
VERTEX
  5
529A
  8
0
 10
164.0480952696603083
 20
203.3071520872339022
 30
0.0
  0
VERTEX
  5
529B
  8
0
 10
164.0539454782627047
 20
203.2713266045929004
 30
0.0
  0
VERTEX
  5
529C
  8
0
 10
164.0596972141599963
 20
203.2353055601934102
 30
0.0
  0
VERTEX
  5
529D
  8
0
 10
164.0709017562467125
 20
203.1626961912348861
 30
0.0
  0
VERTEX
  5
529E
  8
0
 10
164.0817022132737009
 20
203.0893632272060927
 30
0.0
  0
VERTEX
  5
529F
  8
0
 10
164.0920924557325975
 20
203.0153464876310068
 30
0.0
  0
VERTEX
  5
52A0
  8
0
 10
164.1020669161698038
 20
202.940686177791406
 30
0.0
  0
VERTEX
  5
52A1
  8
0
 10
164.1116218216419895
 20
202.865412764960098
 30
0.0
  0
VERTEX
  5
52A2
  8
0
 10
164.1162410953755
 20
202.8275536018205969
 30
0.0
  0
VERTEX
  5
52A3
  8
0
 10
164.1207541427278898
 20
202.7895529981572054
 30
0.0
  0
VERTEX
  5
52A4
  8
0
 10
164.1294593824557069
 20
202.7131486489701899
 30
0.0
  0
VERTEX
  5
52A5
  8
0
 10
164.1377334686457914
 20
202.6362428162846072
 30
0.0
  0
VERTEX
  5
52A6
  8
0
 10
164.1455727962035951
 20
202.5588796713894055
 30
0.0
  0
VERTEX
  5
52A7
  8
0
 10
164.1529742523354969
 20
202.481104295655598
 30
0.0
  0
VERTEX
  5
52A8
  8
0
 10
164.1599352375428111
 20
202.4029625126667042
 30
0.0
  0
VERTEX
  5
52A9
  8
0
 10
164.1632498857846088
 20
202.363768698687096
 30
0.0
  0
VERTEX
  5
52AA
  8
0
 10
164.1664536824395952
 20
202.3245007147019976
 30
0.0
  0
VERTEX
  5
52AB
  8
0
 10
164.1725280604169086
 20
202.2457656834145894
 30
0.0
  0
VERTEX
  5
52AC
  8
0
 10
164.1781573961584115
 20
202.1668044045185866
 30
0.0
  0
VERTEX
  5
52AD
  8
0
 10
164.1833412699606924
 20
202.0876638762557889
 30
0.0
  0
VERTEX
  5
52AE
  8
0
 10
164.1880798170444962
 20
202.0083909247777001
 30
0.0
  0
VERTEX
  5
52AF
  8
0
 10
164.1923736988468931
 20
201.9290324830417092
 30
0.0
  0
VERTEX
  5
52B0
  8
0
 10
164.1943542289936886
 20
201.8893361198018965
 30
0.0
  0
VERTEX
  5
52B1
  8
0
 10
164.1962240609458945
 20
201.8496364116882944
 30
0.0
  0
VERTEX
  5
52B2
  8
0
 10
164.1996325513478041
 20
201.7702515388648123
 30
0.0
  0
VERTEX
  5
52B3
  8
0
 10
164.2026013490531113
 20
201.6909274723676049
 30
0.0
  0
VERTEX
  5
52B4
  8
0
 10
164.2051331876278084
 20
201.6117144091575994
 30
0.0
  0
VERTEX
  5
52B5
  8
0
 10
164.2072313738372031
 20
201.5326629433012045
 30
0.0
  0
VERTEX
  5
52B6
  8
0
 10
164.2088998014380081
 20
201.4538238723515917
 30
0.0
  0
VERTEX
  5
52B7
  8
0
 10
164.2095742353789944
 20
201.4144998668193978
 30
0.0
  0
VERTEX
  5
52B8
  8
0
 10
164.2101429601883922
 20
201.3752480020488065
 30
0.0
  0
VERTEX
  5
52B9
  8
0
 10
164.2109659401170916
 20
201.2969859490787883
 30
0.0
  0
VERTEX
  5
52BA
  8
0
 10
164.2113744310443053
 20
201.2190879415057907
 30
0.0
  0
VERTEX
  5
52BB
  8
0
 10
164.2114251840089025
 20
201.1802909950069989
 30
0.0
  0
VERTEX
  5
52BC
  8
0
 10
164.2113744310443053
 20
201.141494048508207
 30
0.0
  0
VERTEX
  5
52BD
  8
0
 10
164.2109659401176032
 20
201.0635960409352094
 30
0.0
  0
VERTEX
  5
52BE
  8
0
 10
164.2101429601883922
 20
200.9853339879653049
 30
0.0
  0
VERTEX
  5
52BF
  8
0
 10
164.2095742353793923
 20
200.9460821231949126
 30
0.0
  0
VERTEX
  5
52C0
  8
0
 10
164.2088998014382923
 20
200.9067581176626049
 30
0.0
  0
VERTEX
  5
52C1
  8
0
 10
164.207231373837601
 20
200.8279190467131059
 30
0.0
  0
VERTEX
  5
52C2
  8
0
 10
164.2051331876280074
 20
200.7488675808567109
 30
0.0
  0
VERTEX
  5
52C3
  8
0
 10
164.2026013490535945
 20
200.6696545176467055
 30
0.0
  0
VERTEX
  5
52C4
  8
0
 10
164.199632551348202
 20
200.590330451149498
 30
0.0
  0
VERTEX
  5
52C5
  8
0
 10
164.1962240609464061
 20
200.5109455783259875
 30
0.0
  0
VERTEX
  5
52C6
  8
0
 10
164.1943542289940865
 20
200.4712458702124991
 30
0.0
  0
VERTEX
  5
52C7
  8
0
 10
164.1923736988474047
 20
200.4315495069726012
 30
0.0
  0
VERTEX
  5
52C8
  8
0
 10
164.1880798170450078
 20
200.3521910652366103
 30
0.0
  0
VERTEX
  5
52C9
  8
0
 10
164.1833412699616019
 20
200.2729181137586068
 30
0.0
  0
VERTEX
  5
52CA
  8
0
 10
164.1781573961592926
 20
200.1937775854956953
 30
0.0
  0
VERTEX
  5
52CB
  8
0
 10
164.1725280604177897
 20
200.1148163065996926
 30
0.0
  0
VERTEX
  5
52CC
  8
0
 10
164.1664536824405047
 20
200.0360812753121991
 30
0.0
  0
VERTEX
  5
52CD
  8
0
 10
164.1632498857856888
 20
199.9968132913269869
 30
0.0
  0
VERTEX
  5
52CE
  8
0
 10
164.1599352375442038
 20
199.9576194773472935
 30
0.0
  0
VERTEX
  5
52CF
  8
0
 10
164.1529742523366053
 20
199.8794776943585987
 30
0.0
  0
VERTEX
  5
52D0
  8
0
 10
164.1455727962047035
 20
199.8017023186245922
 30
0.0
  0
VERTEX
  5
52D1
  8
0
 10
164.1377334686472125
 20
199.7243391737293052
 30
0.0
  0
VERTEX
  5
52D2
  8
0
 10
164.1294593824572985
 20
199.6474333410436941
 30
0.0
  0
VERTEX
  5
52D3
  8
0
 10
164.120754142729794
 20
199.5710289918565934
 30
0.0
  0
VERTEX
  5
52D4
  8
0
 10
164.1162410953770063
 20
199.5330283881930882
 30
0.0
  0
VERTEX
  5
52D5
  8
0
 10
164.1116218216438938
 20
199.4951692250535871
 30
0.0
  0
VERTEX
  5
52D6
  8
0
 10
164.102066916171708
 20
199.4198958122221939
 30
0.0
  0
VERTEX
  5
52D7
  8
0
 10
164.0920924557345018
 20
199.3452355023825078
 30
0.0
  0
VERTEX
  5
52D8
  8
0
 10
164.0817022132754914
 20
199.2712187628071945
 30
0.0
  0
VERTEX
  5
52D9
  8
0
 10
164.070901756248503
 20
199.1978857987782874
 30
0.0
  0
VERTEX
  5
52DA
  8
0
 10
164.0596972141619858
 20
199.1252764298195075
 30
0.0
  0
VERTEX
  5
52DB
  8
0
 10
164.0539454782646942
 20
199.0892553854201026
 30
0.0
  0
VERTEX
  5
52DC
  8
0
 10
164.0480952696624968
 20
199.0534299027791008
 30
0.0
  0
VERTEX
  5
52DD
  8
0
 10
164.0361031457605065
 20
198.9823847142558861
 30
0.0
  0
VERTEX
  5
52DE
  8
0
 10
164.0237285892594059
 20
198.9121784421334098
 30
0.0
  0
VERTEX
  5
52DF
  8
0
 10
164.0109798504018102
 20
198.8428475859518869
 30
0.0
  0
VERTEX
  5
52E0
  8
0
 10
163.9978656587271928
 20
198.7744274158413873
 30
0.0
  0
VERTEX
  5
52E1
  8
0
 10
163.9843951950896894
 20
198.706951829733498
 30
0.0
  0
VERTEX
  5
52E2
  8
0
 10
163.977529345937711
 20
198.673578440245592
 30
0.0
  0
VERTEX
  5
52E3
  8
0
 10
163.9705780597500961
 20
198.6404532185837013
 30
0.0
  0
VERTEX
  5
52E4
  8
0
 10
163.9564242430413117
 20
198.5749623693351111
 30
0.0
  0
VERTEX
  5
52E5
  8
0
 10
163.9419442026087097
 20
198.5105088522869892
 30
0.0
  0
VERTEX
  5
52E6
  8
0
 10
163.9345852802952948
 20
198.4786801494194037
 30
0.0
  0
VERTEX
  5
52E7
  8
0
 10
163.9271489967526918
 20
198.4471215563308988
 30
0.0
  0
VERTEX
  5
52E8
  8
0
 10
163.9120502915563975
 20
198.3848285884639893
 30
0.0
  0
VERTEX
  5
52E9
  8
0
 10
163.8966603442081009
 20
198.3236570883597096
 30
0.0
  0
VERTEX
  5
52EA
  8
0
 10
163.8888601418316
 20
198.2935000628044122
 30
0.0
  0
VERTEX
  5
52EB
  8
0
 10
163.8809919828171928
 20
198.2636330565354967
 30
0.0
  0
VERTEX
  5
52EC
  8
0
 10
163.8650585828241049
 20
198.2047811957158956
 30
0.0
  0
VERTEX
  5
52ED
  8
0
 10
163.8488740400597976
 20
198.1471247649008092
 30
0.0
  0
VERTEX
  5
52EE
  8
0
 10
163.8324527404519984
 20
198.0906854455946018
 30
0.0
  0
VERTEX
  5
52EF
  8
0
 10
163.8158095263252108
 20
198.0354832196240125
 30
0.0
  0
VERTEX
  5
52F0
  8
0
 10
163.7989596591814916
 20
197.9815362579506086
 30
0.0
  0
VERTEX
  5
52F1
  8
0
 10
163.790458838114489
 20
197.9550285627539097
 30
0.0
  0
VERTEX
  5
52F2
  8
0
 10
163.7818721111229934
 20
197.928719076077499
 30
0.0
  0
VERTEX
  5
52F3
  8
0
 10
163.7644130483390086
 20
197.8766212730332938
 30
0.0
  0
VERTEX
  5
52F4
  8
0
 10
163.746577168618586
 20
197.8252531807875982
 30
0.0
  0
VERTEX
  5
52F5
  8
0
 10
163.7283696800757014
 20
197.7746556833762099
 30
0.0
  0
VERTEX
  5
52F6
  8
0
 10
163.7097962393368107
 20
197.7248685391996901
 30
0.0
  0
VERTEX
  5
52F7
  8
0
 10
163.690862921962605
 20
197.6759302791097923
 30
0.0
  0
VERTEX
  5
52F8
  8
0
 10
163.6812633149775138
 20
197.6517911632294897
 30
0.0
  0
VERTEX
  5
52F9
  8
0
 10
163.6715761908880893
 20
197.6278781154557862
 30
0.0
  0
VERTEX
  5
52FA
  8
0
 10
163.6519428627987054
 20
197.5807478616924016
 30
0.0
  0
VERTEX
  5
52FB
  8
0
 10
163.6319700723720132
 20
197.5345738622540921
 30
0.0
  0
VERTEX
  5
52FC
  8
0
 10
163.6218586860200048
 20
197.5118557738726111
 30
0.0
  0
SEQEND
  5
52FD
  8
0
  0
POLYLINE
  5
4443
  8
0
 66
     1
 10
0.0
 20
0.0
 30
0.0
  0
VERTEX
  5
52FE
  8
0
 10
163.2061672210093093
 20
196.8801885942226022
 30
0.0
  0
VERTEX
  5
52FF
  8
0
 10
163.1928638712583961
 20
196.8679849300797002
 30
0.0
  0
VERTEX
  5
5300
  8
0
 10
163.1661359830727065
 20
196.8447378847149878
 30
0.0
  0
VERTEX
  5
5301
  8
0
 10
163.1392596668868009
 20
196.823043075315411
 30
0.0
  0
VERTEX
  5
5302
  8
0
 10
163.1257708506313975
 20
196.8127792401025999
 30
0.0
  0
VERTEX
  5
5303
  8
0
 10
163.1122509621218057
 20
196.8029049883840003
 30
0.0
  0
VERTEX
  5
5304
  8
0
 10
163.0851261476161085
 20
196.7843260777939918
 30
0.0
  0
VERTEX
  5
5305
  8
0
 10
163.0579016872029001
 20
196.7673067337360067
 30
0.0
  0
VERTEX
  5
5306
  8
0
 10
163.0305941734577004
 20
196.7518452654746
 30
0.0
  0
VERTEX
  5
5307
  8
0
 10
163.0032202697383923
 20
196.7379378979508999
 30
0.0
  0
VERTEX
  5
5308
  8
0
 10
162.9757967196827906
 20
196.7255788114171082
 30
0.0
  0
VERTEX
  5
5309
  8
0
 10
162.9620716442015862
 20
196.7199775272360966
 30
0.0
  0
VERTEX
  5
530A
  8
0
 10
162.9483405900132027
 20
196.7147602575655867
 30
0.0
  0
VERTEX
  5
530B
  8
0
 10
162.9208693531058998
 20
196.705472539624509
 30
0.0
  0
VERTEX
  5
530C
  8
0
 10
162.8934008333422128
 20
196.6977039277622055
 30
0.0
  0
VERTEX
  5
530D
  8
0
 10
162.8659531491925918
 20
196.6914405891942863
 30
0.0
  0
VERTEX
  5
530E
  8
0
 10
162.8385446547700042
 20
196.6866665343760019
 30
0.0
  0
VERTEX
  5
530F
  8
0
 10
162.811193880764904
 20
196.6833635787450021
 30
0.0
  0
VERTEX
  5
5310
  8
0
 10
162.7975459633425999
 20
196.682257474253106
 30
0.0
  0
VERTEX
  5
5311
  8
0
 10
162.7839194746383953
 20
196.6815113195987976
 30
0.0
  0
VERTEX
  5
5312
  8
0
 10
162.7567401398931963
 20
196.6810871278248953
 30
0.0
  0
VERTEX
  5
5313
  8
0
 10
162.7296745742009989
 20
196.6820661543468987
 30
0.0
  0
VERTEX
  5
5314
  8
0
 10
162.7161902806373917
 20
196.6830735070209073
 30
0.0
  0
SEQEND
  5
5315
  8
0
  0
POLYLINE
  5
4444
  8
0
 66
     1
 10
0.0
 20
0.0
 30
0.0
  0
VERTEX
  5
5316
  8
0
 10
162.7161902806373917
 20
196.6830735070209073
 30
0.0
  0
VERTEX
  5
5317
  8
0
 10
162.6628236392398037
 20
196.6904335626703926
 30
0.0
  0
VERTEX
  5
5318
  8
0
 10
162.5541270156329006
 20
196.7219893817355114
 30
0.0
  0
VERTEX
  5
5319
  8
0
 10
162.4437361505306114
 20
196.7767808687223976
 30
0.0
  0
VERTEX
  5
531A
  8
0
 10
162.3882524191434982
 20
196.8130634485048915
 30
0.0
  0
VERTEX
  5
531B
  8
0
 10
162.3327588098021863
 20
196.8553026286035106
 30
0.0
  0
VERTEX
  5
531C
  8
0
 10
162.2681874263446105
 20
196.9120897912337966
 30
0.0
  0
VERTEX
  5
531D
  8
0
 10
162.2498011493742069
 20
196.9297910167906878
 30
0.0
  0
VERTEX
  5
531E
  8
0
 10
162.2314521087045875
 20
196.9481440748758985
 30
0.0
  0
VERTEX
  5
531F
  8
0
 10
162.2222931409918942
 20
196.9575641384363109
 30
0.0
  0
VERTEX
  5
5320
  8
0
 10
162.2131453856484029
 20
196.9671460334807023
 30
0.0
  0
VERTEX
  5
5321
  8
0
 10
162.1948860312616034
 20
196.9867936160337933
 30
0.0
  0
VERTEX
  5
5322
  8
0
 10
162.176679059295509
 20
197.0070832114930965
 30
0.0
  0
VERTEX
  5
5323
  8
0
 10
162.1585294391751972
 20
197.0280108855482979
 30
0.0
  0
VERTEX
  5
5324
  8
0
 10
162.140442088999805
 20
197.0495723929591065
 30
0.0
  0
VERTEX
  5
5325
  8
0
 10
162.1224218685651977
 20
197.0717631910636101
 30
0.0
  0
VERTEX
  5
5326
  8
0
 10
162.1134382833768086
 20
197.0830932670513107
 30
0.0
  0
VERTEX
  5
5327
  8
0
 10
162.1044725670666935
 20
197.0945797525625949
 30
0.0
  0
VERTEX
  5
5328
  8
0
 10
162.0865969800319988
 20
197.1180196724388907
 30
0.0
  0
VERTEX
  5
5329
  8
0
 10
162.0687998575698998
 20
197.1420778218733858
 30
0.0
  0
VERTEX
  5
532A
  8
0
 10
162.0510860057324862
 20
197.1667486305535988
 30
0.0
  0
VERTEX
  5
532B
  8
0
 10
162.033460225002699
 20
197.192026156727394
 30
0.0
  0
VERTEX
  5
532C
  8
0
 10
162.0159273023018045
 20
197.2179040914276982
 30
0.0
  0
VERTEX
  5
532D
  8
0
 10
162.0071971529746122
 20
197.2310661412778927
 30
0.0
  0
VERTEX
  5
532E
  8
0
 10
161.9984920031056106
 20
197.2443757636968087
 30
0.0
  0
VERTEX
  5
532F
  8
0
 10
161.9811590636610958
 20
197.2714341468164889
 30
0.0
  0
VERTEX
  5
5330
  8
0
 10
161.963933183306807
 20
197.2990718655601086
 30
0.0
  0
VERTEX
  5
5331
  8
0
 10
161.9468190168836088
 20
197.327281204475895
 30
0.0
  0
VERTEX
  5
5332
  8
0
 10
161.9298211672405046
 20
197.3560541172292915
 30
0.0
  0
VERTEX
  5
5333
  8
0
 10
161.9129441778281944
 20
197.3853822370244018
 30
0.0
  0
VERTEX
  5
5334
  8
0
 10
161.9045524074927016
 20
197.4002518001273927
 30
0.0
  0
VERTEX
  5
5335
  8
0
 10
161.8961925253815934
 20
197.4152568881360139
 30
0.0
  0
VERTEX
  5
5336
  8
0
 10
161.8795706126871039
 20
197.4456690985855118
 30
0.0
  0
VERTEX
  5
5337
  8
0
 10
161.8630827614387897
 20
197.4766096139985052
 30
0.0
  0
VERTEX
  5
5338
  8
0
 10
161.8467332051799872
 20
197.5080689126858999
 30
0.0
  0
VERTEX
  5
5339
  8
0
 10
161.8305260823653953
 20
197.5400372219338863
 30
0.0
  0
VERTEX
  5
533A
  8
0
 10
161.8144654420169957
 20
197.572504510023208
 30
0.0
  0
VERTEX
  5
533B
  8
0
 10
161.8064913053808027
 20
197.5889220414885017
 30
0.0
  0
VERTEX
  5
533C
  8
0
 10
161.7985552890168037
 20
197.6054603929430016
 30
0.0
  0
VERTEX
  5
533D
  8
0
 10
161.7827995978155116
 20
197.6388940944837032
 30
0.0
  0
VERTEX
  5
533E
  8
0
 10
161.7672023033680944
 20
197.6727944509721056
 30
0.0
  0
VERTEX
  5
533F
  8
0
 10
161.7594642714892927
 20
197.6899160318907889
 30
0.0
  0
VERTEX
  5
5340
  8
0
 10
161.7517672917585969
 20
197.7071499181255945
 30
0.0
  0
VERTEX
  5
5341
  8
0
 10
161.7364983910391913
 20
197.7419485790175884
 30
0.0
  0
VERTEX
  5
5342
  8
0
 10
161.7213993622806072
 20
197.7771781531581894
 30
0.0
  0
VERTEX
  5
5343
  8
0
 10
161.7139147047504935
 20
197.7949505981204084
 30
0.0
  0
VERTEX
  5
5344
  8
0
 10
161.706473890832001
 20
197.8128260067016129
 30
0.0
  0
VERTEX
  5
5345
  8
0
 10
161.6917255777977971
 20
197.8488791637963118
 30
0.0
  0
VERTEX
  5
5346
  8
0
 10
161.6771579317245937
 20
197.8853243191020965
 30
0.0
  0
VERTEX
  5
5347
  8
0
 10
161.6627743605027092
 20
197.9221478515015065
 30
0.0
  0
VERTEX
  5
5348
  8
0
 10
161.6485781634800958
 20
197.95933583904241
 30
0.0
  0
VERTEX
  5
5349
  8
0
 10
161.6345725237937927
 20
197.9968740751525047
 30
0.0
  0
VERTEX
  5
534A
  8
0
 10
161.6276421240658863
 20
198.015770023328912
 30
0.0
  0
VERTEX
  5
534B
  8
0
 10
161.620760500913093
 20
198.0347480861755116
 30
0.0
  0
VERTEX
  5
534C
  8
0
 10
161.607145023405792
 20
198.0729431502830096
 30
0.0
  0
VERTEX
  5
534D
  8
0
 10
161.5937279340753037
 20
198.1114470689913105
 30
0.0
  0
VERTEX
  5
534E
  8
0
 10
161.5804404074698937
 20
198.1504570996816028
 30
0.0
  0
VERTEX
  5
534F
  8
0
 10
161.5672439560345879
 20
198.1900973085051874
 30
0.0
  0
VERTEX
  5
5350
  8
0
 10
161.5541459919016063
 20
198.2303608030111093
 30
0.0
  0
VERTEX
  5
5351
  8
0
 10
161.5476362355117885
 20
198.2507239948583901
 30
0.0
  0
VERTEX
  5
5352
  8
0
 10
161.5411538407433909
 20
198.2712402038690982
 30
0.0
  0
VERTEX
  5
5353
  8
0
 10
161.5282747313262917
 20
198.3127276640279035
 30
0.0
  0
VERTEX
  5
5354
  8
0
 10
161.5155157854688071
 20
198.3548148892629968
 30
0.0
  0
VERTEX
  5
5355
  8
0
 10
161.5028840083996045
 20
198.3974931601981098
 30
0.0
  0
VERTEX
  5
5356
  8
0
 10
161.4903862795108012
 20
198.4407533558822081
 30
0.0
  0
VERTEX
  5
5357
  8
0
 10
161.4780293435078136
 20
198.4845859790056863
 30
0.0
  0
VERTEX
  5
5358
  8
0
 10
161.4719057416434111
 20
198.5067138866301093
 30
0.0
  0
VERTEX
  5
5359
  8
0
 10
161.4658198019633062
 20
198.5289811828378959
 30
0.0
  0
VERTEX
  5
535A
  8
0
 10
161.4537641052897925
 20
198.573928799961692
 30
0.0
  0
VERTEX
  5
535B
  8
0
 10
161.4418685451468889
 20
198.6194183728844109
 30
0.0
  0
VERTEX
  5
535C
  8
0
 10
161.4301392473053056
 20
198.6654391865968989
 30
0.0
  0
VERTEX
  5
535D
  8
0
 10
161.4185821649980142
 20
198.7119803031465892
 30
0.0
  0
VERTEX
  5
535E
  8
0
 10
161.407203072787496
 20
198.7590305982859888
 30
0.0
  0
VERTEX
  5
535F
  8
0
 10
161.4015820276877093
 20
198.7827431683317059
 30
0.0
  0
VERTEX
  5
5360
  8
0
 10
161.3960075658397102
 20
198.8065787793877064
 30
0.0
  0
VERTEX
  5
5361
  8
0
 10
161.3850010962459862
 20
198.8546132407554978
 30
0.0
  0
VERTEX
  5
5362
  8
0
 10
161.3741889991686094
 20
198.903121939004194
 30
0.0
  0
VERTEX
  5
5363
  8
0
 10
161.3635764846953862
 20
198.9520924064804888
 30
0.0
  0
VERTEX
  5
5364
  8
0
 10
161.3531686276573964
 20
199.0015117764714034
 30
0.0
  0
VERTEX
  5
5365
  8
0
 10
161.3429703580322894
 20
199.0513668095551907
 30
0.0
  0
VERTEX
  5
5366
  8
0
 10
161.3379513172808117
 20
199.0764534672782986
 30
0.0
  0
VERTEX
  5
5367
  8
0
 10
161.3329864519386945
 20
199.1016439211462909
 30
0.0
  0
VERTEX
  5
5368
  8
0
 10
161.3232215232231113
 20
199.1523292102885137
 30
0.0
  0
VERTEX
  5
5369
  8
0
 10
161.3136800156466961
 20
199.2034084897468915
 30
0.0
  0
VERTEX
  5
536A
  8
0
 10
161.3089943851701094
 20
199.2290913717648948
 30
0.0
  0
VERTEX
  5
536B
  8
0
 10
161.3043661956913013
 20
199.2548673174551936
 30
0.0
  0
VERTEX
  5
536C
  8
0
 10
161.2952841459946001
 20
199.3066910293674141
 30
0.0
  0
VERTEX
  5
536D
  8
0
 10
161.2864377594328005
 20
199.3588647737647932
 30
0.0
  0
VERTEX
  5
536E
  8
0
 10
161.2821041031589004
 20
199.3850782244481081
 30
0.0
  0
VERTEX
  5
536F
  8
0
 10
161.2778307338776074
 20
199.4113735470675124
 30
0.0
  0
VERTEX
  5
5370
  8
0
 10
161.2694665676492036
 20
199.4642022311915923
 30
0.0
  0
VERTEX
  5
5371
  8
0
 10
161.2613485554884107
 20
199.5173356338744952
 30
0.0
  0
VERTEX
  5
5372
  8
0
 10
161.2534788717381957
 20
199.5707648503095015
 30
0.0
  0
VERTEX
  5
5373
  8
0
 10
161.2458597066346897
 20
199.6244803551549865
 30
0.0
  0
VERTEX
  5
5374
  8
0
 10
161.2384940172483141
 20
199.6784662746117931
 30
0.0
  0
VERTEX
  5
5375
  8
0
 10
161.2349071026168872
 20
199.7055555889122047
 30
0.0
  0
VERTEX
  5
5376
  8
0
 10
161.23138458635799
 20
199.7327064076910972
 30
0.0
  0
VERTEX
  5
5377
  8
0
 10
161.2245340138292988
 20
199.7871842585985007
 30
0.0
  0
VERTEX
  5
5378
  8
0
 10
161.2179447087835058
 20
199.8418830700545925
 30
0.0
  0
VERTEX
  5
5379
  8
0
 10
161.211618882570292
 20
199.8967858575767025
 30
0.0
  0
VERTEX
  5
537A
  8
0
 10
161.2055585425459867
 20
199.9518754447445872
 30
0.0
  0
VERTEX
  5
537B
  8
0
 10
161.1997654866754033
 20
200.0071344994804861
 30
0.0
  0
VERTEX
  5
537C
  8
0
 10
161.1969696937657943
 20
200.0348221275125979
 30
0.0
  0
VERTEX
  5
537D
  8
0
 10
161.1942412989670004
 20
200.0625455713723113
 30
0.0
  0
VERTEX
  5
537E
  8
0
 10
161.1889873457562032
 20
200.1180911300712069
 30
0.0
  0
VERTEX
  5
537F
  8
0
 10
161.1840047728557863
 20
200.1737536047963886
 30
0.0
  0
VERTEX
  5
5380
  8
0
 10
161.181615551287905
 20
200.2016231937228099
 30
0.0
  0
SEQEND
  5
5381
  8
0
  0
LINE
  5
4445
  8
0
 10
139.1219840780171921
 20
205.8802909950001947
 30
0.0
 11
139.1219840780171921
 21
196.4802909949999901
 31
0.0
  0
LINE
  5
4446
  8
0
 10
163.6219840780171921
 20
205.4802909950001037
 30
0.0
 11
163.6219840780171921
 21
196.8802909950001094
 31
0.0
  0
LINE
  5
4447
  8
0
 10
139.4219840780174025
 20
206.1802909950000924
 30
0.0
 11
139.4219840780174025
 21
196.1802909950000924
 31
0.0
  0
LINE
  5
4448
  8
1
 10
172.9890254970333956
 20
201.1802909950000924
 30
0.0
 11
95.8219840780172945
 21
201.1802909950000924
 31
0.0
  0
LINE
  5
4645
  8
0
 10
20.9219840780176582
 20
93.782922618398203
 30
0.0
 11
40.3219840780175218
 21
93.782922618398203
 31
0.0
  0
TEXT
  5
46EC
  8
0
 62
     3
 10
0.0
 20
0.0
 30
0.0
 40
10.0
  1
SKPZN09-14
  7
STANDARD1
  0
CIRCLE
  5
4711
  8
0
 10
114.3219840780174934
 20
149.1802909950000071
 30
0.0
 40
3.1000000000000001
  0
ENDSEC
  0
EOF
