  0
SECTION
  2
HEADER
  9
$ACADVER
  1
AC1009
  9
$INSBASE
 10
0.0
 20
0.0
 30
0.0
  9
$EXTMIN
 10
0.0
 20
-2.960436562073669
 30
0.0
  9
$EXTMAX
 10
250.4472912125947914
 20
213.8802909949999105
 30
0.0
  9
$LIMMIN
 10
0.0
 20
0.0
  9
$LIMMAX
 10
375.0
 20
270.0
  9
$ORTHOMODE
 70
     1
  9
$REGENMODE
 70
     1
  9
$FILLMODE
 70
     1
  9
$QTEXTMODE
 70
     0
  9
$MIRRTEXT
 70
     0
  9
$DRAGMODE
 70
     2
  9
$LTSCALE
 40
10.0
  9
$OSMODE
 70
    37
  9
$ATTMODE
 70
     1
  9
$TEXTSIZE
 40
4.000000000000048
  9
$TRACEWID
 40
0.05
  9
$TEXTSTYLE
  7
STANDARD
  9
$CLAYER
  8
0
  9
$CELTYPE
  6
BYLAYER
  9
$CECOLOR
 62
   256
  9
$DIMSCALE
 40
1.0
  9
$DIMASZ
 40
3.0
  9
$DIMEXO
 40
2.0
  9
$DIMDLI
 40
0.38
  9
$DIMRND
 40
0.0
  9
$DIMDLE
 40
0.0
  9
$DIMEXE
 40
2.0
  9
$DIMTP
 40
0.0
  9
$DIMTM
 40
0.0
  9
$DIMTXT
 40
3.2000000000000002
  9
$DIMCEN
 40
0.0
  9
$DIMTSZ
 40
0.0
  9
$DIMTOL
 70
     0
  9
$DIMLIM
 70
     0
  9
$DIMTIH
 70
     0
  9
$DIMTOH
 70
     0
  9
$DIMSE1
 70
     0
  9
$DIMSE2
 70
     0
  9
$DIMTAD
 70
     1
  9
$DIMZIN
 70
     0
  9
$DIMBLK
  1

  9
$DIMASO
 70
     0
  9
$DIMSHO
 70
     0
  9
$DIMPOST
  1

  9
$DIMAPOST
  1

  9
$DIMALT
 70
     0
  9
$DIMALTD
 70
     2
  9
$DIMALTF
 40
25.3999999999999986
  9
$DIMLFAC
 40
1.0
  9
$DIMTOFL
 70
     0
  9
$DIMTVP
 40
1.6000000000000001
  9
$DIMTIX
 70
     1
  9
$DIMSOXD
 70
     0
  9
$DIMSAH
 70
     0
  9
$DIMBLK1
  1

  9
$DIMBLK2
  1

  9
$DIMSTYLE
  2
STANDARD
  9
$DIMCLRD
 70
     4
  9
$DIMCLRE
 70
     4
  9
$DIMCLRT
 70
     4
  9
$DIMTFAC
 40
1.0
  9
$DIMGAP
 40
0.09
  9
$LUNITS
 70
     2
  9
$LUPREC
 70
     1
  9
$SKETCHINC
 40
0.1
  9
$FILLETRAD
 40
22.0
  9
$AUNITS
 70
     0
  9
$AUPREC
 70
     0
  9
$MENU
  1
E:\r13\win\SUPPORT\ACAD
  9
$ELEVATION
 40
0.0
  9
$PELEVATION
 40
0.0
  9
$THICKNESS
 40
0.0
  9
$LIMCHECK
 70
     0
  9
$BLIPMODE
 70
     0
  9
$CHAMFERA
 40
1.1999999999999991
  9
$CHAMFERB
 40
1.1999999999999991
  9
$SKPOLY
 70
     0
  9
$TDCREATE
 40
2449954.6020138887688518
  9
$TDUPDATE
 40
2460812.3757870369590819
  9
$TDINDWG
 40
0.7806693171
  9
$TDUSRTIMER
 40
0.7806693171
  9
$USRTIMER
 70
     1
  9
$ANGBASE
 50
0.0
  9
$ANGDIR
 70
     0
  9
$PDMODE
 70
     0
  9
$PDSIZE
 40
0.0
  9
$PLINEWID
 40
0.0
  9
$COORDS
 70
     1
  9
$SPLFRAME
 70
     0
  9
$SPLINETYPE
 70
     6
  9
$SPLINESEGS
 70
     8
  9
$ATTDIA
 70
     1
  9
$ATTREQ
 70
     1
  9
$HANDLING
 70
     1
  9
$HANDSEED
  5
5377
  9
$SURFTAB1
 70
     6
  9
$SURFTAB2
 70
     6
  9
$SURFTYPE
 70
     6
  9
$SURFU
 70
     6
  9
$SURFV
 70
     6
  9
$UCSNAME
  2

  9
$UCSORG
 10
0.0
 20
0.0
 30
0.0
  9
$UCSXDIR
 10
1.0
 20
0.0
 30
0.0
  9
$UCSYDIR
 10
0.0
 20
1.0
 30
0.0
  9
$PUCSNAME
  2

  9
$PUCSORG
 10
0.0
 20
0.0
 30
0.0
  9
$PUCSXDIR
 10
1.0
 20
0.0
 30
0.0
  9
$PUCSYDIR
 10
0.0
 20
1.0
 30
0.0
  9
$USERI1
 70
     0
  9
$USERI2
 70
     1
  9
$USERI3
 70
     0
  9
$USERI4
 70
     0
  9
$USERI5
 70
     0
  9
$USERR1
 40
0.0
  9
$USERR2
 40
0.0
  9
$USERR3
 40
0.0
  9
$USERR4
 40
0.0
  9
$USERR5
 40
0.0
  9
$WORLDVIEW
 70
     1
  9
$SHADEDGE
 70
     3
  9
$SHADEDIF
 70
    70
  9
$TILEMODE
 70
     1
  9
$MAXACTVP
 70
    16
  9
$PLIMCHECK
 70
     0
  9
$PEXTMIN
 10
1.0000000000000000E+20
 20
1.0000000000000000E+20
 30
1.0000000000000000E+20
  9
$PEXTMAX
 10
-1.0000000000000000E+20
 20
-1.0000000000000000E+20
 30
-1.0000000000000000E+20
  9
$PLIMMIN
 10
0.0
 20
0.0
  9
$PLIMMAX
 10
12.0
 20
9.0
  9
$UNITMODE
 70
     0
  9
$VISRETAIN
 70
     0
  9
$PLINEGEN
 70
     0
  9
$PSLTSCALE
 70
     0
  0
ENDSEC
  0
SECTION
  2
TABLES
  0
TABLE
  2
VPORT
 70
     1
  0
VPORT
  2
*ACTIVE
 70
     0
 10
0.0
 20
0.0
 11
1.0
 21
1.0
 12
428.1021897810218775
 22
182.2857777148346941
 13
0.0
 23
0.0
 14
10.0
 24
10.0
 15
10.0
 25
10.0
 16
0.0
 26
0.0
 36
1.0
 17
0.0
 27
0.0
 37
0.0
 40
364.5715554296695018
 41
2.3485221674876842
 42
50.0
 43
0.0
 44
0.0
 50
0.0
 51
0.0
 71
     0
 72
   500
 73
     1
 74
     0
 75
     0
 76
     0
 77
     0
 78
     2
  0
ENDTAB
  0
TABLE
  2
LTYPE
 70
     3
  0
LTYPE
  2
CONTINUOUS
 70
     0
  3
Solid Line
 72
    65
 73
     0
 40
0.0
  0
LTYPE
  2
CENTER
 70
     0
  3
____ _ ____ _ ____ _ ____ _ ____ _ ____ _ ____
 72
    65
 73
     4
 40
2.0
 49
1.25
 49
-0.25
 49
0.25
 49
-0.25
  0
LTYPE
  2
HIDDEN
 70
     0
  3
_ _ _ _ _ _ _ _ _ _ _ _ _ _ _ _ _ _ _ _ _ _ _
 72
    65
 73
     2
 40
0.375
 49
0.25
 49
-0.125
  0
ENDTAB
  0
TABLE
  2
LAYER
 70
     5
  0
LAYER
  2
0
 70
     0
 62
     7
  6
CONTINUOUS
  0
LAYER
  2
1
 70
     0
 62
     1
  6
CENTER
  0
LAYER
  2
3
 70
     0
 62
     3
  6
CONTINUOUS
  0
LAYER
  2
2
 70
     0
 62
     2
  6
HIDDEN
  0
LAYER
  2
DEFPOINTS
 70
     0
 62
     7
  6
CONTINUOUS
  0
ENDTAB
  0
TABLE
  2
STYLE
 70
     2
  0
STYLE
  2
STANDARD
 70
     0
 40
0.0
 41
1.0
 50
0.0
 71
     0
 42
4.000000000000048
  3
SIMPLEX
  4
BIGFONT
  0
STYLE
  2
STANDARD1
 70
     0
 40
0.0
 41
1.0
 50
0.0
 71
     0
 42
3.0
  3
txt
  4

  0
ENDTAB
  0
TABLE
  2
VIEW
 70
     1
  0
VIEW
  2
ALL
 70
     0
 40
270.0
 10
220.785953177257511
 20
135.0
 41
441.571906354515022
 11
0.0
 21
0.0
 31
1.0
 12
0.0
 22
0.0
 32
0.0
 42
50.0
 43
0.0
 44
0.0
 50
0.0
 71
     0
  0
ENDTAB
  0
TABLE
  2
UCS
 70
     0
  0
ENDTAB
  0
TABLE
  2
APPID
 70
     4
  0
APPID
  2
ACAD
 70
     0
  0
APPID
  2
ACAD_EXEMPT_FROM_CAD_STANDARDS
 70
     0
  0
APPID
  2
ACAD_MLEADERVER
 70
     0
  0
APPID
  2
ACAD_NAV_VCDISPLAY
 70
     0
  0
ENDTAB
  0
TABLE
  2
DIMSTYLE
 70
     1
  0
DIMSTYLE
  2
STANDARD
 70
     0
  3

  4

  5

  6

  7

 40
1.0
 41
0.18
 42
0.0625
 43
0.38
 44
0.18
 45
0.0
 46
0.0
 47
0.0
 48
0.0
140
0.18
141
0.09
142
0.0
143
25.3999999999999986
144
1.0
145
0.0
146
1.0
147
0.09
 71
     0
 72
     0
 73
     1
 74
     1
 75
     0
 76
     0
 77
     0
 78
     0
170
     0
171
     2
172
     0
173
     0
174
     0
175
     0
176
     0
177
     0
178
     0
  0
ENDTAB
  0
ENDSEC
  0
SECTION
  2
BLOCKS
  0
BLOCK
  8
0
  2
$MODEL_SPACE
 70
     0
 10
0.0
 20
0.0
 30
0.0
  3
$MODEL_SPACE
  1

  0
ENDBLK
  5
F3C
  8
0
  0
BLOCK
 67
     1
  8
0
  2
$PAPER_SPACE
 70
     0
 10
0.0
 20
0.0
 30
0.0
  3
$PAPER_SPACE
  1

  0
ENDBLK
  5
F3A
 67
     1
  8
0
  0
ENDSEC
  0
SECTION
  2
ENTITIES
  0
ARC
  5
30C0
  8
0
 10
123.0802497935785027
 20
119.1802909949999929
 30
0.0
 40
6.0000000000000142
 50
270.0
 51
0.0
  0
LINE
  5
30C1
  8
0
 10
140.3302497935785027
 20
119.1802909949999929
 30
0.0
 11
129.0802497935785027
 21
119.1802909949999929
 31
0.0
  0
ARC
  5
30C2
  8
0
 10
140.3302497935785027
 20
120.9302909949999929
 30
0.0
 40
1.75
 50
270.0
 51
90.0
  0
LINE
  5
30C3
  8
0
 10
127.9536469659830971
 20
122.6802909949999929
 30
0.0
 11
140.3302497935785027
 21
122.6802909949999929
 31
0.0
  0
ARC
  5
30C4
  8
0
 10
123.0802497935785027
 20
119.1802909949999929
 30
0.0
 40
6.0000000000000124
 50
35.6853347126512972
 51
250.5287793655103883
  0
LINE
  5
4449
  8
0
 10
147.0802497935785027
 20
99.1802909949999787
 30
0.0
 11
147.8802497935785141
 21
99.1802909949999787
 31
0.0
  0
LINE
  5
444A
  8
0
 10
147.8802497935785141
 20
108.1802909949998934
 30
0.0
 11
147.0802497935785027
 21
108.1802909949998934
 31
0.0
  0
LINE
  5
444B
  8
0
 10
123.0802497935785027
 20
105.6802909949999929
 30
0.0
 11
121.0802497935689956
 21
105.6802909949999929
 31
0.0
  0
LINE
  5
444C
  8
0
 10
121.0802497935689956
 20
101.6802909949999929
 30
0.0
 11
123.0802497935785027
 21
101.6802909949999929
 31
0.0
  0
CIRCLE
  5
444D
  8
0
 10
106.0802497935785027
 20
136.1802909949998934
 30
0.0
 40
5.0000000000000142
  0
LINE
  5
444E
  8
0
 10
99.7556944732418742
 20
139.1802909950000071
 30
0.0
 11
99.0802497935785595
 21
139.1802909950000071
 31
0.0
  0
ARC
  5
444F
  8
0
 10
106.0802497935785027
 20
136.1802909949998934
 30
0.0
 40
7.000000000000016
 50
205.376933525156204
 51
154.6230664748437107
  0
LINE
  5
4450
  8
0
 10
99.0802497935785595
 20
133.1802909949998934
 30
0.0
 11
99.7556944732418742
 21
133.1802909949998934
 31
0.0
  0
CIRCLE
  5
4451
  8
0
 10
140.0802497935785027
 20
136.1802909949998934
 30
0.0
 40
5.0000000000000284
  0
LINE
  5
4452
  8
0
 10
146.404805113915387
 20
133.1802909949998934
 30
0.0
 11
147.0802497935785027
 21
133.1802909949998934
 31
0.0
  0
ARC
  5
4453
  8
0
 10
140.0802497935785027
 20
136.1802909949998934
 30
0.0
 40
7.000000000000016
 50
25.3769335251562502
 51
334.6230664748437107
  0
LINE
  5
4454
  8
0
 10
147.0802497935785027
 20
139.1802909950000071
 30
0.0
 11
146.404805113915387
 21
139.1802909950000071
 31
0.0
  0
ARC
  5
4456
  8
0
 10
143.0802497935785027
 20
154.5015021142934017
 30
0.0
 40
4.0000000000000071
 50
0.0
 51
74.7424767095414921
  0
ARC
  5
4457
  8
0
 10
143.0802497935785027
 20
100.3590798757064988
 30
0.0
 40
4.0000000000000284
 50
285.2575232904584936
 51
0.0
  0
ARC
  5
4458
  8
0
 10
123.0802497935785027
 20
173.6802909949998934
 30
0.0
 40
80.0
 50
271.4692835813585248
 51
285.2575232904584936
  0
ARC
  5
4459
  8
0
 10
125.0802497935785027
 20
95.705936236528288
 30
0.0
 40
2.0000000000000102
 50
180.0
 51
271.4692835813585248
  0
LINE
  5
445A
  8
0
 10
123.0802497935785027
 20
113.1802909949999929
 30
0.0
 11
123.0802497935785027
 21
95.705936236528288
 31
0.0
  0
LINE
  5
4460
  8
0
 10
121.0802497935785027
 20
95.782922618398203
 30
0.0
 11
121.0802497935785027
 21
113.5234367455075954
 31
0.0
  0
ARC
  5
4461
  8
0
 10
119.0802497935785027
 20
95.782922618398203
 30
0.0
 40
2.0
 50
267.0604655135693974
 51
0.0
  0
ARC
  5
4462
  8
0
 10
123.0802497935785027
 20
173.6802909949998934
 30
0.0
 40
80.0
 50
254.7424767095415064
 51
267.0604655135693974
  0
ARC
  5
4463
  8
0
 10
103.0802497935785027
 20
100.3590798757064988
 30
0.0
 40
4.0000000000000151
 50
180.0
 51
254.7424767095415064
  0
ARC
  5
4464
  8
0
 10
103.0802497935785027
 20
154.5015021142934017
 30
0.0
 40
4.0000000000000178
 50
105.2575232904584936
 51
180.0
  0
ARC
  5
4465
  8
0
 10
123.0802497935785027
 20
81.1802909949999645
 30
0.0
 40
80.0000000000000142
 50
74.7424767095414921
 51
105.2575232904584936
  0
LINE
  5
4466
  8
0
 10
147.0802497935785027
 20
100.3590798757064988
 30
0.0
 11
147.0802497935785027
 21
154.5015021142934017
 31
0.0
  0
LINE
  5
4467
  8
0
 10
99.0802497935785595
 20
154.5015021142934017
 30
0.0
 11
99.0802497935785595
 21
100.3590798757064988
 31
0.0
  0
LINE
  5
4468
  8
0
 10
147.0802497935785027
 20
100.3590798757064988
 30
0.0
 11
147.0802497935785027
 21
99.1802909949999787
 31
0.0
  0
CIRCLE
  5
4469
  8
0
 10
106.0802497935785027
 20
136.1802909949998934
 30
0.0
 40
2.75
  0
CIRCLE
  5
446A
  8
0
 10
140.0802497935785027
 20
136.1802909949998934
 30
0.0
 40
2.75
  0
LINE
  5
446B
  8
0
 10
133.0802497935785027
 20
211.1802909950000071
 30
0.0
 11
133.0802497935785027
 21
210.8802909949999957
 31
0.0
  0
LINE
  5
446C
  8
0
 10
113.0802497935785027
 20
210.8802909949999957
 30
0.0
 11
113.0802497935785027
 21
211.1802909950000071
 31
0.0
  0
LINE
  5
446D
  8
0
 10
113.0802497935785027
 20
191.1802909949998934
 30
0.0
 11
113.0802497935785027
 21
191.4802909949999901
 31
0.0
  0
LINE
  5
446E
  8
0
 10
133.0802497935785027
 20
191.4802909949999901
 30
0.0
 11
133.0802497935785027
 21
191.1802909949998934
 31
0.0
  0
LINE
  5
446F
  8
0
 10
147.0802497935785027
 20
196.6802909950000924
 30
0.0
 11
147.8802497935785141
 21
196.6802909950000924
 31
0.0
  0
LINE
  5
4470
  8
0
 10
147.8802497935785141
 20
205.6802909950000924
 30
0.0
 11
147.0802497935785027
 21
205.6802909950000924
 31
0.0
  0
LINE
  5
4471
  8
0
 10
99.0802497935785595
 20
191.4802909949999048
 30
0.0
 11
147.0802497935785027
 21
191.4802909949999048
 31
0.0
  0
LINE
  5
4472
  8
0
 10
99.0802497935785595
 20
210.8802909949999105
 30
0.0
 11
147.0802497935783038
 21
210.8802909949999105
 31
0.0
  0
LINE
  5
4473
  8
0
 10
146.404805113915387
 20
210.8802909949999957
 30
0.0
 11
146.404805113915387
 21
211.1802909950000071
 31
0.0
  0
LINE
  5
4474
  8
0
 10
147.0802497935785027
 20
211.1802909950000071
 30
0.0
 11
133.0802497935785027
 21
211.1802909950000071
 31
0.0
  0
LINE
  5
4475
  8
0
 10
99.7556944732418742
 20
211.1802909950000071
 30
0.0
 11
99.7556944732418742
 21
210.8802909949999957
 31
0.0
  0
LINE
  5
4476
  8
0
 10
113.0802497935785027
 20
211.1802909950000071
 30
0.0
 11
99.0802497935783322
 21
211.1802909950000071
 31
0.0
  0
LINE
  5
4477
  8
0
 10
113.0802497935785027
 20
191.1802909949998934
 30
0.0
 11
99.0802497935785595
 21
191.1802909949998934
 31
0.0
  0
LINE
  5
4478
  8
0
 10
99.7556944732418742
 20
191.4802909949999901
 30
0.0
 11
99.7556944732418742
 21
191.1802909949998934
 31
0.0
  0
LINE
  5
4479
  8
0
 10
146.404805113915387
 20
191.1802909949998934
 30
0.0
 11
146.404805113915387
 21
191.4802909949999901
 31
0.0
  0
LINE
  5
447A
  8
0
 10
147.0802497935787869
 20
191.1802909949998934
 30
0.0
 11
133.0802497935785027
 21
191.1802909949998934
 31
0.0
  0
LINE
  5
447B
  8
0
 10
147.0802497935785027
 20
191.1802909949998934
 30
0.0
 11
147.0802497935783038
 21
211.1802909950000071
 31
0.0
  0
LINE
  5
447C
  8
0
 10
99.0802497935783322
 20
211.1802909950000071
 30
0.0
 11
99.0802497935785595
 21
191.1802909949998934
 31
0.0
  0
LINE
  5
447D
  8
2
 10
135.0802497935785027
 20
205.6802909950000071
 30
0.0
 11
145.0802497935785027
 21
205.6802909950000071
 31
0.0
  0
LINE
  5
447E
  8
2
 10
101.0802497935785027
 20
205.6802909950000071
 30
0.0
 11
111.0802497935785027
 21
205.6802909950000071
 31
0.0
  0
LINE
  5
447F
  8
2
 10
145.0802497935785027
 20
196.6802909950000071
 30
0.0
 11
135.0802497935785027
 21
196.6802909950000071
 31
0.0
  0
LINE
  5
4480
  8
2
 10
111.0802497935785027
 20
196.6802909950000071
 30
0.0
 11
101.0802497935785027
 21
196.6802909950000071
 31
0.0
  0
LINE
  5
4481
  8
2
 10
129.0802497935785027
 20
191.4802909950001037
 30
0.0
 11
129.0802497935785027
 21
210.8802909950001094
 31
0.0
  0
LINE
  5
4482
  8
2
 10
126.180249793578497
 20
191.4802909949999901
 30
0.0
 11
126.180249793578497
 21
210.8802909949999957
 31
0.0
  0
LINE
  5
4483
  8
2
 10
135.0802497935785027
 20
211.1802909950000071
 30
0.0
 11
135.0802497935785027
 21
205.6802909950000071
 31
0.0
  0
LINE
  5
4484
  8
2
 10
145.0802497935785027
 20
205.6802909950000071
 30
0.0
 11
145.0802497935785027
 21
211.1802909950000071
 31
0.0
  0
LINE
  5
4485
  8
2
 10
101.0802497935785027
 20
211.1802909950000071
 30
0.0
 11
101.0802497935785027
 21
205.6802909950000071
 31
0.0
  0
LINE
  5
4486
  8
2
 10
111.0802497935785027
 20
205.6802909950000071
 30
0.0
 11
111.0802497935785027
 21
211.1802909950000071
 31
0.0
  0
LINE
  5
4487
  8
2
 10
145.0802497935785027
 20
191.1802909950000071
 30
0.0
 11
145.0802497935785027
 21
196.6802909950000071
 31
0.0
  0
LINE
  5
4488
  8
2
 10
135.0802497935785027
 20
196.6802909950000071
 30
0.0
 11
135.0802497935785027
 21
191.1802909950000071
 31
0.0
  0
LINE
  5
4489
  8
2
 10
111.0802497935785027
 20
191.1802909950000071
 30
0.0
 11
111.0802497935785027
 21
196.6802909950000071
 31
0.0
  0
LINE
  5
448A
  8
2
 10
101.0802497935785027
 20
196.6802909950000071
 30
0.0
 11
101.0802497935785027
 21
191.1802909950000071
 31
0.0
  0
LINE
  5
448B
  8
2
 10
137.3302497935785027
 20
205.6802909950000071
 30
0.0
 11
137.3302497935785027
 21
196.6802909950000071
 31
0.0
  0
LINE
  5
448C
  8
2
 10
142.8302497935785027
 20
196.6802909950000071
 30
0.0
 11
142.8302497935785027
 21
205.6802909950000071
 31
0.0
  0
LINE
  5
448D
  8
2
 10
103.3302497935785027
 20
205.6802909950000071
 30
0.0
 11
103.3302497935785027
 21
196.6802909950000071
 31
0.0
  0
LINE
  5
448E
  8
2
 10
108.8302497935785027
 20
196.6802909950000071
 30
0.0
 11
108.8302497935785027
 21
205.6802909950000071
 31
0.0
  0
LINE
  5
448F
  8
2
 10
117.0802497935785027
 20
210.8802909950001094
 30
0.0
 11
117.0802497935785027
 21
191.4802909950001037
 31
0.0
  0
LINE
  5
4490
  8
0
 10
147.0802497935785027
 20
29.2059362365283803
 30
0.0
 11
147.8802497935785141
 21
29.2059362365283803
 31
0.0
  0
LINE
  5
4491
  8
0
 10
147.8802497935785141
 20
38.2059362365283803
 30
0.0
 11
147.0802497935785027
 21
38.2059362365283803
 31
0.0
  0
LINE
  5
4492
  8
0
 10
123.0802497935785027
 20
35.7059362365283732
 30
0.0
 11
121.0802497935689956
 21
35.7059362365283732
 31
0.0
  0
LINE
  5
4493
  8
0
 10
121.0802497935689956
 20
31.7059362365283803
 30
0.0
 11
123.0802497935785027
 21
31.7059362365283803
 31
0.0
  0
LINE
  5
4494
  8
0
 10
133.0802497935785027
 20
24.0059362365282709
 30
0.0
 11
133.0802497935785027
 21
23.7059362365281991
 31
0.0
  0
LINE
  5
4495
  8
0
 10
113.0802497935785027
 20
23.7059362365281991
 30
0.0
 11
113.0802497935785027
 21
24.0059362365282709
 31
0.0
  0
LINE
  5
4496
  8
0
 10
113.0802497935785027
 20
43.4059362365282411
 30
0.0
 11
113.0802497935785027
 21
43.7059362365282524
 31
0.0
  0
LINE
  5
4497
  8
0
 10
133.0802497935785027
 20
43.7059362365282524
 30
0.0
 11
133.0802497935785027
 21
43.4059362365282411
 31
0.0
  0
LINE
  5
4498
  8
0
 10
123.0802497935785027
 20
43.4059362365283832
 30
0.0
 11
123.0802497935785027
 21
24.005936236528381
 31
0.0
  0
LINE
  5
4499
  8
0
 10
121.0802497935785027
 20
24.005936236528381
 30
0.0
 11
121.0802497935785027
 21
43.4059362365283832
 31
0.0
  0
LINE
  5
449A
  8
0
 10
147.0802497935785027
 20
43.4059362365283619
 30
0.0
 11
99.0802497935785595
 21
43.4059362365283619
 31
0.0
  0
LINE
  5
449B
  8
0
 10
147.0802497935785027
 20
24.005936236528381
 30
0.0
 11
99.0802497935785595
 21
24.005936236528381
 31
0.0
  0
LINE
  5
449C
  8
0
 10
146.404805113915387
 20
23.7059362365282595
 30
0.0
 11
146.404805113915387
 21
24.0059362365282709
 31
0.0
  0
LINE
  5
449D
  8
0
 10
133.0802497935785027
 20
23.7059362365281991
 30
0.0
 11
147.0802497935785027
 21
23.7059362365281991
 31
0.0
  0
LINE
  5
449E
  8
0
 10
99.7556944732418742
 20
24.0059362365282709
 30
0.0
 11
99.7556944732418742
 21
23.7059362365282595
 31
0.0
  0
LINE
  5
449F
  8
0
 10
99.0802497935783322
 20
23.7059362365282595
 30
0.0
 11
113.0802497935785027
 21
23.7059362365281991
 31
0.0
  0
LINE
  5
44A0
  8
0
 10
99.7556944732418742
 20
43.7059362365282524
 30
0.0
 11
99.7556944732418742
 21
43.4059362365282411
 31
0.0
  0
LINE
  5
44A1
  8
0
 10
99.0802497935783322
 20
43.7059362365282524
 30
0.0
 11
113.0802497935785027
 21
43.7059362365282524
 31
0.0
  0
LINE
  5
44A2
  8
0
 10
146.404805113915387
 20
43.4059362365282411
 30
0.0
 11
146.404805113915387
 21
43.7059362365282524
 31
0.0
  0
LINE
  5
44A3
  8
0
 10
133.0802497935785027
 20
43.7059362365282524
 30
0.0
 11
147.0802497935785027
 21
43.7059362365282524
 31
0.0
  0
LINE
  5
44A4
  8
0
 10
147.0802497935785027
 20
23.7059362365282595
 30
0.0
 11
147.0802497935785027
 21
43.7059362365282524
 31
0.0
  0
LINE
  5
44A5
  8
0
 10
99.0802497935785595
 20
43.705936236528288
 30
0.0
 11
99.0802497935785595
 21
23.7059362365282595
 31
0.0
  0
LINE
  5
44A6
  8
0
 10
29.3802497935785212
 20
129.1802909950000071
 30
0.0
 11
29.6802497935786995
 21
129.1802909950000071
 31
0.0
  0
LINE
  5
44A7
  8
0
 10
29.6802497935786995
 20
143.1802909950000071
 30
0.0
 11
29.3802497935785212
 21
143.1802909950000071
 31
0.0
  0
LINE
  5
44A8
  8
0
 10
49.3802497935787414
 20
143.1802909950000071
 30
0.0
 11
49.0802497935785595
 21
143.1802909950000071
 31
0.0
  0
LINE
  5
44A9
  8
0
 10
49.0802497935785595
 20
129.1802909950000071
 30
0.0
 11
49.3802497935787414
 21
129.1802909950000071
 31
0.0
  0
LINE
  5
44AA
  8
0
 10
49.0802497935785595
 20
161.1802909950000071
 30
0.0
 11
29.6802497935784686
 21
161.1802909950000071
 31
0.0
  0
LINE
  5
44AB
  8
0
 10
29.6802497935784686
 20
93.7059362365282738
 30
0.0
 11
49.0802497935785595
 21
93.7059362365282738
 31
0.0
  0
LINE
  5
44AC
  8
0
 10
49.0802497935785595
 20
139.1802909950000071
 30
0.0
 11
49.3802497935787414
 21
139.1802909950000071
 31
0.0
  0
LINE
  5
44AD
  8
0
 10
49.3802497935787414
 20
133.1802909949998934
 30
0.0
 11
49.0802497935785595
 21
133.1802909949998934
 31
0.0
  0
LINE
  5
44AE
  8
0
 10
49.0802497935785595
 20
133.1802909949998934
 30
0.0
 11
49.0802497935785595
 21
93.7059362365283164
 31
0.0
  0
LINE
  5
44AF
  8
0
 10
49.0802497935785595
 20
100.3590798757064988
 30
0.0
 11
29.6802497935786995
 21
100.3590798757064988
 31
0.0
  0
LINE
  5
44B0
  8
0
 10
29.6802497935786995
 20
93.7059362365283164
 30
0.0
 11
29.6802497935786995
 21
133.1802909949998934
 31
0.0
  0
LINE
  5
44B1
  8
0
 10
29.6802497935786995
 20
133.1802909949998934
 30
0.0
 11
29.3802497935787414
 21
133.1802909949998934
 31
0.0
  0
LINE
  5
44B2
  8
0
 10
29.3802497935787414
 20
139.1802909950000071
 30
0.0
 11
29.6802497935786995
 21
139.1802909950000071
 31
0.0
  0
LINE
  5
44B3
  8
0
 10
29.6802497935786995
 20
139.1802909950000071
 30
0.0
 11
29.6802497935786995
 21
161.1802909950000071
 31
0.0
  0
LINE
  5
44B4
  8
0
 10
29.6802497935786995
 20
154.5015021142934017
 30
0.0
 11
49.0802497935785595
 21
154.5015021142934017
 31
0.0
  0
LINE
  5
44B5
  8
0
 10
49.0802497935785595
 20
161.1802909950000071
 30
0.0
 11
49.0802497935785595
 21
139.1802909950000071
 31
0.0
  0
LINE
  5
44B6
  8
0
 10
29.6802497935786995
 20
158.3605132258352057
 30
0.0
 11
49.0802497935785595
 21
158.3605132258352057
 31
0.0
  0
LINE
  5
44B7
  8
0
 10
29.6802497935786995
 20
96.5000687641647801
 30
0.0
 11
49.0802497935785595
 21
96.5000687641647801
 31
0.0
  0
LINE
  5
44B8
  8
0
 10
29.3802497935794307
 20
143.1802909949998934
 30
0.0
 11
29.3802497935785212
 21
129.1802909950000071
 31
0.0
  0
LINE
  5
44B9
  8
0
 10
49.3802497935787414
 20
143.1802909949998934
 30
0.0
 11
49.3802497935787414
 21
129.1802909950000071
 31
0.0
  0
LINE
  5
44BA
  8
0
 10
248.4472912125947914
 20
143.1802909950000071
 30
0.0
 11
248.1472912125946095
 21
143.1802909950000071
 31
0.0
  0
LINE
  5
44BB
  8
0
 10
248.1472912125946095
 20
129.1802909950000071
 30
0.0
 11
248.4472912125947914
 21
129.1802909950000071
 31
0.0
  0
LINE
  5
44BC
  8
0
 10
228.4472912125947914
 20
129.1802909950000071
 30
0.0
 11
228.7472912125946891
 21
129.1802909950000071
 31
0.0
  0
LINE
  5
44BD
  8
0
 10
228.7472912125946891
 20
143.1802909950000071
 30
0.0
 11
228.4472912125947914
 21
143.1802909950000071
 31
0.0
  0
LINE
  5
44BE
  8
0
 10
248.1472912125948085
 20
161.1802909950000071
 30
0.0
 11
228.7472912125946891
 21
161.1802909950000071
 31
0.0
  0
LINE
  5
44BF
  8
0
 10
228.7472912125946891
 20
93.7059362365282738
 30
0.0
 11
234.4538048790712139
 21
93.7059362365282738
 31
0.0
  0
LINE
  5
44C0
  8
0
 10
242.4407775461185963
 20
93.7059362365282738
 30
0.0
 11
248.1472912125948085
 21
93.7059362365282738
 31
0.0
  0
LINE
  5
44C1
  8
0
 10
232.2854947787749893
 20
100.3590798757064988
 30
0.0
 11
228.7472912125946891
 21
100.3590798757064988
 31
0.0
  0
LINE
  5
44C2
  8
0
 10
228.7472912125946891
 20
93.7059362365283164
 30
0.0
 11
228.7472912125946891
 21
133.1802909949998934
 31
0.0
  0
LINE
  5
44C3
  8
0
 10
228.7472912125946891
 20
133.1802909949998934
 30
0.0
 11
228.4472912125947914
 21
133.1802909949998934
 31
0.0
  0
LINE
  5
44C4
  8
0
 10
228.4472912125947914
 20
139.1802909950000071
 30
0.0
 11
228.7472912125946891
 21
139.1802909950000071
 31
0.0
  0
LINE
  5
44C5
  8
0
 10
228.7472912125946891
 20
139.1802909950000071
 30
0.0
 11
228.7472912125950018
 21
161.1802909950000071
 31
0.0
  0
LINE
  5
44C6
  8
0
 10
228.7472912125946891
 20
154.5015021142934017
 30
0.0
 11
248.1472912125946095
 21
154.5015021142934017
 31
0.0
  0
LINE
  5
44C7
  8
0
 10
248.1472912125946095
 20
161.1802909950000071
 30
0.0
 11
248.1472912125946095
 21
139.1802909950000071
 31
0.0
  0
LINE
  5
44C8
  8
0
 10
248.1472912125946095
 20
139.1802909950000071
 30
0.0
 11
248.4472912125947914
 21
139.1802909950000071
 31
0.0
  0
LINE
  5
44C9
  8
0
 10
248.4472912125947914
 20
133.1802909949998934
 30
0.0
 11
248.1472912125946095
 21
133.1802909949998934
 31
0.0
  0
LINE
  5
44CA
  8
0
 10
248.1472912125946095
 20
133.1802909949998934
 30
0.0
 11
248.1472912125946095
 21
93.7059362365283164
 31
0.0
  0
LINE
  5
44CB
  8
0
 10
248.1472912125946095
 20
100.3590798757064988
 30
0.0
 11
244.6090876464145936
 21
100.3590798757064988
 31
0.0
  0
LINE
  5
44CC
  8
0
 10
248.1472912125946095
 20
158.3605132258352057
 30
0.0
 11
228.7472912125946891
 21
158.3605132258352057
 31
0.0
  0
LINE
  5
44CD
  8
0
 10
248.1472912125946095
 20
96.5000687641647801
 30
0.0
 11
243.0313880170571963
 21
96.5000687641647801
 31
0.0
  0
LINE
  5
44CE
  8
0
 10
233.8631944081323866
 20
96.5000687641647801
 30
0.0
 11
228.7472912125946891
 21
96.5000687641647801
 31
0.0
  0
LINE
  5
44CF
  8
0
 10
248.4472912125947914
 20
129.1802909950000071
 30
0.0
 11
248.4472912125947914
 21
143.1802909950000071
 31
0.0
  0
LINE
  5
44D0
  8
0
 10
228.4472912125947914
 20
129.1802909950000071
 30
0.0
 11
228.4472912125947914
 21
143.1802909950000071
 31
0.0
  0
ARC
  5
44D1
  8
0
 10
123.0802497935785027
 20
173.6802909949500133
 30
0.0
 40
78.0000000000000568
 50
271.4692835813975762
 51
285.257523290499023
  0
LINE
  5
44D2
  8
0
 10
145.0802497934784867
 20
100.3590798757498987
 30
0.0
 11
145.0802497934784867
 21
105.9302909950499014
 31
0.0
  0
ARC
  5
44D3
  8
0
 10
103.0802497934785009
 20
100.3590798757498987
 30
0.0
 40
2.000000000000008
 50
180.0
 51
254.7424767095010054
  0
ARC
  5
44D4
  8
0
 10
123.0802497935785027
 20
173.6802909949500133
 30
0.0
 40
78.0000000000000142
 50
254.7424767095010054
 51
267.0604655135953749
  0
LINE
  5
44D5
  8
0
 10
101.0802497935284947
 20
105.9302909950499014
 30
0.0
 11
119.0802497935284947
 21
105.9302909950499014
 31
0.0
  0
LINE
  5
44D6
  8
0
 10
101.0802497935284947
 20
105.9302909950499014
 30
0.0
 11
101.0802497935284947
 21
100.3590798757498987
 31
0.0
  0
ARC
  5
44D7
  8
0
 10
143.0802497935285089
 20
100.3590798757498987
 30
0.0
 40
2.0000000000000142
 50
285.257523290499023
 51
0.0
  0
LINE
  5
44D8
  8
0
 10
125.0802497935284947
 20
105.9302909950499014
 30
0.0
 11
125.0802497935284947
 21
95.7059362364998947
 31
0.0
  0
LINE
  5
44D9
  8
0
 10
145.0802497934784867
 20
105.9302909950499014
 30
0.0
 11
125.0802497935284947
 21
105.9302909950499014
 31
0.0
  0
LINE
  5
44DA
  8
0
 10
119.0802497935284947
 20
95.7829226183999367
 30
0.0
 11
119.0802497935284947
 21
105.9302909950499014
 31
0.0
  0
LINE
  5
44DB
  8
0
 10
105.5802497935284947
 20
97.668778709099854
 30
0.0
 11
105.5802497933226931
 21
105.9302909950499014
 31
0.0
  0
LINE
  5
44DC
  8
0
 10
106.5802497935785027
 20
103.6802909950499014
 30
0.0
 11
101.0802497935284947
 21
103.6802909950499014
 31
0.0
  0
LINE
  5
44DD
  8
0
 10
106.5802497935785027
 20
105.9302909950499014
 30
0.0
 11
106.5802497935785027
 21
97.4454564375000132
 31
0.0
  0
LINE
  5
44DE
  8
0
 10
144.9091192568785118
 20
99.5496130844999811
 30
0.0
 11
125.0802497935284947
 21
99.5496130844999811
 31
0.0
  0
LINE
  5
44DF
  8
0
 10
106.5802497935785027
 20
99.5496130844999811
 30
0.0
 11
119.0802497935284947
 21
99.5496130844999811
 31
0.0
  0
LINE
  5
44E0
  8
1
 10
27.6802497935786995
 20
149.1802909950000071
 30
0.0
 11
51.0802497935785595
 21
149.1802909950000071
 31
0.0
  0
LINE
  5
44E1
  8
1
 10
118.0802497935785027
 20
149.1802909950000071
 30
0.0
 11
128.0802497935785027
 21
149.1802909950000071
 31
0.0
  0
LINE
  5
44E2
  8
1
 10
226.7472912125946891
 20
149.1802909950000071
 30
0.0
 11
250.1472912125946095
 21
149.1802909950000071
 31
0.0
  0
LINE
  5
44E3
  8
1
 10
27.3802497935789688
 20
136.1802909949998934
 30
0.0
 11
51.3802497935787414
 21
136.1802909949998934
 31
0.0
  0
LINE
  5
44E4
  8
1
 10
99.0802497935785595
 20
136.1802909949998934
 30
0.0
 11
113.0802497935785027
 21
136.1802909949998934
 31
0.0
  0
LINE
  5
44E5
  8
1
 10
133.0802497935785027
 20
136.1802909949998934
 30
0.0
 11
147.0802497935785027
 21
136.1802909949998934
 31
0.0
  0
LINE
  5
44E6
  8
1
 10
226.4472912125947914
 20
136.1802909949998934
 30
0.0
 11
250.4472912125947914
 21
136.1802909949998934
 31
0.0
  0
LINE
  5
44E7
  8
1
 10
27.6802497935786995
 20
119.1802909949999929
 30
0.0
 11
51.0802497935785595
 21
119.1802909949999929
 31
0.0
  0
LINE
  5
44E8
  8
1
 10
114.0802497935785027
 20
119.1802909949999929
 30
0.0
 11
132.0802497935785027
 21
119.1802909949999929
 31
0.0
  0
LINE
  5
44E9
  8
1
 10
226.7472912125946891
 20
119.1802909949999929
 30
0.0
 11
250.1472912125946095
 21
119.1802909949999929
 31
0.0
  0
LINE
  5
44EA
  8
1
 10
27.6802497935786995
 20
103.6802909949999929
 30
0.0
 11
51.0802497935785595
 21
103.6802909949999929
 31
0.0
  0
LINE
  5
44EB
  8
1
 10
228.4479012836387142
 20
103.6802909949999929
 30
0.0
 11
248.4466811415510961
 21
103.6802909949999929
 31
0.0
  0
LINE
  5
44EC
  8
1
 10
39.3802497935785212
 20
113.190290994999998
 30
0.0
 11
39.3802497935787414
 21
60.6798664281204765
 31
0.0
  0
POLYLINE
  5
44ED
  8
0
 66
     1
 10
0.0
 20
0.0
 30
0.0
  0
VERTEX
  5
4755
  8
0
 10
42.8802497935787272
 20
67.1802909949999929
 30
0.0
  0
VERTEX
  5
4756
  8
0
 10
42.8860418713973104
 20
67.3367580479498997
 30
0.0
  0
VERTEX
  5
4757
  8
0
 10
42.8978379563793624
 20
67.6554172081526417
 30
0.0
  0
VERTEX
  5
4758
  8
0
 10
42.9098856250006975
 20
67.9808726428184968
 30
0.0
  0
VERTEX
  5
4759
  8
0
 10
42.9159919969954373
 20
68.1458300311947482
 30
0.0
  0
SEQEND
  5
475A
  8
0
  0
LINE
  5
44EE
  8
0
 10
42.9159919969954373
 20
68.1458300311947482
 30
0.0
 11
43.2870464478649026
 21
78.1694861749104462
 31
0.0
  0
POLYLINE
  5
44EF
  8
0
 66
     1
 10
0.0
 20
0.0
 30
0.0
  0
VERTEX
  5
475B
  8
0
 10
43.2870464478649026
 20
78.1694861749104462
 30
0.0
  0
VERTEX
  5
475C
  8
0
 10
43.289518352296227
 20
78.2362621426502187
 30
0.0
  0
VERTEX
  5
475D
  8
0
 10
43.2944776374949925
 20
78.3702321554985133
 30
0.0
  0
VERTEX
  5
475E
  8
0
 10
43.2994565873489066
 20
78.504733388871216
 30
0.0
  0
VERTEX
  5
475F
  8
0
 10
43.3019530715171115
 20
78.572173353044775
 30
0.0
  0
VERTEX
  5
4760
  8
0
 10
43.3044540332916696
 20
78.6397342751608335
 30
0.0
  0
VERTEX
  5
4761
  8
0
 10
43.3094688024170793
 20
78.7752031294902935
 30
0.0
  0
VERTEX
  5
4762
  8
0
 10
43.3144997177523692
 20
78.911108157149954
 30
0.0
  0
VERTEX
  5
4763
  8
0
 10
43.3195455985353419
 20
79.0474174610599647
 30
0.0
  0
VERTEX
  5
4764
  8
0
 10
43.3246052604915803
 20
79.1840990492559627
 30
0.0
  0
VERTEX
  5
4765
  8
0
 10
43.3296775161118077
 20
79.3211208423984431
 30
0.0
  0
VERTEX
  5
4766
  8
0
 10
43.3322179946337585
 20
79.3897492689914657
 30
0.0
  0
VERTEX
  5
4767
  8
0
 10
43.3347611749316002
 20
79.458450681300917
 30
0.0
  0
VERTEX
  5
4768
  8
0
 10
43.3398550438098482
 20
79.5960563344784191
 30
0.0
  0
VERTEX
  5
4769
  8
0
 10
43.3449579272089522
 20
79.73390550571213
 30
0.0
  0
VERTEX
  5
476A
  8
0
 10
43.3500686274762685
 20
79.8719658416289917
 30
0.0
  0
VERTEX
  5
476B
  8
0
 10
43.3551859451233597
 20
80.0102049392955337
 30
0.0
  0
VERTEX
  5
476C
  8
0
 10
43.3603086791097212
 20
80.1485903538224846
 30
0.0
  0
VERTEX
  5
476D
  8
0
 10
43.3628717015496932
 20
80.2178277812823239
 30
0.0
  0
VERTEX
  5
476E
  8
0
 10
43.365435627123361
 20
80.2870896059799293
 30
0.0
  0
VERTEX
  5
476F
  8
0
 10
43.3705655858629981
 20
80.4256701898202095
 30
0.0
  0
VERTEX
  5
4770
  8
0
 10
43.3756973513211506
 20
80.5642995803068942
 30
0.0
  0
VERTEX
  5
4771
  8
0
 10
43.3782635351933479
 20
80.6336224106276518
 30
0.0
  0
SEQEND
  5
4772
  8
0
  0
LINE
  5
44F0
  8
0
 10
43.3782635351933479
 20
80.6336224106276518
 30
0.0
 11
43.4617628247062768
 21
82.889270239026871
 31
0.0
  0
POLYLINE
  5
44F1
  8
0
 66
     1
 10
0.0
 20
0.0
 30
0.0
  0
VERTEX
  5
4773
  8
0
 10
35.8802497935787414
 20
67.1802909949999929
 30
0.0
  0
VERTEX
  5
4774
  8
0
 10
35.8803657670225675
 20
67.1517988792904248
 30
0.0
  0
VERTEX
  5
4775
  8
0
 10
35.8812907802937389
 20
67.0949339604257347
 30
0.0
  0
VERTEX
  5
4776
  8
0
 10
35.8831335205538906
 20
67.0382425069948908
 30
0.0
  0
VERTEX
  5
4777
  8
0
 10
35.8843965625199033
 20
67.0099672242141082
 30
0.0
  0
VERTEX
  5
4778
  8
0
 10
35.8858860163152329
 20
66.9817417765444247
 30
0.0
  0
VERTEX
  5
4779
  8
0
 10
35.8895399024481776
 20
66.9254489734183267
 30
0.0
  0
VERTEX
  5
477A
  8
0
 10
35.8940864160038018
 20
66.8693811932011499
 30
0.0
  0
VERTEX
  5
477B
  8
0
 10
35.8995163965203119
 20
66.8135553700577134
 30
0.0
  0
VERTEX
  5
477C
  8
0
 10
35.905820290440488
 20
66.7579882271635938
 30
0.0
  0
VERTEX
  5
477D
  8
0
 10
35.9129881592632501
 20
66.7026962303671667
 30
0.0
  0
VERTEX
  5
477E
  8
0
 10
35.9168928759961616
 20
66.6751584763134701
 30
0.0
  0
VERTEX
  5
477F
  8
0
 10
35.9210096910685479
 20
66.6476955451651634
 30
0.0
  0
VERTEX
  5
4780
  8
0
 10
35.9298742150560884
 20
66.5930019970313083
 30
0.0
  0
VERTEX
  5
4781
  8
0
 10
35.9395707187666176
 20
66.5386310350909866
 30
0.0
  0
VERTEX
  5
4782
  8
0
 10
35.9500878676565208
 20
66.4845976991035172
 30
0.0
  0
VERTEX
  5
4783
  8
0
 10
35.961414026734019
 20
66.4309165896833633
 30
0.0
  0
VERTEX
  5
4784
  8
0
 10
35.9735372839709271
 20
66.3776018416647844
 30
0.0
  0
VERTEX
  5
4785
  8
0
 10
35.9798940322305114
 20
66.3510861371601663
 30
0.0
  0
VERTEX
  5
4786
  8
0
 10
35.9864454735673007
 20
66.3246671071421474
 30
0.0
  0
VERTEX
  5
4787
  8
0
 10
36.0001261621398498
 20
66.2721256817507651
 30
0.0
  0
VERTEX
  5
4788
  8
0
 10
36.0145666024720867
 20
66.2199906997259831
 30
0.0
  0
VERTEX
  5
4789
  8
0
 10
36.0220676589763116
 20
66.1940796835476135
 30
0.0
  0
VERTEX
  5
478A
  8
0
 10
36.0297537294725316
 20
66.1682751233802833
 30
0.0
  0
VERTEX
  5
478B
  8
0
 10
36.0456741662017066
 20
66.1169917025604832
 30
0.0
  0
VERTEX
  5
478C
  8
0
 10
36.0623142322644981
 20
66.0661529375907435
 30
0.0
  0
VERTEX
  5
478D
  8
0
 10
36.0708997707381513
 20
66.0409041307943312
 30
0.0
  0
VERTEX
  5
478E
  8
0
 10
36.0796599542914009
 20
66.0157710454956828
 30
0.0
  0
VERTEX
  5
478F
  8
0
 10
36.0976970782123772
 20
65.9658579293921434
 30
0.0
  0
VERTEX
  5
4790
  8
0
 10
36.1164110830784466
 20
65.9164251509164956
 30
0.0
  0
VERTEX
  5
4791
  8
0
 10
36.1357871961897672
 20
65.8674839055368579
 30
0.0
  0
VERTEX
  5
4792
  8
0
 10
36.1558104093285166
 20
65.8190450005901653
 30
0.0
  0
VERTEX
  5
4793
  8
0
 10
36.1764654959154086
 20
65.771118835877175
 30
0.0
  0
VERTEX
  5
4794
  8
0
 10
36.1870251781347179
 20
65.7473511653759601
 30
0.0
  0
VERTEX
  5
4795
  8
0
 10
36.1977370289316696
 20
65.7237153866435051
 30
0.0
  0
VERTEX
  5
4796
  8
0
 10
36.2196093994725672
 20
65.6768441887761014
 30
0.0
  0
VERTEX
  5
4797
  8
0
 10
36.2420668358201965
 20
65.6305143260457839
 30
0.0
  0
VERTEX
  5
4798
  8
0
 10
36.2650947657798497
 20
65.5847317974834709
 30
0.0
  0
VERTEX
  5
4799
  8
0
 10
36.2886795341103081
 20
65.5395005358702178
 30
0.0
  0
VERTEX
  5
479A
  8
0
 10
36.3128051837218209
 20
65.4948285761187634
 30
0.0
  0
VERTEX
  5
479B
  8
0
 10
36.325065778077942
 20
65.4727047947077949
 30
0.0
  0
VERTEX
  5
479C
  8
0
 10
36.3374554915165007
 20
65.4507237556774157
 30
0.0
  0
VERTEX
  5
479D
  8
0
 10
36.3626140128160387
 20
65.4071936218528549
 30
0.0
  0
VERTEX
  5
479E
  8
0
 10
36.3882640929744028
 20
65.3642454098400663
 30
0.0
  0
VERTEX
  5
479F
  8
0
 10
36.4816654620187819
 20
65.2186057825268222
 30
0.0
  0
VERTEX
  5
47A0
  8
0
 10
36.6531675705844009
 20
64.9864308014079342
 30
0.0
  0
VERTEX
  5
47A1
  8
0
 10
36.8357182046029266
 20
64.7770933350676046
 30
0.0
  0
VERTEX
  5
47A2
  8
0
 10
36.9298877541475576
 20
64.681145966051929
 30
0.0
  0
VERTEX
  5
47A3
  8
0
 10
37.0253010550266026
 20
64.5910408257827271
 30
0.0
  0
VERTEX
  5
47A4
  8
0
 10
37.2195616367973798
 20
64.4268519291869666
 30
0.0
  0
VERTEX
  5
47A5
  8
0
 10
37.4217087708086567
 20
64.2795812435551142
 30
0.0
  0
VERTEX
  5
47A6
  8
0
 10
37.6293067918611612
 20
64.1497467196699631
 30
0.0
  0
VERTEX
  5
47A7
  8
0
 10
37.8391221258978021
 20
64.0378515744369565
 30
0.0
  0
VERTEX
  5
47A8
  8
0
 10
38.0478280913294
 20
63.9438342275805667
 30
0.0
  0
VERTEX
  5
47A9
  8
0
 10
38.150699596291588
 20
63.9033707469085925
 30
0.0
  0
VERTEX
  5
47AA
  8
0
 10
38.2520101946490811
 20
63.867124019520638
 30
0.0
  0
VERTEX
  5
47AB
  8
0
 10
38.4490808536850182
 20
63.8064320167115397
 30
0.0
  0
VERTEX
  5
47AC
  8
0
 10
38.6386184788282208
 20
63.7597672057272007
 30
0.0
  0
VERTEX
  5
47AD
  8
0
 10
38.7294706059299187
 20
63.74132509680868
 30
0.0
  0
SEQEND
  5
47AE
  8
0
  0
POLYLINE
  5
44F2
  8
0
 66
     1
 10
0.0
 20
0.0
 30
0.0
  0
VERTEX
  5
47AF
  8
0
 10
38.7294706059299187
 20
63.74132509680868
 30
0.0
  0
VERTEX
  5
47B0
  8
0
 10
38.7652369623740469
 20
63.734749061217542
 30
0.0
  0
VERTEX
  5
47B1
  8
0
 10
38.8369649921662585
 20
63.722713573660883
 30
0.0
  0
VERTEX
  5
47B2
  8
0
 10
38.8789166733629372
 20
63.716382061067911
 30
0.0
  0
VERTEX
  5
47B3
  8
0
 10
38.8909166684445609
 20
63.7146665068815423
 30
0.0
  0
VERTEX
  5
47B4
  8
0
 10
38.9029225332474198
 20
63.7129925240655481
 30
0.0
  0
VERTEX
  5
47B5
  8
0
 10
38.9089276217921523
 20
63.7121711282158572
 30
0.0
  0
VERTEX
  5
47B6
  8
0
 10
38.9149341237564386
 20
63.7113601326998875
 30
0.0
  0
VERTEX
  5
47B7
  8
0
 10
38.9269512958887773
 20
63.7097693523658677
 30
0.0
  0
VERTEX
  5
47B8
  8
0
 10
38.938973905494322
 20
63.7082202021452417
 30
0.0
  0
VERTEX
  5
47B9
  8
0
 10
38.9449872042844234
 20
63.7074612441539898
 30
0.0
  0
VERTEX
  5
47BA
  8
0
 10
38.951001808357212
 20
63.7067127006206988
 30
0.0
  0
VERTEX
  5
47BB
  8
0
 10
38.9630348601992935
 20
63.7052468658751465
 30
0.0
  0
VERTEX
  5
47BC
  8
0
 10
38.9750729166792098
 20
63.7038227154918602
 30
0.0
  0
VERTEX
  5
47BD
  8
0
 10
38.9810937765355376
 20
63.7031262772941815
 30
0.0
  0
VERTEX
  5
47BE
  8
0
 10
38.9871158333965013
 20
63.702440266554099
 30
0.0
  0
VERTEX
  5
47BF
  8
0
 10
38.9991634658924795
 20
63.701099535644687
 30
0.0
  0
VERTEX
  5
47C0
  8
0
 10
39.0112156696516195
 20
63.6998005388462119
 30
0.0
  0
VERTEX
  5
47C1
  8
0
 10
39.0232723001031374
 20
63.6985432917406911
 30
0.0
  0
VERTEX
  5
47C2
  8
0
 10
39.0353332126237618
 20
63.6973278094089324
 30
0.0
  0
VERTEX
  5
47C3
  8
0
 10
39.0473982625387706
 20
63.6961541064313792
 30
0.0
  0
VERTEX
  5
47C4
  8
0
 10
39.053432293794458
 20
63.6955829266196929
 30
0.0
  0
VERTEX
  5
47C5
  8
0
 10
39.0594673051234622
 20
63.695022196886903
 30
0.0
  0
VERTEX
  5
47C6
  8
0
 10
39.0715401956056212
 20
63.6939320943532223
 30
0.0
  0
VERTEX
  5
47C7
  8
0
 10
39.0836167891668609
 20
63.692883811906249
 30
0.0
  0
VERTEX
  5
47C8
  8
0
 10
39.0956969409439807
 20
63.691877362120799
 30
0.0
  0
VERTEX
  5
47C9
  8
0
 10
39.1077805060315313
 20
63.6909127570693911
 30
0.0
  0
VERTEX
  5
47CA
  8
0
 10
39.1198673394828802
 20
63.6899900083229227
 30
0.0
  0
VERTEX
  5
47CB
  8
0
 10
39.1259119365383867
 20
63.6895443335425284
 30
0.0
  0
VERTEX
  5
47CC
  8
0
 10
39.1319572963123008
 20
63.6891091269499725
 30
0.0
  0
VERTEX
  5
47CD
  8
0
 10
39.1440502314965215
 20
63.6882701235171496
 30
0.0
  0
VERTEX
  5
47CE
  8
0
 10
39.1561459999763883
 20
63.6874730080883822
 30
0.0
  0
VERTEX
  5
47CF
  8
0
 10
39.168244456659302
 20
63.6867177902256003
 30
0.0
  0
VERTEX
  5
47D0
  8
0
 10
39.1803454564201274
 20
63.6860044789877406
 30
0.0
  0
VERTEX
  5
47D1
  8
0
 10
39.1924488541028495
 20
63.6853330829312085
 30
0.0
  0
VERTEX
  5
47D2
  8
0
 10
39.1985014067956925
 20
63.6850131056324287
 30
0.0
  0
VERTEX
  5
47D3
  8
0
 10
39.2045545045230028
 20
63.684703610109807
 30
0.0
  0
VERTEX
  5
47D4
  8
0
 10
39.2166622624692991
 20
63.6841160680740472
 30
0.0
  0
VERTEX
  5
47D5
  8
0
 10
39.2287719827047567
 20
63.6835704638718312
 30
0.0
  0
VERTEX
  5
47D6
  8
0
 10
39.2408835199696568
 20
63.6830668040479893
 30
0.0
  0
VERTEX
  5
47D7
  8
0
 10
39.252996728980861
 20
63.6826050946438613
 30
0.0
  0
VERTEX
  5
47D8
  8
0
 10
39.2651114644370409
 20
63.6821853411979006
 30
0.0
  0
VERTEX
  5
47D9
  8
0
 10
39.2711693591702513
 20
63.6819911995523285
 30
0.0
  0
VERTEX
  5
47DA
  8
0
 10
39.2772275810177689
 20
63.681807548745212
 30
0.0
  0
VERTEX
  5
47DB
  8
0
 10
39.2893449333853368
 20
63.6814717218175588
 30
0.0
  0
VERTEX
  5
47DC
  8
0
 10
39.3014633761886216
 20
63.6811778644432067
 30
0.0
  0
VERTEX
  5
47DD
  8
0
 10
39.3135827640621827
 20
63.6809259801472578
 30
0.0
  0
VERTEX
  5
47DE
  8
0
 10
39.3257029516300918
 20
63.6807160719510534
 30
0.0
  0
VERTEX
  5
47DF
  8
0
 10
39.3378237935060113
 20
63.6805481423724018
 30
0.0
  0
VERTEX
  5
47E0
  8
0
 10
39.3438844143745428
 20
63.6804799202139407
 30
0.0
  0
VERTEX
  5
47E1
  8
0
 10
39.349945144296953
 20
63.6804221934258408
 30
0.0
  0
VERTEX
  5
47E2
  8
0
 10
39.362066858602482
 20
63.6803382266221618
 30
0.0
  0
VERTEX
  5
47E3
  8
0
 10
39.3741887910184687
 20
63.6802962429684882
 30
0.0
  0
VERTEX
  5
47E4
  8
0
 10
39.3802497935787414
 20
63.6802909950000071
 30
0.0
  0
VERTEX
  5
47E5
  8
0
 10
39.3863107961385595
 20
63.6802962429684882
 30
0.0
  0
VERTEX
  5
47E6
  8
0
 10
39.398432728555008
 20
63.6803382266221618
 30
0.0
  0
VERTEX
  5
47E7
  8
0
 10
39.4105544428605299
 20
63.6804221934258408
 30
0.0
  0
VERTEX
  5
47E8
  8
0
 10
39.4166151727827128
 20
63.6804799202139407
 30
0.0
  0
VERTEX
  5
47E9
  8
0
 10
39.422675793651031
 20
63.6805481423724018
 30
0.0
  0
VERTEX
  5
47EA
  8
0
 10
39.4347966355273911
 20
63.6807160719510534
 30
0.0
  0
VERTEX
  5
47EB
  8
0
 10
39.44691682309508
 20
63.6809259801472578
 30
0.0
  0
VERTEX
  5
47EC
  8
0
 10
39.459036210968641
 20
63.6811778644432067
 30
0.0
  0
VERTEX
  5
47ED
  8
0
 10
39.4711546537716913
 20
63.6814717218175588
 30
0.0
  0
VERTEX
  5
47EE
  8
0
 10
39.4832720061397211
 20
63.681807548745212
 30
0.0
  0
VERTEX
  5
47EF
  8
0
 10
39.4893302279872387
 20
63.6819911995523285
 30
0.0
  0
VERTEX
  5
47F0
  8
0
 10
39.4953881227199872
 20
63.6821853411979006
 30
0.0
  0
VERTEX
  5
47F1
  8
0
 10
39.5075028581761671
 20
63.6826050946438613
 30
0.0
  0
VERTEX
  5
47F2
  8
0
 10
39.5196160671878189
 20
63.6830668040479893
 30
0.0
  0
VERTEX
  5
47F3
  8
0
 10
39.5317276044522714
 20
63.683570463871952
 30
0.0
  0
VERTEX
  5
47F4
  8
0
 10
39.5438373246879635
 20
63.6841160680740472
 30
0.0
  0
VERTEX
  5
47F5
  8
0
 10
39.5559450826342527
 20
63.684703610109807
 30
0.0
  0
VERTEX
  5
47F6
  8
0
 10
39.5619981803613427
 20
63.6850131056324287
 30
0.0
  0
VERTEX
  5
47F7
  8
0
 10
39.5680507330546405
 20
63.6853330829312085
 30
0.0
  0
VERTEX
  5
47F8
  8
0
 10
39.5801541307371281
 20
63.6860044789877406
 30
0.0
  0
VERTEX
  5
47F9
  8
0
 10
39.5922551304977333
 20
63.6867177902256003
 30
0.0
  0
VERTEX
  5
47FA
  8
0
 10
39.6043535871806398
 20
63.6874730080883822
 30
0.0
  0
VERTEX
  5
47FB
  8
0
 10
39.6164493556609614
 20
63.6882701235171496
 30
0.0
  0
VERTEX
  5
47FC
  8
0
 10
39.6285422908451892
 20
63.6891091269499725
 30
0.0
  0
VERTEX
  5
47FD
  8
0
 10
39.6345876506191033
 20
63.6895443335425284
 30
0.0
  0
VERTEX
  5
47FE
  8
0
 10
39.6406322476743824
 20
63.6899900083229227
 30
0.0
  0
VERTEX
  5
47FF
  8
0
 10
39.6527190811259516
 20
63.6909127570693911
 30
0.0
  0
VERTEX
  5
4800
  8
0
 10
39.6648026462132819
 20
63.691877362120799
 30
0.0
  0
VERTEX
  5
4801
  8
0
 10
39.6768827979906291
 20
63.692883811906249
 30
0.0
  0
VERTEX
  5
4802
  8
0
 10
39.6889593915516414
 20
63.6939320943532223
 30
0.0
  0
VERTEX
  5
4803
  8
0
 10
39.7010322820338004
 20
63.695022196886903
 30
0.0
  0
VERTEX
  5
4804
  8
0
 10
39.7070672933627975
 20
63.6955829266196929
 30
0.0
  0
VERTEX
  5
4805
  8
0
 10
39.7131013246187194
 20
63.6961541064313792
 30
0.0
  0
VERTEX
  5
4806
  8
0
 10
39.7251663745335009
 20
63.6973278094089324
 30
0.0
  0
VERTEX
  5
4807
  8
0
 10
39.737227287054111
 20
63.6985432917406911
 30
0.0
  0
VERTEX
  5
4808
  8
0
 10
39.7492839175058634
 20
63.6998005388462119
 30
0.0
  0
VERTEX
  5
4809
  8
0
 10
39.7613361212645486
 20
63.701099535644687
 30
0.0
  0
VERTEX
  5
480A
  8
0
 10
39.7733837537605268
 20
63.702440266554099
 30
0.0
  0
VERTEX
  5
480B
  8
0
 10
39.7794058106217108
 20
63.7031262772941815
 30
0.0
  0
VERTEX
  5
480C
  8
0
 10
39.7854266704782802
 20
63.7038227154918602
 30
0.0
  0
VERTEX
  5
480D
  8
0
 10
39.7974647269581965
 20
63.7052468658751465
 30
0.0
  0
VERTEX
  5
480E
  8
0
 10
39.8094977787998303
 20
63.7067127006206988
 30
0.0
  0
VERTEX
  5
480F
  8
0
 10
39.8155123828726119
 20
63.7074612441539898
 30
0.0
  0
VERTEX
  5
4810
  8
0
 10
39.8215256816631609
 20
63.7082202021452417
 30
0.0
  0
VERTEX
  5
4811
  8
0
 10
39.8335482912684711
 20
63.7097693523658677
 30
0.0
  0
VERTEX
  5
4812
  8
0
 10
39.845565463400817
 20
63.7113601326998875
 30
0.0
  0
VERTEX
  5
4813
  8
0
 10
39.8515719653648901
 20
63.7121711282158572
 30
0.0
  0
VERTEX
  5
4814
  8
0
 10
39.8575770539098428
 20
63.7129925240655481
 30
0.0
  0
VERTEX
  5
4815
  8
0
 10
39.8695829187124673
 20
63.7146665068815423
 30
0.0
  0
VERTEX
  5
4816
  8
0
 10
39.8815829137945528
 20
63.716382061067911
 30
0.0
  0
VERTEX
  5
4817
  8
0
 10
39.9235345949907696
 20
63.722713573660883
 30
0.0
  0
VERTEX
  5
4818
  8
0
 10
39.9952626247834431
 20
63.734749061217542
 30
0.0
  0
VERTEX
  5
4819
  8
0
 10
40.031028981227557
 20
63.74132509680868
 30
0.0
  0
SEQEND
  5
481A
  8
0
  0
POLYLINE
  5
44F3
  8
0
 66
     1
 10
0.0
 20
0.0
 30
0.0
  0
VERTEX
  5
481B
  8
0
 10
40.031028981227557
 20
63.74132509680868
 30
0.0
  0
VERTEX
  5
481C
  8
0
 10
40.1218811083290277
 20
63.7597672057272007
 30
0.0
  0
VERTEX
  5
481D
  8
0
 10
40.3114187334722303
 20
63.8064320167115397
 30
0.0
  0
VERTEX
  5
481E
  8
0
 10
40.508489392507947
 20
63.867124019520638
 30
0.0
  0
VERTEX
  5
481F
  8
0
 10
40.6097999908656604
 20
63.9033707469085925
 30
0.0
  0
VERTEX
  5
4820
  8
0
 10
40.7126714958278626
 20
63.9438342275805667
 30
0.0
  0
VERTEX
  5
4821
  8
0
 10
40.9213774612592189
 20
64.0378515744369565
 30
0.0
  0
VERTEX
  5
4822
  8
0
 10
41.1311927952963288
 20
64.1497467196699631
 30
0.0
  0
VERTEX
  5
4823
  8
0
 10
41.3387908163485918
 20
64.2795812435551142
 30
0.0
  0
VERTEX
  5
4824
  8
0
 10
41.5409379503598686
 20
64.4268519291869666
 30
0.0
  0
VERTEX
  5
4825
  8
0
 10
41.7351985321308803
 20
64.5910408257827271
 30
0.0
  0
VERTEX
  5
4826
  8
0
 10
41.8306118330094705
 20
64.681145966051929
 30
0.0
  0
VERTEX
  5
4827
  8
0
 10
41.924781382554329
 20
64.7770933350676046
 30
0.0
  0
VERTEX
  5
4828
  8
0
 10
42.107332016573082
 20
64.9864308014079342
 30
0.0
  0
VERTEX
  5
4829
  8
0
 10
42.2788341251384665
 20
65.2186057825268222
 30
0.0
  0
VERTEX
  5
482A
  8
0
 10
42.3722354941830872
 20
65.3642454098400663
 30
0.0
  0
VERTEX
  5
482B
  8
0
 10
42.3978855743414371
 20
65.4071936218528549
 30
0.0
  0
VERTEX
  5
482C
  8
0
 10
42.4230440956409822
 20
65.4507237556774157
 30
0.0
  0
VERTEX
  5
482D
  8
0
 10
42.4354338090795267
 20
65.4727047947077949
 30
0.0
  0
VERTEX
  5
482E
  8
0
 10
42.4476944034352002
 20
65.4948285761187634
 30
0.0
  0
VERTEX
  5
482F
  8
0
 10
42.4718200530469403
 20
65.5395005358702178
 30
0.0
  0
VERTEX
  5
4830
  8
0
 10
42.4954048213773987
 20
65.5847317974834709
 30
0.0
  0
VERTEX
  5
4831
  8
0
 10
42.518432751337059
 20
65.6305143260457839
 30
0.0
  0
VERTEX
  5
4832
  8
0
 10
42.5408901876846812
 20
65.6768441887761014
 30
0.0
  0
VERTEX
  5
4833
  8
0
 10
42.5627625582255789
 20
65.7237153866435051
 30
0.0
  0
VERTEX
  5
4834
  8
0
 10
42.5734744090225306
 20
65.7473511653759601
 30
0.0
  0
VERTEX
  5
4835
  8
0
 10
42.5840340912418398
 20
65.771118835877175
 30
0.0
  0
VERTEX
  5
4836
  8
0
 10
42.6046891778287318
 20
65.8190450005901653
 30
0.0
  0
VERTEX
  5
4837
  8
0
 10
42.6247123909674883
 20
65.8674839055368579
 30
0.0
  0
VERTEX
  5
4838
  8
0
 10
42.6440885040788089
 20
65.9164251509164956
 30
0.0
  0
VERTEX
  5
4839
  8
0
 10
42.6628025089448784
 20
65.9658579293921434
 30
0.0
  0
VERTEX
  5
483A
  8
0
 10
42.6808396328658475
 20
66.0157710454956828
 30
0.0
  0
VERTEX
  5
483B
  8
0
 10
42.6895998164193315
 20
66.0409041307943312
 30
0.0
  0
VERTEX
  5
483C
  8
0
 10
42.698185354892523
 20
66.0661529375907435
 30
0.0
  0
VERTEX
  5
483D
  8
0
 10
42.7148254209557692
 20
66.1169917025604832
 30
0.0
  0
VERTEX
  5
483E
  8
0
 10
42.7307458576844965
 20
66.1682751233802833
 30
0.0
  0
VERTEX
  5
483F
  8
0
 10
42.7384319281811713
 20
66.1940796835477272
 30
0.0
  0
VERTEX
  5
4840
  8
0
 10
42.7459329846851617
 20
66.2199906997259831
 30
0.0
  0
VERTEX
  5
4841
  8
0
 10
42.7603734250173986
 20
66.2721256817507651
 30
0.0
  0
VERTEX
  5
4842
  8
0
 10
42.7740541135897203
 20
66.3246671071421474
 30
0.0
  0
VERTEX
  5
4843
  8
0
 10
42.7806055549269786
 20
66.3510861371601663
 30
0.0
  0
VERTEX
  5
4844
  8
0
 10
42.7869623031863213
 20
66.3776018416647844
 30
0.0
  0
VERTEX
  5
4845
  8
0
 10
42.7990855604232365
 20
66.4309165896833633
 30
0.0
  0
VERTEX
  5
4846
  8
0
 10
42.8104117195005003
 20
66.4845976991035172
 30
0.0
  0
VERTEX
  5
4847
  8
0
 10
42.8209288683908724
 20
66.5386310350909866
 30
0.0
  0
VERTEX
  5
4848
  8
0
 10
42.8306253721013874
 20
66.5930019970313083
 30
0.0
  0
VERTEX
  5
4849
  8
0
 10
42.8394898960889421
 20
66.6476955451651634
 30
0.0
  0
VERTEX
  5
484A
  8
0
 10
42.8436067111608665
 20
66.6751584763134701
 30
0.0
  0
VERTEX
  5
484B
  8
0
 10
42.8475114278939984
 20
66.702696230367053
 30
0.0
  0
VERTEX
  5
484C
  8
0
 10
42.8546792967169878
 20
66.7579882271635938
 30
0.0
  0
VERTEX
  5
484D
  8
0
 10
42.860983190637171
 20
66.8135553700577134
 30
0.0
  0
VERTEX
  5
484E
  8
0
 10
42.8664131711536811
 20
66.8693811932011499
 30
0.0
  0
VERTEX
  5
484F
  8
0
 10
42.8709596847090708
 20
66.9254489734183267
 30
0.0
  0
VERTEX
  5
4850
  8
0
 10
42.87461357084225
 20
66.9817417765444247
 30
0.0
  0
VERTEX
  5
4851
  8
0
 10
42.8761030246375796
 20
67.0099672242141082
 30
0.0
  0
VERTEX
  5
4852
  8
0
 10
42.8773660666035923
 20
67.0382425069948908
 30
0.0
  0
VERTEX
  5
4853
  8
0
 10
42.8792088068637369
 20
67.0949339604257347
 30
0.0
  0
VERTEX
  5
4854
  8
0
 10
42.8801338201349083
 20
67.1517988792904248
 30
0.0
  0
VERTEX
  5
4855
  8
0
 10
42.8802497935787272
 20
67.1802909949999929
 30
0.0
  0
SEQEND
  5
4856
  8
0
  0
LINE
  5
44F4
  8
0
 10
35.298736762451199
 20
82.889270239026871
 30
0.0
 11
35.3822360519641279
 21
80.6336224106276518
 31
0.0
  0
POLYLINE
  5
44F5
  8
0
 66
     1
 10
0.0
 20
0.0
 30
0.0
  0
VERTEX
  5
4857
  8
0
 10
35.3822360519641279
 20
80.6336224106276518
 30
0.0
  0
VERTEX
  5
4858
  8
0
 10
35.3848022358363323
 20
80.5642995803068942
 30
0.0
  0
VERTEX
  5
4859
  8
0
 10
35.3899340012942503
 20
80.4256701898202095
 30
0.0
  0
VERTEX
  5
485A
  8
0
 10
35.3950639600341219
 20
80.2870896059799293
 30
0.0
  0
VERTEX
  5
485B
  8
0
 10
35.3976278856077897
 20
80.2178277812823239
 30
0.0
  0
VERTEX
  5
485C
  8
0
 10
35.4001909080477617
 20
80.1485903538224846
 30
0.0
  0
VERTEX
  5
485D
  8
0
 10
35.4053136420341232
 20
80.0102049392955337
 30
0.0
  0
VERTEX
  5
485E
  8
0
 10
35.4104309596812072
 20
79.8719658416289917
 30
0.0
  0
VERTEX
  5
485F
  8
0
 10
35.4155416599483033
 20
79.73390550571213
 30
0.0
  0
VERTEX
  5
4860
  8
0
 10
35.4206445433476276
 20
79.5960563344784191
 30
0.0
  0
VERTEX
  5
4861
  8
0
 10
35.4257384122256624
 20
79.458450681300917
 30
0.0
  0
VERTEX
  5
4862
  8
0
 10
35.4282815925237173
 20
79.3897492689914657
 30
0.0
  0
VERTEX
  5
4863
  8
0
 10
35.4308220710456681
 20
79.3211208423984431
 30
0.0
  0
VERTEX
  5
4864
  8
0
 10
35.4358943266659026
 20
79.1840990492559627
 30
0.0
  0
VERTEX
  5
4865
  8
0
 10
35.440953988622141
 20
79.0474174610599647
 30
0.0
  0
VERTEX
  5
4866
  8
0
 10
35.4459998694048934
 20
78.911108157149954
 30
0.0
  0
VERTEX
  5
4867
  8
0
 10
35.4510307847401691
 20
78.7752031294902935
 30
0.0
  0
VERTEX
  5
4868
  8
0
 10
35.4560455538655788
 20
78.6397342751608335
 30
0.0
  0
VERTEX
  5
4869
  8
0
 10
35.4585465156401369
 20
78.572173353044775
 30
0.0
  0
VERTEX
  5
486A
  8
0
 10
35.4610429998085692
 20
78.504733388871216
 30
0.0
  0
VERTEX
  5
486B
  8
0
 10
35.4660219496624904
 20
78.3702321554985133
 30
0.0
  0
VERTEX
  5
486C
  8
0
 10
35.4709812348610285
 20
78.2362621426502187
 30
0.0
  0
VERTEX
  5
486D
  8
0
 10
35.4734531392925874
 20
78.1694861749104462
 30
0.0
  0
SEQEND
  5
486E
  8
0
  0
LINE
  5
44F6
  8
0
 10
35.4734531392925874
 20
78.1694861749104462
 30
0.0
 11
35.8445075901620385
 21
68.1458300311947482
 31
0.0
  0
POLYLINE
  5
44F7
  8
0
 66
     1
 10
0.0
 20
0.0
 30
0.0
  0
VERTEX
  5
486F
  8
0
 10
35.8445075901620385
 20
68.1458300311947482
 30
0.0
  0
VERTEX
  5
4870
  8
0
 10
35.850613962156558
 20
67.9808726428184968
 30
0.0
  0
VERTEX
  5
4871
  8
0
 10
35.8626616307776729
 20
67.6554172081526417
 30
0.0
  0
VERTEX
  5
4872
  8
0
 10
35.8744577157601725
 20
67.3367580479498997
 30
0.0
  0
VERTEX
  5
4873
  8
0
 10
35.8802497935787414
 20
67.1802909949999929
 30
0.0
  0
SEQEND
  5
4874
  8
0
  0
ARC
  5
44F8
  8
0
 10
40.2953144715963774
 20
83.0742329284399261
 30
0.0
 40
5.0000000000002958
 50
170.451212340722293
 51
182.1199999999998909
  0
ARC
  5
44F9
  8
0
 10
38.4651851155610984
 20
83.0742329284399261
 30
0.0
 40
4.9999999999999218
 50
357.8799999999999955
 51
9.5487876592776857
  0
POLYLINE
  5
44FA
  8
0
 66
     1
 10
0.0
 20
0.0
 30
0.0
  0
VERTEX
  5
4875
  8
0
 10
43.3959086409922818
 20
83.9036697950913748
 30
0.0
  0
VERTEX
  5
4876
  8
0
 10
43.3246181002257273
 20
84.3477962218986761
 30
0.0
  0
VERTEX
  5
4877
  8
0
 10
43.2019394037799884
 20
85.2399297040274462
 30
0.0
  0
VERTEX
  5
4878
  8
0
 10
43.1060800907423527
 20
86.1354805159082986
 30
0.0
  0
VERTEX
  5
4879
  8
0
 10
43.0682691371143775
 20
86.5838996504551517
 30
0.0
  0
VERTEX
  5
487A
  8
0
 10
43.0372110566856918
 20
87.032473038349309
 30
0.0
  0
VERTEX
  5
487B
  8
0
 10
42.9953345586270572
 20
87.929050566528673
 30
0.0
  0
VERTEX
  5
487C
  8
0
 10
42.9803042865107727
 20
88.8231108151981346
 30
0.0
  0
VERTEX
  5
487D
  8
0
 10
42.9917959760725807
 20
89.7125395367838934
 30
0.0
  0
VERTEX
  5
487E
  8
0
 10
43.0293075029951524
 20
90.5952416957858446
 30
0.0
  0
VERTEX
  5
487F
  8
0
 10
43.0921630403484031
 20
91.4691653124170045
 30
0.0
  0
VERTEX
  5
4880
  8
0
 10
43.1328370739820528
 20
91.902203294531347
 30
0.0
  0
VERTEX
  5
4881
  8
0
 10
43.1795163032704679
 20
92.3322880169604616
 30
0.0
  0
VERTEX
  5
4882
  8
0
 10
43.2903484188493621
 20
93.182587632708902
 30
0.0
  0
VERTEX
  5
4883
  8
0
 10
43.3737361271025819
 20
93.7059362365282738
 30
0.0
  0
SEQEND
  5
4884
  8
0
  0
POLYLINE
  5
44FB
  8
0
 66
     1
 10
0.0
 20
0.0
 30
0.0
  0
VERTEX
  5
4885
  8
0
 10
35.3867634600549081
 20
93.7059362365283164
 30
0.0
  0
VERTEX
  5
4886
  8
0
 10
35.4701511683099397
 20
93.1825876326959559
 30
0.0
  0
VERTEX
  5
4887
  8
0
 10
35.5809832838883722
 20
92.3322880169485245
 30
0.0
  0
VERTEX
  5
4888
  8
0
 10
35.6276625131765812
 20
91.9022032945198646
 30
0.0
  0
VERTEX
  5
4889
  8
0
 10
35.6683365468100035
 20
91.4691653124060906
 30
0.0
  0
VERTEX
  5
488A
  8
0
 10
35.7311920841630126
 20
90.5952416957761955
 30
0.0
  0
VERTEX
  5
488B
  8
0
 10
35.7687036110851295
 20
89.7125395367754948
 30
0.0
  0
VERTEX
  5
488C
  8
0
 10
35.7801953006464828
 20
88.8231108151909581
 30
0.0
  0
VERTEX
  5
488D
  8
0
 10
35.7651650285304186
 20
87.9290505665226334
 30
0.0
  0
VERTEX
  5
488E
  8
0
 10
35.7232885304715708
 20
87.0324730383447616
 30
0.0
  0
VERTEX
  5
488F
  8
0
 10
35.6922304500428709
 20
86.5838996504511726
 30
0.0
  0
VERTEX
  5
4890
  8
0
 10
35.6544194964149099
 20
86.1354805159050159
 30
0.0
  0
VERTEX
  5
4891
  8
0
 10
35.5585601833770397
 20
85.2399297040253998
 30
0.0
  0
VERTEX
  5
4892
  8
0
 10
35.4358814869317484
 20
84.347796221897994
 30
0.0
  0
VERTEX
  5
4893
  8
0
 10
35.3645909461652082
 20
83.9036697950913748
 30
0.0
  0
SEQEND
  5
4894
  8
0
  0
LINE
  5
44FC
  8
1
 10
238.4472912125947914
 20
60.6798664281204765
 30
0.0
 11
238.4472912125947914
 21
113.190290994999998
 31
0.0
  0
POLYLINE
  5
44FD
  8
0
 66
     1
 10
0.0
 20
0.0
 30
0.0
  0
VERTEX
  5
4895
  8
0
 10
242.4629500600082963
 20
83.9036697950913748
 30
0.0
  0
VERTEX
  5
4896
  8
0
 10
242.3916595192418129
 20
84.3477962218987045
 30
0.0
  0
VERTEX
  5
4897
  8
0
 10
242.2689808227962942
 20
85.2399297040274746
 30
0.0
  0
VERTEX
  5
4898
  8
0
 10
242.1731215097584027
 20
86.1354805159083412
 30
0.0
  0
VERTEX
  5
4899
  8
0
 10
242.1353105561304062
 20
86.5838996504551801
 30
0.0
  0
VERTEX
  5
489A
  8
0
 10
242.1042524757017134
 20
87.0324730383493232
 30
0.0
  0
VERTEX
  5
489B
  8
0
 10
242.0623759776430859
 20
87.9290505665287014
 30
0.0
  0
VERTEX
  5
489C
  8
0
 10
242.0473457055269932
 20
88.823110815198163
 30
0.0
  0
VERTEX
  5
489D
  8
0
 10
242.0588373950886023
 20
89.712539536783936
 30
0.0
  0
VERTEX
  5
489E
  8
0
 10
242.0963489220112024
 20
90.5952416957858873
 30
0.0
  0
VERTEX
  5
489F
  8
0
 10
242.1592044593643891
 20
91.469165312417033
 30
0.0
  0
VERTEX
  5
48A0
  8
0
 10
242.1998784929980957
 20
91.9022032945313754
 30
0.0
  0
VERTEX
  5
48A1
  8
0
 10
242.2465577222864965
 20
92.3322880169604758
 30
0.0
  0
VERTEX
  5
48A2
  8
0
 10
242.3573898378654121
 20
93.1825876327089304
 30
0.0
  0
VERTEX
  5
48A3
  8
0
 10
242.4905097399403076
 20
94.0180598665773886
 30
0.0
  0
VERTEX
  5
48A4
  8
0
 10
242.6445584077065973
 20
94.8367415827534046
 30
0.0
  0
VERTEX
  5
48A5
  8
0
 10
242.8199575522355929
 20
95.6451241123820068
 30
0.0
  0
VERTEX
  5
48A6
  8
0
 10
243.0202103843907935
 20
96.4584555876246554
 30
0.0
  0
VERTEX
  5
48A7
  8
0
 10
243.1298141078466983
 20
96.8664989747836103
 30
0.0
  0
VERTEX
  5
48A8
  8
0
 10
243.2457791721778904
 20
97.2751051195488685
 30
0.0
  0
VERTEX
  5
48A9
  8
0
 10
243.4968657772884058
 20
98.0929565953030647
 30
0.0
  0
VERTEX
  5
48AA
  8
0
 10
243.7735240703536874
 20
98.9099515867811192
 30
0.0
  0
VERTEX
  5
48AB
  8
0
 10
243.9214212653016887
 20
99.3175051687128843
 30
0.0
  0
SEQEND
  5
48AC
  8
0
  0
POLYLINE
  5
44FE
  8
0
 66
     1
 10
0.0
 20
0.0
 30
0.0
  0
VERTEX
  5
48AD
  8
0
 10
234.3657781814671921
 20
82.889270239026871
 30
0.0
  0
VERTEX
  5
48AE
  8
0
 10
234.462092496968296
 20
80.2874376022337657
 30
0.0
  0
VERTEX
  5
48AF
  8
0
 10
234.6555519394493956
 20
75.0613288070402831
 30
0.0
  0
VERTEX
  5
48B0
  8
0
 10
234.8498850762734946
 20
69.8116180535631088
 30
0.0
  0
VERTEX
  5
48B1
  8
0
 10
234.9472912125947914
 20
67.1802909949999929
 30
0.0
  0
SEQEND
  5
48B2
  8
0
  0
POLYLINE
  5
44FF
  8
0
 66
     1
 10
0.0
 20
0.0
 30
0.0
  0
VERTEX
  5
48B3
  8
0
 10
234.9472912125947914
 20
67.1802909949999929
 30
0.0
  0
VERTEX
  5
48B4
  8
0
 10
234.9473630004742972
 20
67.1578742601009822
 30
0.0
  0
VERTEX
  5
48B5
  8
0
 10
234.9479402217648953
 20
67.1128918631259808
 30
0.0
  0
VERTEX
  5
48B6
  8
0
 10
234.9491018559128861
 20
67.0677244600195195
 30
0.0
  0
VERTEX
  5
48B7
  8
0
 10
234.9499040391679046
 20
67.0450765018810557
 30
0.0
  0
VERTEX
  5
48B8
  8
0
 10
234.9508549144397875
 20
67.0223884524517075
 30
0.0
  0
VERTEX
  5
48B9
  8
0
 10
234.9532058891390989
 20
66.9769003550682669
 30
0.0
  0
VERTEX
  5
48BA
  8
0
 10
234.9561607493008069
 20
66.9312767619507554
 30
0.0
  0
VERTEX
  5
48BB
  8
0
 10
234.9597249410174129
 20
66.8855343133884048
 30
0.0
  0
VERTEX
  5
48BC
  8
0
 10
234.9639033885696051
 20
66.8396896628922264
 30
0.0
  0
VERTEX
  5
48BD
  8
0
 10
234.9687004978964069
 20
66.7937594443946523
 30
0.0
  0
VERTEX
  5
48BE
  8
0
 10
234.9713322871716912
 20
66.7707674318540398
 30
0.0
  0
VERTEX
  5
48BF
  8
0
 10
234.9741201621546054
 20
66.747760239581396
 30
0.0
  0
VERTEX
  5
48C0
  8
0
 10
234.9801657693986101
 20
66.7017085453212957
 30
0.0
  0
VERTEX
  5
48C1
  8
0
 10
234.9868402124018019
 20
66.6556207411611581
 30
0.0
  0
VERTEX
  5
48C2
  8
0
 10
234.9941459006589071
 20
66.6095130568708669
 30
0.0
  0
VERTEX
  5
48C3
  8
0
 10
235.0020847746077948
 20
66.5634015400303838
 30
0.0
  0
VERTEX
  5
48C4
  8
0
 10
235.0106583221206904
 20
66.5173020236649677
 30
0.0
  0
VERTEX
  5
48C5
  8
0
 10
235.0151834468533991
 20
66.4942616338670973
 30
0.0
  0
VERTEX
  5
48C6
  8
0
 10
235.0198676115018941
 20
66.4712300253567605
 30
0.0
  0
VERTEX
  5
48C7
  8
0
 10
235.0297132463128946
 20
66.4252010371911297
 30
0.0
  0
VERTEX
  5
48C8
  8
0
 10
235.0401952945368862
 20
66.3792308192624319
 30
0.0
  0
VERTEX
  5
48C9
  8
0
 10
235.0456748666219937
 20
66.3562726488384556
 30
0.0
  0
SEQEND
  5
48CA
  8
0
  0
POLYLINE
  5
4500
  8
0
 66
     1
 10
0.0
 20
0.0
 30
0.0
  0
VERTEX
  5
48CB
  8
0
 10
235.0456748666219937
 20
66.3562726488384556
 30
0.0
  0
VERTEX
  5
48CC
  8
0
 10
235.0575126198195903
 20
66.3088547713080629
 30
0.0
  0
VERTEX
  5
48CD
  8
0
 10
235.08322700234541
 20
66.2143344797679561
 30
0.0
  0
VERTEX
  5
48CE
  8
0
 10
235.1116072782949971
 20
66.1204737039284254
 30
0.0
  0
VERTEX
  5
48CF
  8
0
 10
235.1267774859566089
 20
66.0738604317890008
 30
0.0
  0
VERTEX
  5
48D0
  8
0
 10
235.1425845445131131
 20
66.0275057426935632
 30
0.0
  0
VERTEX
  5
48D1
  8
0
 10
235.1760474162138053
 20
65.9357171624616853
 30
0.0
  0
VERTEX
  5
48D2
  8
0
 10
235.2118554279973068
 20
65.8453920161459223
 30
0.0
  0
VERTEX
  5
48D3
  8
0
 10
235.2498434312076085
 20
65.7567996233006511
 30
0.0
  0
VERTEX
  5
48D4
  8
0
 10
235.289824893197391
 20
65.6701895275908214
 30
0.0
  0
VERTEX
  5
48D5
  8
0
 10
235.3315905802458019
 20
65.5857974799363888
 30
0.0
  0
VERTEX
  5
48D6
  8
0
 10
235.3530704460858942
 20
65.544504380522028
 30
0.0
  0
VERTEX
  5
48D7
  8
0
 10
235.3749071016183905
 20
65.5038495630912507
 30
0.0
  0
VERTEX
  5
48D8
  8
0
 10
235.4195197294077104
 20
65.4245575740051635
 30
0.0
  0
VERTEX
  5
48D9
  8
0
 10
235.4652302798440076
 20
65.3479939139124895
 30
0.0
  0
VERTEX
  5
48DA
  8
0
 10
235.5127930430462015
 20
65.2727479436074844
 30
0.0
  0
VERTEX
  5
48DB
  8
0
 10
235.5624278289078859
 20
65.1984829171423712
 30
0.0
  0
VERTEX
  5
48DC
  8
0
 10
235.6140628777397978
 20
65.1253415546063366
 30
0.0
  0
VERTEX
  5
48DD
  8
0
 10
235.6406058185251027
 20
65.0892345398282828
 30
0.0
  0
VERTEX
  5
48DE
  8
0
 10
235.6676183243980915
 20
65.0534579891850058
 30
0.0
  0
VERTEX
  5
48DF
  8
0
 10
235.723007704599695
 20
64.9829563896051354
 30
0.0
  0
VERTEX
  5
48E0
  8
0
 10
235.7801394250141129
 20
64.9139500360960824
 30
0.0
  0
VERTEX
  5
48E1
  8
0
 10
235.8093286645678006
 20
64.8800402271039616
 30
0.0
  0
VERTEX
  5
48E2
  8
0
 10
235.8389166185764054
 20
64.8465425129911068
 30
0.0
  0
VERTEX
  5
48E3
  8
0
 10
235.8992354657655142
 20
64.7808302407782435
 30
0.0
  0
VERTEX
  5
48E4
  8
0
 10
235.9609858306075978
 20
64.7169019580223335
 30
0.0
  0
VERTEX
  5
48E5
  8
0
 10
235.9923619722326862
 20
64.685632215764997
 30
0.0
  0
VERTEX
  5
48E6
  8
0
 10
236.024052414650896
 20
64.6548378221734197
 30
0.0
  0
VERTEX
  5
48E7
  8
0
 10
236.0883158752720021
 20
64.5947087863084448
 30
0.0
  0
VERTEX
  5
48E8
  8
0
 10
236.1536599108673897
 20
64.5365709924778344
 30
0.0
  0
VERTEX
  5
48E9
  8
0
 10
236.2199690637654044
 20
64.4804695110248645
 30
0.0
  0
VERTEX
  5
48EA
  8
0
 10
236.2871174424423941
 20
64.4264483555694483
 30
0.0
  0
VERTEX
  5
48EB
  8
0
 10
236.354973565021993
 20
64.37454566413777
 30
0.0
  0
VERTEX
  5
48EC
  8
0
 10
236.3891246367217889
 20
64.3493988483509725
 30
0.0
  0
VERTEX
  5
48ED
  8
0
 10
236.4234012598801939
 20
64.3247928844595549
 30
0.0
  0
VERTEX
  5
48EE
  8
0
 10
236.4922604935570973
 20
64.2772141982861029
 30
0.0
  0
VERTEX
  5
48EF
  8
0
 10
236.5614081304881893
 20
64.2318261400925508
 30
0.0
  0
VERTEX
  5
48F0
  8
0
 10
236.6306986297084052
 20
64.1886373740402973
 30
0.0
  0
VERTEX
  5
48F1
  8
0
 10
236.6999846858257115
 20
64.1476485990835386
 30
0.0
  0
VERTEX
  5
48F2
  8
0
 10
236.7691178231206948
 20
64.1088525575799508
 30
0.0
  0
VERTEX
  5
48F3
  8
0
 10
236.8035804662787882
 20
64.0902723894824362
 30
0.0
  0
VERTEX
  5
48F4
  8
0
 10
236.8379489529480111
 20
64.0722341275481426
 30
0.0
  0
VERTEX
  5
48F5
  8
0
 10
236.9067541554992999
 20
64.0375619936834823
 30
0.0
  0
VERTEX
  5
48F6
  8
0
 10
236.9769931817988891
 20
64.0040945746509919
 30
0.0
  0
VERTEX
  5
48F7
  8
0
 10
237.0486741996953981
 20
63.9718847783204296
 30
0.0
  0
VERTEX
  5
48F8
  8
0
 10
237.1216516564095116
 20
63.9410503791955804
 30
0.0
  0
VERTEX
  5
48F9
  8
0
 10
237.1957836071412942
 20
63.911693633211307
 30
0.0
  0
VERTEX
  5
48FA
  8
0
 10
237.2332397375110133
 20
63.8975971293088492
 30
0.0
  0
VERTEX
  5
48FB
  8
0
 10
237.2709341003049133
 20
63.8839014633510374
 30
0.0
  0
VERTEX
  5
48FC
  8
0
 10
237.3469748792894904
 20
63.857746192192792
 30
0.0
  0
VERTEX
  5
48FD
  8
0
 10
237.4237871408263061
 20
63.8332864513709524
 30
0.0
  0
VERTEX
  5
48FE
  8
0
 10
237.5012654060311093
 20
63.8105676868759133
 30
0.0
  0
VERTEX
  5
48FF
  8
0
 10
237.5793216448857947
 20
63.7896230918383296
 30
0.0
  0
VERTEX
  5
4900
  8
0
 10
237.6578700233719985
 20
63.7704795359884997
 30
0.0
  0
VERTEX
  5
4901
  8
0
 10
237.6972876878647014
 20
63.7615931854689393
 30
0.0
  0
VERTEX
  5
4902
  8
0
 10
237.7368031152342951
 20
63.7531629461070111
 30
0.0
  0
VERTEX
  5
4903
  8
0
 10
237.8161665080922091
 20
63.7376638575704533
 30
0.0
  0
VERTEX
  5
4904
  8
0
 10
237.8960764584028027
 20
63.7239689187517229
 30
0.0
  0
VERTEX
  5
4905
  8
0
 10
237.9767117251221862
 20
63.7120702774029084
 30
0.0
  0
VERTEX
  5
4906
  8
0
 10
238.058305133334386
 20
63.7019738975889709
 30
0.0
  0
VERTEX
  5
4907
  8
0
 10
238.1064528840965977
 20
63.6969263523266704
 30
0.0
  0
VERTEX
  5
4908
  8
0
 10
238.1202963938596895
 20
63.6955995612400372
 30
0.0
  0
VERTEX
  5
4909
  8
0
 10
238.134181999397299
 20
63.6943244689686523
 30
0.0
  0
VERTEX
  5
490A
  8
0
 10
238.141141219468409
 20
63.6937063937450034
 30
0.0
  0
VERTEX
  5
490B
  8
0
 10
238.1481117331364032
 20
63.6931013472936414
 30
0.0
  0
VERTEX
  5
490C
  8
0
 10
238.1620877215634948
 20
63.6919304963268402
 30
0.0
  0
VERTEX
  5
490D
  8
0
 10
238.1761121784466013
 20
63.6908122471870115
 30
0.0
  0
VERTEX
  5
490E
  8
0
 10
238.1831432962310089
 20
63.6902729609089988
 30
0.0
  0
VERTEX
  5
490F
  8
0
 10
238.1901873966041876
 20
63.6897469646512988
 30
0.0
  0
VERTEX
  5
4910
  8
0
 10
238.2043157382840946
 20
63.6887350497395914
 30
0.0
  0
VERTEX
  5
4911
  8
0
 10
238.2184996242548891
 20
63.687776942185728
 30
0.0
  0
VERTEX
  5
4912
  8
0
 10
238.225613165897812
 20
63.6873182147435912
 30
0.0
  0
VERTEX
  5
4913
  8
0
 10
238.2327415217644102
 20
63.6868731227487501
 30
0.0
  0
VERTEX
  5
4914
  8
0
 10
238.2470439315816009
 20
63.686024115317359
 30
0.0
  0
VERTEX
  5
4915
  8
0
 10
238.2614093743964077
 20
63.6852304887672105
 30
0.0
  0
VERTEX
  5
4916
  8
0
 10
238.275840376918012
 20
63.6844928585301702
 30
0.0
  0
VERTEX
  5
4917
  8
0
 10
238.2903394580737029
 20
63.6838118878476394
 30
0.0
  0
VERTEX
  5
4918
  8
0
 10
238.3049091157654118
 20
63.6831882886869423
 30
0.0
  0
VERTEX
  5
4919
  8
0
 10
238.3122211826309922
 20
63.6828982393882868
 30
0.0
  0
VERTEX
  5
491A
  8
0
 10
238.3195518146951883
 20
63.6826228223134834
 30
0.0
  0
VERTEX
  5
491B
  8
0
 10
238.3342699757963885
 20
63.6821162995291274
 30
0.0
  0
VERTEX
  5
491C
  8
0
 10
238.3490659678276984
 20
63.6816695806010671
 30
0.0
  0
VERTEX
  5
491D
  8
0
 10
238.3639421016760025
 20
63.6812835749294095
 30
0.0
  0
VERTEX
  5
491E
  8
0
 10
238.3789006278744012
 20
63.6809592405186891
 30
0.0
  0
VERTEX
  5
491F
  8
0
 10
238.3939437377786987
 20
63.6806975833405318
 30
0.0
  0
VERTEX
  5
4920
  8
0
 10
238.4014976814260081
 20
63.6805905860359829
 30
0.0
  0
VERTEX
  5
4921
  8
0
 10
238.4090735687441054
 20
63.6804996566916586
 30
0.0
  0
VERTEX
  5
4922
  8
0
 10
238.4242922135154004
 20
63.6803665606669824
 30
0.0
  0
VERTEX
  5
4923
  8
0
 10
238.4396017338935962
 20
63.6802994418791783
 30
0.0
  0
VERTEX
  5
4924
  8
0
 10
238.4472912125947914
 20
63.6802909950000071
 30
0.0
  0
VERTEX
  5
4925
  8
0
 10
238.454980691296214
 20
63.6802994418791783
 30
0.0
  0
VERTEX
  5
4926
  8
0
 10
238.4702902116744099
 20
63.6803665606669824
 30
0.0
  0
VERTEX
  5
4927
  8
0
 10
238.4855088564453922
 20
63.6804996566916586
 30
0.0
  0
VERTEX
  5
4928
  8
0
 10
238.4930847437636032
 20
63.6805905860359829
 30
0.0
  0
VERTEX
  5
4929
  8
0
 10
238.5006386874107989
 20
63.6806975833405318
 30
0.0
  0
VERTEX
  5
492A
  8
0
 10
238.5156817973154091
 20
63.6809592405186891
 30
0.0
  0
VERTEX
  5
492B
  8
0
 10
238.5306403235136088
 20
63.6812835749294095
 30
0.0
  0
VERTEX
  5
492C
  8
0
 10
238.5455164573617992
 20
63.6816695806010671
 30
0.0
  0
VERTEX
  5
492D
  8
0
 10
238.5603124493931944
 20
63.6821162995291274
 30
0.0
  0
VERTEX
  5
492E
  8
0
 10
238.5750306104943945
 20
63.6826228223134834
 30
0.0
  0
VERTEX
  5
492F
  8
0
 10
238.5823612425585907
 20
63.6828982393882868
 30
0.0
  0
VERTEX
  5
4930
  8
0
 10
238.5896733094240858
 20
63.6831882886869423
 30
0.0
  0
VERTEX
  5
4931
  8
0
 10
238.6042429671161074
 20
63.6838118878476394
 30
0.0
  0
VERTEX
  5
4932
  8
0
 10
238.618742048271514
 20
63.6844928585301702
 30
0.0
  0
VERTEX
  5
4933
  8
0
 10
238.6331730507934026
 20
63.6852304887672105
 30
0.0
  0
VERTEX
  5
4934
  8
0
 10
238.6475384936082094
 20
63.686024115317359
 30
0.0
  0
VERTEX
  5
4935
  8
0
 10
238.6618409034252011
 20
63.6868731227487501
 30
0.0
  0
VERTEX
  5
4936
  8
0
 10
238.6689692592917993
 20
63.6873182147435912
 30
0.0
  0
VERTEX
  5
4937
  8
0
 10
238.6760828009348927
 20
63.687776942185728
 30
0.0
  0
VERTEX
  5
4938
  8
0
 10
238.6902666869056873
 20
63.6887350497395914
 30
0.0
  0
VERTEX
  5
4939
  8
0
 10
238.7043950285855942
 20
63.6897469646512988
 30
0.0
  0
VERTEX
  5
493A
  8
0
 10
238.7114391289588013
 20
63.6902729609089988
 30
0.0
  0
VERTEX
  5
493B
  8
0
 10
238.71847024674301
 20
63.6908122471870115
 30
0.0
  0
VERTEX
  5
493C
  8
0
 10
238.732494703626088
 20
63.6919304963268402
 30
0.0
  0
VERTEX
  5
493D
  8
0
 10
238.7464706920534923
 20
63.6931013472936414
 30
0.0
  0
VERTEX
  5
493E
  8
0
 10
238.7534412057212023
 20
63.6937063937450034
 30
0.0
  0
VERTEX
  5
493F
  8
0
 10
238.7604004257923123
 20
63.6943244689686523
 30
0.0
  0
VERTEX
  5
4940
  8
0
 10
238.7742860313298934
 20
63.6955995612400372
 30
0.0
  0
VERTEX
  5
4941
  8
0
 10
238.7881295410930136
 20
63.6969263523266704
 30
0.0
  0
VERTEX
  5
4942
  8
0
 10
238.8362772918551116
 20
63.7019738975889709
 30
0.0
  0
VERTEX
  5
4943
  8
0
 10
238.9178707000673967
 20
63.7120702774029084
 30
0.0
  0
VERTEX
  5
4944
  8
0
 10
238.9985059667870075
 20
63.7239689187517229
 30
0.0
  0
VERTEX
  5
4945
  8
0
 10
239.0784159170972885
 20
63.7376638575704533
 30
0.0
  0
VERTEX
  5
4946
  8
0
 10
239.1577793099554867
 20
63.7531629461070111
 30
0.0
  0
VERTEX
  5
4947
  8
0
 10
239.1972947373249099
 20
63.7615931854689393
 30
0.0
  0
VERTEX
  5
4948
  8
0
 10
239.2367124018176128
 20
63.7704795359884997
 30
0.0
  0
VERTEX
  5
4949
  8
0
 10
239.3152607803037881
 20
63.7896230918383296
 30
0.0
  0
VERTEX
  5
494A
  8
0
 10
239.3933170191587863
 20
63.8105676868759133
 30
0.0
  0
VERTEX
  5
494B
  8
0
 10
239.4707952843631915
 20
63.8332864513709524
 30
0.0
  0
VERTEX
  5
494C
  8
0
 10
239.5476075459002914
 20
63.857746192192792
 30
0.0
  0
VERTEX
  5
494D
  8
0
 10
239.623648324884698
 20
63.8839014633510374
 30
0.0
  0
VERTEX
  5
494E
  8
0
 10
239.6613426876787969
 20
63.8975971293088492
 30
0.0
  0
VERTEX
  5
494F
  8
0
 10
239.6987988180482887
 20
63.911693633211307
 30
0.0
  0
VERTEX
  5
4950
  8
0
 10
239.7729307687802986
 20
63.9410503791955804
 30
0.0
  0
VERTEX
  5
4951
  8
0
 10
239.8459082254942132
 20
63.9718847783204296
 30
0.0
  0
VERTEX
  5
4952
  8
0
 10
239.9175892433906938
 20
64.0040945746509919
 30
0.0
  0
VERTEX
  5
4953
  8
0
 10
239.9878282696901977
 20
64.0375619936834823
 30
0.0
  0
VERTEX
  5
4954
  8
0
 10
240.0566334722416002
 20
64.0722341275481426
 30
0.0
  0
VERTEX
  5
4955
  8
0
 10
240.0910019589109083
 20
64.0902723894824362
 30
0.0
  0
VERTEX
  5
4956
  8
0
 10
240.1254646020688881
 20
64.1088525575799508
 30
0.0
  0
VERTEX
  5
4957
  8
0
 10
240.1945977393640987
 20
64.1476485990835386
 30
0.0
  0
VERTEX
  5
4958
  8
0
 10
240.2638837954814051
 20
64.1886373740401837
 30
0.0
  0
VERTEX
  5
4959
  8
0
 10
240.3331742947013936
 20
64.2318261400925508
 30
0.0
  0
VERTEX
  5
495A
  8
0
 10
240.4023219316327129
 20
64.2772141982861029
 30
0.0
  0
VERTEX
  5
495B
  8
0
 10
240.4711811653095879
 20
64.3247928844595549
 30
0.0
  0
VERTEX
  5
495C
  8
0
 10
240.505457788467794
 20
64.3493988483509725
 30
0.0
  0
VERTEX
  5
495D
  8
0
 10
240.5396088601675899
 20
64.37454566413777
 30
0.0
  0
VERTEX
  5
495E
  8
0
 10
240.6074649827471887
 20
64.4264483555694483
 30
0.0
  0
VERTEX
  5
495F
  8
0
 10
240.6746133614242069
 20
64.4804695110248645
 30
0.0
  0
VERTEX
  5
4960
  8
0
 10
240.7409225143223921
 20
64.5365709924778344
 30
0.0
  0
VERTEX
  5
4961
  8
0
 10
240.8062665499178934
 20
64.5947087863084448
 30
0.0
  0
VERTEX
  5
4962
  8
0
 10
240.8705300105386868
 20
64.6548378221734197
 30
0.0
  0
VERTEX
  5
4963
  8
0
 10
240.9022204529568967
 20
64.685632215764997
 30
0.0
  0
VERTEX
  5
4964
  8
0
 10
240.9335965945820135
 20
64.7169019580223335
 30
0.0
  0
VERTEX
  5
4965
  8
0
 10
240.9953469594240971
 20
64.7808302407782435
 30
0.0
  0
VERTEX
  5
4966
  8
0
 10
241.0556658066132059
 20
64.8465425129909931
 30
0.0
  0
VERTEX
  5
4967
  8
0
 10
241.0852537606220096
 20
64.8800402271039616
 30
0.0
  0
VERTEX
  5
4968
  8
0
 10
241.1144430001754984
 20
64.9139500360960824
 30
0.0
  0
VERTEX
  5
4969
  8
0
 10
241.1715747205898879
 20
64.9829563896051354
 30
0.0
  0
VERTEX
  5
496A
  8
0
 10
241.2269641007914913
 20
65.0534579891850058
 30
0.0
  0
VERTEX
  5
496B
  8
0
 10
241.2539766066645086
 20
65.0892345398282828
 30
0.0
  0
VERTEX
  5
496C
  8
0
 10
241.2805195474500124
 20
65.1253415546063366
 30
0.0
  0
VERTEX
  5
496D
  8
0
 10
241.3321545962820096
 20
65.1984829171423712
 30
0.0
  0
VERTEX
  5
496E
  8
0
 10
241.381789382143495
 20
65.2727479436074844
 30
0.0
  0
VERTEX
  5
496F
  8
0
 10
241.42935214534549
 20
65.3479939139124895
 30
0.0
  0
VERTEX
  5
4970
  8
0
 10
241.4750626957820998
 20
65.4245575740051635
 30
0.0
  0
VERTEX
  5
4971
  8
0
 10
241.5196753235711071
 20
65.5038495630912507
 30
0.0
  0
VERTEX
  5
4972
  8
0
 10
241.5415119791036886
 20
65.544504380522028
 30
0.0
  0
VERTEX
  5
4973
  8
0
 10
241.5629918449438094
 20
65.5857974799363888
 30
0.0
  0
VERTEX
  5
4974
  8
0
 10
241.6047575319921918
 20
65.6701895275908214
 30
0.0
  0
VERTEX
  5
4975
  8
0
 10
241.6447389939818891
 20
65.7567996233006511
 30
0.0
  0
VERTEX
  5
4976
  8
0
 10
241.6827269971923045
 20
65.8453920161459223
 30
0.0
  0
VERTEX
  5
4977
  8
0
 10
241.718535008975806
 20
65.9357171624615717
 30
0.0
  0
VERTEX
  5
4978
  8
0
 10
241.7519978806768108
 20
66.0275057426935632
 30
0.0
  0
VERTEX
  5
4979
  8
0
 10
241.7678049392330024
 20
66.0738604317890008
 30
0.0
  0
VERTEX
  5
497A
  8
0
 10
241.7829751468945858
 20
66.1204737039284254
 30
0.0
  0
VERTEX
  5
497B
  8
0
 10
241.8113554228440876
 20
66.2143344797679561
 30
0.0
  0
VERTEX
  5
497C
  8
0
 10
241.8370698053701915
 20
66.3088547713080629
 30
0.0
  0
VERTEX
  5
497D
  8
0
 10
241.8489075585675891
 20
66.3562726488384556
 30
0.0
  0
SEQEND
  5
497E
  8
0
  0
POLYLINE
  5
4501
  8
0
 66
     1
 10
0.0
 20
0.0
 30
0.0
  0
VERTEX
  5
497F
  8
0
 10
241.8489075585675891
 20
66.3562726488384556
 30
0.0
  0
VERTEX
  5
4980
  8
0
 10
241.8543870882870124
 20
66.3792306390706131
 30
0.0
  0
VERTEX
  5
4981
  8
0
 10
241.8648690612473899
 20
66.425200504794077
 30
0.0
  0
VERTEX
  5
4982
  8
0
 10
241.874714633869587
 20
66.4712291561616553
 30
0.0
  0
VERTEX
  5
4983
  8
0
 10
241.8793987724336034
 20
66.4942606037656532
 30
0.0
  0
VERTEX
  5
4984
  8
0
 10
241.8839238745063085
 20
66.5173008389019174
 30
0.0
  0
VERTEX
  5
4985
  8
0
 10
241.892497387001896
 20
66.563400067989221
 30
0.0
  0
VERTEX
  5
4986
  8
0
 10
241.9004362390973881
 20
66.6095113300330439
 30
0.0
  0
VERTEX
  5
4987
  8
0
 10
241.9077419180084974
 20
66.6556187969535472
 30
0.0
  0
VERTEX
  5
4988
  8
0
 10
241.9144163632911102
 20
66.7017064262881263
 30
0.0
  0
VERTEX
  5
4989
  8
0
 10
241.9204619833234915
 20
66.7477579935364815
 30
0.0
  0
VERTEX
  5
498A
  8
0
 10
241.9232498682258949
 20
66.7707651419166837
 30
0.0
  0
VERTEX
  5
498B
  8
0
 10
241.9258816695179917
 20
66.793757124553224
 30
0.0
  0
VERTEX
  5
498C
  8
0
 10
241.9306788083146955
 20
66.8396873279850183
 30
0.0
  0
VERTEX
  5
498D
  8
0
 10
241.9348572909981954
 20
66.885532027756355
 30
0.0
  0
VERTEX
  5
498E
  8
0
 10
241.9384215213688094
 20
66.931274595622483
 30
0.0
  0
VERTEX
  5
498F
  8
0
 10
241.9413764213036018
 20
66.9768983838196732
 30
0.0
  0
VERTEX
  5
4990
  8
0
 10
241.9437274342197099
 20
67.0223867578488921
 30
0.0
  0
VERTEX
  5
4991
  8
0
 10
241.9446783271060042
 20
67.0450749780054025
 30
0.0
  0
VERTEX
  5
4992
  8
0
 10
241.9454805264606136
 20
67.0677231294446869
 30
0.0
  0
VERTEX
  5
4993
  8
0
 10
241.9466421866038957
 20
67.1128909897867629
 30
0.0
  0
VERTEX
  5
4994
  8
0
 10
241.9472194226844124
 20
67.1578739430232758
 30
0.0
  0
VERTEX
  5
4995
  8
0
 10
241.9472912125947914
 20
67.1802909949999929
 30
0.0
  0
SEQEND
  5
4996
  8
0
  0
POLYLINE
  5
4502
  8
0
 66
     1
 10
0.0
 20
0.0
 30
0.0
  0
VERTEX
  5
4997
  8
0
 10
241.9472912125947914
 20
67.1802909949999929
 30
0.0
  0
VERTEX
  5
4998
  8
0
 10
242.0446973489160882
 20
69.8116180535631088
 30
0.0
  0
VERTEX
  5
4999
  8
0
 10
242.2390304857403862
 20
75.0613288070402831
 30
0.0
  0
VERTEX
  5
499A
  8
0
 10
242.4324899282212016
 20
80.2874376022337657
 30
0.0
  0
VERTEX
  5
499B
  8
0
 10
242.5288042437223055
 20
82.889270239026871
 30
0.0
  0
SEQEND
  5
499C
  8
0
  0
POLYLINE
  5
4503
  8
0
 66
     1
 10
0.0
 20
0.0
 30
0.0
  0
VERTEX
  5
499D
  8
0
 10
242.5288042437223055
 20
82.889270239026871
 30
0.0
  0
VERTEX
  5
499E
  8
0
 10
242.5321956892142055
 20
83.0566701074732805
 30
0.0
  0
VERTEX
  5
499F
  8
0
 10
242.5221025275805005
 20
83.3922542711997465
 30
0.0
  0
VERTEX
  5
49A0
  8
0
 10
242.4886834341286885
 20
83.7326666782510642
 30
0.0
  0
VERTEX
  5
49A1
  8
0
 10
242.4629500600082963
 20
83.9036697950913748
 30
0.0
  0
SEQEND
  5
49A2
  8
0
  0
POLYLINE
  5
4504
  8
0
 66
     1
 10
0.0
 20
0.0
 30
0.0
  0
VERTEX
  5
49A3
  8
0
 10
232.8865022190765899
 20
107.9320701249133947
 30
0.0
  0
VERTEX
  5
49A4
  8
0
 10
232.7390927290163916
 20
107.7320153281787043
 30
0.0
  0
VERTEX
  5
49A5
  8
0
 10
232.4646455577191944
 20
107.3145654711777013
 30
0.0
  0
VERTEX
  5
49A6
  8
0
 10
232.3163390965862902
 20
107.0583712414137949
 30
0.0
  0
VERTEX
  5
49A7
  8
0
 10
232.275728426238004
 20
106.9835943074518951
 30
0.0
  0
VERTEX
  5
49A8
  8
0
 10
232.2359364473516052
 20
106.908149724915404
 30
0.0
  0
VERTEX
  5
49A9
  8
0
 10
232.2163531478354059
 20
106.8701829732859068
 30
0.0
  0
VERTEX
  5
49AA
  8
0
 10
232.1969812461630056
 20
106.8320564246479023
 30
0.0
  0
VERTEX
  5
49AB
  8
0
 10
232.1588801726599911
 20
106.7553335301246022
 30
0.0
  0
VERTEX
  5
49AC
  8
0
 10
232.1216498346655044
 20
106.6780003134341968
 30
0.0
  0
VERTEX
  5
49AD
  8
0
 10
232.1033661775240944
 20
106.6391108863420953
 30
0.0
  0
VERTEX
  5
49AE
  8
0
 10
232.0853060962101893
 20
106.6000761547162057
 30
0.0
  0
VERTEX
  5
49AF
  8
0
 10
232.0498641384442919
 20
106.5215806372089986
 30
0.0
  0
VERTEX
  5
49B0
  8
0
 10
232.0153385665973929
 20
106.4425337721011005
 30
0.0
  0
VERTEX
  5
49B1
  8
0
 10
231.9984238326190109
 20
106.4028099601284936
 30
0.0
  0
VERTEX
  5
49B2
  8
0
 10
231.981743409735401
 20
106.3629560148895052
 30
0.0
  0
VERTEX
  5
49B3
  8
0
 10
231.9490920980709063
 20
106.2828682307415988
 30
0.0
  0
VERTEX
  5
49B4
  8
0
 10
231.9173974425370943
 20
106.2022916595045956
 30
0.0
  0
VERTEX
  5
49B5
  8
0
 10
231.8866716165709931
 20
106.1212478803766999
 30
0.0
  0
VERTEX
  5
49B6
  8
0
 10
231.8569261400375865
 20
106.0397587761778055
 30
0.0
  0
VERTEX
  5
49B7
  8
0
 10
231.8281718652361008
 20
105.957846497160304
 30
0.0
  0
VERTEX
  5
49B8
  8
0
 10
231.8141696343070066
 20
105.9167386531515973
 30
0.0
  0
VERTEX
  5
49B9
  8
0
 10
231.8004189649421107
 20
105.8755334242964068
 30
0.0
  0
VERTEX
  5
49BA
  8
0
 10
231.7736769224466116
 20
105.7928421319737993
 30
0.0
  0
VERTEX
  5
49BB
  8
0
 10
231.7479545235719058
 20
105.7097953500363019
 30
0.0
  0
VERTEX
  5
49BC
  8
0
 10
231.7232598506477927
 20
105.6264159250988968
 30
0.0
  0
VERTEX
  5
49BD
  8
0
 10
231.6996002784485995
 20
105.5427267810715932
 30
0.0
  0
VERTEX
  5
49BE
  8
0
 10
231.6769824720988993
 20
105.4587508788224
 30
0.0
  0
VERTEX
  5
49BF
  8
0
 10
231.6660661173918925
 20
105.4166625589773929
 30
0.0
  0
VERTEX
  5
49C0
  8
0
 10
231.6554119017318953
 20
105.3745092296651933
 30
0.0
  0
VERTEX
  5
49C1
  8
0
 10
231.6348915240203041
 20
105.290014723815105
 30
0.0
  0
VERTEX
  5
49C2
  8
0
 10
231.6154261137664889
 20
105.2052891167732014
 30
0.0
  0
VERTEX
  5
49C3
  8
0
 10
231.5970202000956135
 20
105.1203559432967012
 30
0.0
  0
VERTEX
  5
49C4
  8
0
 10
231.5796776698958013
 20
105.0352390486667957
 30
0.0
  0
VERTEX
  5
49C5
  8
0
 10
231.5634017496732042
 20
104.9499625518513994
 30
0.0
  0
VERTEX
  5
49C6
  8
0
 10
231.555664592043712
 20
104.9072720555348042
 30
0.0
  0
VERTEX
  5
49C7
  8
0
 10
231.5481949896004892
 20
104.8645508084975972
 30
0.0
  0
VERTEX
  5
49C8
  8
0
 10
231.5340592497109071
 20
104.7790283737031984
 30
0.0
  0
VERTEX
  5
49C9
  8
0
 10
231.520995688208103
 20
104.6934199645105963
 30
0.0
  0
VERTEX
  5
49CA
  8
0
 10
231.4837165762110089
 20
104.3934727975653942
 30
0.0
  0
VERTEX
  5
49CB
  8
0
 10
231.4501581701244959
 20
103.8806136995825966
 30
0.0
  0
VERTEX
  5
49CC
  8
0
 10
231.4475000577571961
 20
103.6262189258845012
 30
0.0
  0
VERTEX
  5
49CD
  8
0
 10
231.4539912761377138
 20
103.3740949813952028
 30
0.0
  0
VERTEX
  5
49CE
  8
0
 10
231.4932543043923943
 20
102.879434778592497
 30
0.0
  0
VERTEX
  5
49CF
  8
0
 10
231.5675464918396926
 20
102.3883495964674069
 30
0.0
  0
VERTEX
  5
49D0
  8
0
 10
231.6282855985936919
 20
102.0987846130268935
 30
0.0
  0
VERTEX
  5
49D1
  8
0
 10
231.6480501359930884
 20
102.0158629303925011
 30
0.0
  0
VERTEX
  5
49D2
  8
0
 10
231.6688945259568015
 20
101.9329105674532059
 30
0.0
  0
VERTEX
  5
49D3
  8
0
 10
231.6797227457662132
 20
101.8914318482844976
 30
0.0
  0
VERTEX
  5
49D4
  8
0
 10
231.6908221289029086
 20
101.8499561837935943
 30
0.0
  0
VERTEX
  5
49D5
  8
0
 10
231.7138355445378863
 20
101.7670281363442939
 30
0.0
  0
VERTEX
  5
49D6
  8
0
 10
231.7379366362619919
 20
101.6841544342803019
 30
0.0
  0
VERTEX
  5
49D7
  8
0
 10
231.7631265583837035
 20
101.601362695275995
 30
0.0
  0
VERTEX
  5
49D8
  8
0
 10
231.7894057508142964
 20
101.5186802118545017
 30
0.0
  0
VERTEX
  5
49D9
  8
0
 10
231.8167738560094051
 20
101.4361342304178066
 30
0.0
  0
VERTEX
  5
49DA
  8
0
 10
231.8308659134081893
 20
101.3949209461275984
 30
0.0
  0
VERTEX
  5
49DB
  8
0
 10
231.8452296911029862
 20
101.3537520061933037
 30
0.0
  0
VERTEX
  5
49DC
  8
0
 10
231.8747712515674095
 20
101.2715607564933009
 30
0.0
  0
VERTEX
  5
49DD
  8
0
 10
231.9053957177004861
 20
101.1895876136478023
 30
0.0
  0
VERTEX
  5
49DE
  8
0
 10
231.9370994636014984
 20
101.1078595787442964
 30
0.0
  0
VERTEX
  5
49DF
  8
0
 10
231.9698780686750865
 20
101.0264034760993042
 30
0.0
  0
VERTEX
  5
49E0
  8
0
 10
232.0037263317072131
 20
100.9452459083895945
 30
0.0
  0
VERTEX
  5
49E1
  8
0
 10
232.0210497501846021
 20
100.9047873169623983
 30
0.0
  0
VERTEX
  5
49E2
  8
0
 10
232.038638287573292
 20
100.864413212386907
 30
0.0
  0
VERTEX
  5
49E3
  8
0
 10
232.0746072266474869
 20
100.7839314152432024
 30
0.0
  0
VERTEX
  5
49E4
  8
0
 10
232.1116257169857988
 20
100.7038261912858985
 30
0.0
  0
VERTEX
  5
49E5
  8
0
 10
232.1305260299918984
 20
100.6639227104807048
 30
0.0
  0
VERTEX
  5
49E6
  8
0
 10
232.149685629374801
 20
100.6241228192945982
 30
0.0
  0
VERTEX
  5
49E7
  8
0
 10
232.1887781653331047
 20
100.5448461402375955
 30
0.0
  0
VERTEX
  5
49E8
  8
0
 10
232.2288938881740989
 20
100.4660205154606984
 30
0.0
  0
VERTEX
  5
49E9
  8
0
 10
232.2493324370969106
 20
100.4267841151506957
 30
0.0
  0
VERTEX
  5
49EA
  8
0
 10
232.2700244500906877
 20
100.3876666093674999
 30
0.0
  0
VERTEX
  5
49EB
  8
0
 10
232.3121648547981124
 20
100.3097977708759032
 30
0.0
  0
VERTEX
  5
49EC
  8
0
 10
232.3553045465937998
 20
100.2324368128649041
 30
0.0
  0
VERTEX
  5
49ED
  8
0
 10
232.3994317498859061
 20
100.1556071908377987
 30
0.0
  0
VERTEX
  5
49EE
  8
0
 10
232.4445338829150103
 20
100.079332172550906
 30
0.0
  0
VERTEX
  5
49EF
  8
0
 10
232.4905975711641872
 20
100.0036347883171004
 30
0.0
  0
VERTEX
  5
49F0
  8
0
 10
232.5139856060600039
 20
99.9660098290862038
 30
0.0
  0
VERTEX
  5
49F1
  8
0
 10
232.537608663295714
 20
99.9285377826326453
 30
0.0
  0
VERTEX
  5
49F2
  8
0
 10
232.5855522496383117
 20
99.8540635670811412
 30
0.0
  0
VERTEX
  5
49F3
  8
0
 10
232.6344126832734958
 20
99.780234174470877
 30
0.0
  0
VERTEX
  5
49F4
  8
0
 10
232.6841736037663964
 20
99.7070712141658646
 30
0.0
  0
VERTEX
  5
49F5
  8
0
 10
232.7348179636094017
 20
99.6345958285759821
 30
0.0
  0
VERTEX
  5
49F6
  8
0
 10
232.7863280574512999
 20
99.5628286507752023
 30
0.0
  0
VERTEX
  5
49F7
  8
0
 10
232.8124020496595961
 20
99.5272169381796061
 30
0.0
  0
VERTEX
  5
49F8
  8
0
 10
232.8386855541963882
 20
99.4917897632249861
 30
0.0
  0
VERTEX
  5
49F9
  8
0
 10
232.8918715320698993
 20
99.4214986575836548
 30
0.0
  0
VERTEX
  5
49FA
  8
0
 10
232.9458665167582865
 20
99.3519741955918221
 30
0.0
  0
VERTEX
  5
49FB
  8
0
 10
232.9731611598878942
 20
99.3175051687128843
 30
0.0
  0
SEQEND
  5
49FC
  8
0
  0
POLYLINE
  5
4505
  8
0
 66
     1
 10
0.0
 20
0.0
 30
0.0
  0
VERTEX
  5
49FD
  8
0
 10
243.9214212653016887
 20
99.3175051687128843
 30
0.0
  0
VERTEX
  5
49FE
  8
0
 10
243.9487159084335985
 20
99.3519741955944369
 30
0.0
  0
VERTEX
  5
49FF
  8
0
 10
244.0027108931217015
 20
99.4214986575862554
 30
0.0
  0
VERTEX
  5
4A00
  8
0
 10
244.0558968709952126
 20
99.4917897632275867
 30
0.0
  0
VERTEX
  5
4A01
  8
0
 10
244.08218037553209
 20
99.5272169381822209
 30
0.0
  0
VERTEX
  5
4A02
  8
0
 10
244.108254367740102
 20
99.5628286507778171
 30
0.0
  0
VERTEX
  5
4A03
  8
0
 10
244.1597644615820002
 20
99.6345958285785969
 30
0.0
  0
VERTEX
  5
4A04
  8
0
 10
244.2104088214250908
 20
99.7070712141684936
 30
0.0
  0
VERTEX
  5
4A05
  8
0
 10
244.2601697419179061
 20
99.7802341744734917
 30
0.0
  0
VERTEX
  5
4A06
  8
0
 10
244.3090301755530049
 20
99.854063567083756
 30
0.0
  0
VERTEX
  5
4A07
  8
0
 10
244.3569737618956879
 20
99.9285377826352601
 30
0.0
  0
VERTEX
  5
4A08
  8
0
 10
244.380596819131398
 20
99.9660098290888186
 30
0.0
  0
VERTEX
  5
4A09
  8
0
 10
244.4039848540271009
 20
100.0036347883196015
 30
0.0
  0
VERTEX
  5
4A0A
  8
0
 10
244.4500485422763916
 20
100.0793321725535066
 30
0.0
  0
VERTEX
  5
4A0B
  8
0
 10
244.4951506753052115
 20
100.1556071908403993
 30
0.0
  0
VERTEX
  5
4A0C
  8
0
 10
244.5392778785972041
 20
100.2324368128675047
 30
0.0
  0
VERTEX
  5
4A0D
  8
0
 10
244.5824175703930905
 20
100.3097977708785038
 30
0.0
  0
VERTEX
  5
4A0E
  8
0
 10
244.6245579751002879
 20
100.3876666093701004
 30
0.0
  0
VERTEX
  5
4A0F
  8
0
 10
244.6452499880942923
 20
100.4267841151532963
 30
0.0
  0
VERTEX
  5
4A10
  8
0
 10
244.665688537016905
 20
100.466020515463299
 30
0.0
  0
VERTEX
  5
4A11
  8
0
 10
244.705804259857814
 20
100.5448461402400966
 30
0.0
  0
VERTEX
  5
4A12
  8
0
 10
244.7448967958162029
 20
100.6241228192970993
 30
0.0
  0
VERTEX
  5
4A13
  8
0
 10
244.7640563951991055
 20
100.6639227104832059
 30
0.0
  0
VERTEX
  5
4A14
  8
0
 10
244.7829567082050914
 20
100.7038261912883996
 30
0.0
  0
VERTEX
  5
4A15
  8
0
 10
244.8199751985434887
 20
100.7839314152456041
 30
0.0
  0
VERTEX
  5
4A16
  8
0
 10
244.8559441376173993
 20
100.8644132123892945
 30
0.0
  0
VERTEX
  5
4A17
  8
0
 10
244.8735326750060892
 20
100.9047873169648994
 30
0.0
  0
VERTEX
  5
4A18
  8
0
 10
244.8908560934835066
 20
100.9452459083919962
 30
0.0
  0
VERTEX
  5
4A19
  8
0
 10
244.9247043565156048
 20
101.0264034761017058
 30
0.0
  0
VERTEX
  5
4A1A
  8
0
 10
244.9574829615891929
 20
101.107859578746698
 30
0.0
  0
VERTEX
  5
4A1B
  8
0
 10
244.9891867074902905
 20
101.1895876136502039
 30
0.0
  0
VERTEX
  5
4A1C
  8
0
 10
245.0198111736231112
 20
101.2715607564957025
 30
0.0
  0
VERTEX
  5
4A1D
  8
0
 10
245.0493527340875062
 20
101.3537520061957053
 30
0.0
  0
VERTEX
  5
4A1E
  8
0
 10
245.0637165117823031
 20
101.3949209461300001
 30
0.0
  0
VERTEX
  5
4A1F
  8
0
 10
245.0778085691810873
 20
101.4361342304201941
 30
0.0
  0
VERTEX
  5
4A20
  8
0
 10
245.105176674375997
 20
101.5186802118567044
 30
0.0
  0
VERTEX
  5
4A21
  8
0
 10
245.1314558668069026
 20
101.6013626952782971
 30
0.0
  0
VERTEX
  5
4A22
  8
0
 10
245.1566457889283015
 20
101.6841544342824051
 30
0.0
  0
VERTEX
  5
4A23
  8
0
 10
245.1807468806522934
 20
101.7670281363465961
 30
0.0
  0
VERTEX
  5
4A24
  8
0
 10
245.2037602962872995
 20
101.8499561837956975
 30
0.0
  0
VERTEX
  5
4A25
  8
0
 10
245.2148596794241087
 20
101.8914318482867003
 30
0.0
  0
VERTEX
  5
4A26
  8
0
 10
245.2256878992334066
 20
101.9329105674553944
 30
0.0
  0
VERTEX
  5
4A27
  8
0
 10
245.2465322891968924
 20
102.0158629303947038
 30
0.0
  0
VERTEX
  5
4A28
  8
0
 10
245.2662968265962888
 20
102.0987846130288972
 30
0.0
  0
VERTEX
  5
4A29
  8
0
 10
245.3270359333502881
 20
102.3883495964692969
 30
0.0
  0
VERTEX
  5
4A2A
  8
0
 10
245.4013281207973876
 20
102.8794347785942023
 30
0.0
  0
VERTEX
  5
4A2B
  8
0
 10
245.4405911490520964
 20
103.3740949813968939
 30
0.0
  0
VERTEX
  5
4A2C
  8
0
 10
245.4470823674323867
 20
103.6262189258861071
 30
0.0
  0
VERTEX
  5
4A2D
  8
0
 10
245.444424255065087
 20
103.8806136995842024
 30
0.0
  0
VERTEX
  5
4A2E
  8
0
 10
245.4294779152810122
 20
104.1793589751707998
 30
0.0
  0
VERTEX
  5
4A2F
  8
0
 10
245.4228314953718098
 20
104.2649599298299989
 30
0.0
  0
VERTEX
  5
4A30
  8
0
 10
245.4151210787680952
 20
104.3506244613158032
 30
0.0
  0
VERTEX
  5
4A31
  8
0
 10
245.4108658489786023
 20
104.3934727975667016
 30
0.0
  0
VERTEX
  5
4A32
  8
0
 10
245.4063434837104865
 20
104.4363276924416937
 30
0.0
  0
VERTEX
  5
4A33
  8
0
 10
245.3964962566992938
 20
104.5220446733366941
 30
0.0
  0
VERTEX
  5
4A34
  8
0
 10
245.3855776733252867
 20
104.6077504220608034
 30
0.0
  0
VERTEX
  5
4A35
  8
0
 10
245.3735867369811956
 20
104.6934199645118042
 30
0.0
  0
VERTEX
  5
4A36
  8
0
 10
245.3605231754785905
 20
104.7790283737045058
 30
0.0
  0
VERTEX
  5
4A37
  8
0
 10
245.3463874355888947
 20
104.8645508084988052
 30
0.0
  0
VERTEX
  5
4A38
  8
0
 10
245.338917833145814
 20
104.9072720555359979
 30
0.0
  0
VERTEX
  5
4A39
  8
0
 10
245.3311806755162081
 20
104.9499625518525932
 30
0.0
  0
VERTEX
  5
4A3A
  8
0
 10
245.31490475529381
 20
105.0352390486679042
 30
0.0
  0
VERTEX
  5
4A3B
  8
0
 10
245.2975622250937988
 20
105.1203559432977954
 30
0.0
  0
VERTEX
  5
4A3C
  8
0
 10
245.2791563114228097
 20
105.2052891167742956
 30
0.0
  0
VERTEX
  5
4A3D
  8
0
 10
245.2596909011691082
 20
105.2900147238160997
 30
0.0
  0
VERTEX
  5
4A3E
  8
0
 10
245.2391705234574886
 20
105.3745092296661028
 30
0.0
  0
VERTEX
  5
4A3F
  8
0
 10
245.2285163077974062
 20
105.4166625589784019
 30
0.0
  0
VERTEX
  5
4A40
  8
0
 10
245.2175999530905131
 20
105.4587508788232952
 30
0.0
  0
VERTEX
  5
4A41
  8
0
 10
245.1949821467408128
 20
105.5427267810725027
 30
0.0
  0
VERTEX
  5
4A42
  8
0
 10
245.1713225745415912
 20
105.6264159250998063
 30
0.0
  0
VERTEX
  5
4A43
  8
0
 10
245.1466279016173928
 20
105.7097953500370977
 30
0.0
  0
VERTEX
  5
4A44
  8
0
 10
245.1209055027426871
 20
105.7928421319745951
 30
0.0
  0
VERTEX
  5
4A45
  8
0
 10
245.0941634602473016
 20
105.8755334242972026
 30
0.0
  0
VERTEX
  5
4A46
  8
0
 10
245.080412790882491
 20
105.9167386531523931
 30
0.0
  0
VERTEX
  5
4A47
  8
0
 10
245.0664105599533116
 20
105.9578464971610998
 30
0.0
  0
VERTEX
  5
4A48
  8
0
 10
245.0376562851519964
 20
106.0397587761785019
 30
0.0
  0
VERTEX
  5
4A49
  8
0
 10
245.0079108086183908
 20
106.1212478803773962
 30
0.0
  0
VERTEX
  5
4A4A
  8
0
 10
244.9771849826522896
 20
106.2022916595053061
 30
0.0
  0
VERTEX
  5
4A4B
  8
0
 10
244.945490327118506
 20
106.2828682307421957
 30
0.0
  0
VERTEX
  5
4A4C
  8
0
 10
244.9128390154540114
 20
106.3629560148901021
 30
0.0
  0
VERTEX
  5
4A4D
  8
0
 10
244.8961585925704014
 20
106.4028099601291046
 30
0.0
  0
VERTEX
  5
4A4E
  8
0
 10
244.8792438585919911
 20
106.4425337721016973
 30
0.0
  0
VERTEX
  5
4A4F
  8
0
 10
244.8447182867452909
 20
106.5215806372095955
 30
0.0
  0
VERTEX
  5
4A50
  8
0
 10
244.8092763289793936
 20
106.6000761547167031
 30
0.0
  0
VERTEX
  5
4A51
  8
0
 10
244.7912162476652895
 20
106.6391108863427064
 30
0.0
  0
VERTEX
  5
4A52
  8
0
 10
244.6782292773538927
 20
106.8701829732864041
 30
0.0
  0
VERTEX
  5
4A53
  8
0
 10
244.4299368674703885
 20
107.3145654711779002
 30
0.0
  0
VERTEX
  5
4A54
  8
0
 10
244.1554896961731913
 20
107.7320153281789032
 30
0.0
  0
VERTEX
  5
4A55
  8
0
 10
244.0080802061129077
 20
107.9320701249133947
 30
0.0
  0
SEQEND
  5
4A56
  8
0
  0
POLYLINE
  5
4506
  8
0
 66
     1
 10
0.0
 20
0.0
 30
0.0
  0
VERTEX
  5
4A57
  8
0
 10
234.4316323651812013
 20
83.9036697950913748
 30
0.0
  0
VERTEX
  5
4A58
  8
0
 10
234.4058989910610933
 20
83.7326666782510642
 30
0.0
  0
VERTEX
  5
4A59
  8
0
 10
234.3724798976093098
 20
83.3922542711997465
 30
0.0
  0
VERTEX
  5
4A5A
  8
0
 10
234.3623867359756048
 20
83.0566701074732805
 30
0.0
  0
VERTEX
  5
4A5B
  8
0
 10
234.3657781814671921
 20
82.889270239026871
 30
0.0
  0
SEQEND
  5
4A5C
  8
0
  0
POLYLINE
  5
4507
  8
0
 66
     1
 10
0.0
 20
0.0
 30
0.0
  0
VERTEX
  5
4A5D
  8
0
 10
232.9731611598878942
 20
99.3175051687128843
 30
0.0
  0
VERTEX
  5
4A5E
  8
0
 10
233.1210583548433988
 20
98.9099515867600871
 30
0.0
  0
VERTEX
  5
4A5F
  8
0
 10
233.3977166479076004
 20
98.0929565952831553
 30
0.0
  0
VERTEX
  5
4A60
  8
0
 10
233.6488032530172063
 20
97.2751051195302239
 30
0.0
  0
VERTEX
  5
4A61
  8
0
 10
233.7647683173481994
 20
96.8664989747656477
 30
0.0
  0
VERTEX
  5
4A62
  8
0
 10
233.8743720408033084
 20
96.4584555876072614
 30
0.0
  0
VERTEX
  5
4A63
  8
0
 10
234.0746248729579122
 20
95.645124112365977
 30
0.0
  0
VERTEX
  5
4A64
  8
0
 10
234.2500240174861119
 20
94.8367415827385116
 30
0.0
  0
VERTEX
  5
4A65
  8
0
 10
234.4040726852518048
 20
94.0180598665634051
 30
0.0
  0
VERTEX
  5
4A66
  8
0
 10
234.5371925873261887
 20
93.1825876326959701
 30
0.0
  0
VERTEX
  5
4A67
  8
0
 10
234.6480247029043937
 20
92.3322880169485387
 30
0.0
  0
VERTEX
  5
4A68
  8
0
 10
234.6947039321925956
 20
91.902203294519893
 30
0.0
  0
VERTEX
  5
4A69
  8
0
 10
234.7353779658261033
 20
91.4691653124061048
 30
0.0
  0
VERTEX
  5
4A6A
  8
0
 10
234.798233503179091
 20
90.5952416957762239
 30
0.0
  0
VERTEX
  5
4A6B
  8
0
 10
234.8357450301012079
 20
89.712539536775509
 30
0.0
  0
VERTEX
  5
4A6C
  8
0
 10
234.8472367196625044
 20
88.8231108151910007
 30
0.0
  0
VERTEX
  5
4A6D
  8
0
 10
234.8322064475464117
 20
87.929050566522676
 30
0.0
  0
VERTEX
  5
4A6E
  8
0
 10
234.7903299494876137
 20
87.0324730383447758
 30
0.0
  0
VERTEX
  5
4A6F
  8
0
 10
234.7592718690588924
 20
86.5838996504512011
 30
0.0
  0
VERTEX
  5
4A70
  8
0
 10
234.7214609154310097
 20
86.1354805159050443
 30
0.0
  0
VERTEX
  5
4A71
  8
0
 10
234.6256016023930897
 20
85.2399297040254282
 30
0.0
  0
VERTEX
  5
4A72
  8
0
 10
234.5029229059477984
 20
84.3477962218980224
 30
0.0
  0
VERTEX
  5
4A73
  8
0
 10
234.4316323651812013
 20
83.9036697950913748
 30
0.0
  0
SEQEND
  5
4A74
  8
0
  0
POLYLINE
  5
4508
  8
0
 66
     1
 10
0.0
 20
0.0
 30
0.0
  0
VERTEX
  5
4A75
  8
0
 10
235.8743745796664086
 20
110.190290994999998
 30
0.0
  0
VERTEX
  5
4A76
  8
0
 10
235.8741701617136926
 20
110.1902102001448043
 30
0.0
  0
VERTEX
  5
4A77
  8
0
 10
235.8725597567940895
 20
110.1895734385961987
 30
0.0
  0
VERTEX
  5
4A78
  8
0
 10
235.8694018195587887
 20
110.1883234378563969
 30
0.0
  0
VERTEX
  5
4A79
  8
0
 10
235.8672625456649996
 20
110.1874756456627011
 30
0.0
  0
VERTEX
  5
4A7A
  8
0
 10
235.8647601501783981
 20
110.1864829159054011
 30
0.0
  0
VERTEX
  5
4A7B
  8
0
 10
235.8586963929988087
 20
110.1840727302645035
 30
0.0
  0
VERTEX
  5
4A7C
  8
0
 10
235.8512698828135115
 20
110.1811119627948017
 30
0.0
  0
VERTEX
  5
4A7D
  8
0
 10
235.8425376109150875
 20
110.177618035755799
 30
0.0
  0
VERTEX
  5
4A7E
  8
0
 10
235.8325542913534889
 20
110.1736068530726982
 30
0.0
  0
VERTEX
  5
4A7F
  8
0
 10
235.821372500666314
 20
110.1690929582551064
 30
0.0
  0
VERTEX
  5
4A80
  8
0
 10
235.8153480471112005
 20
110.166651698326902
 30
0.0
  0
VERTEX
  5
4A81
  8
0
 10
235.8090427309703045
 20
110.1640896461924939
 30
0.0
  0
VERTEX
  5
4A82
  8
0
 10
235.7956131154624018
 20
110.1586089301733011
 30
0.0
  0
VERTEX
  5
4A83
  8
0
 10
235.7811293543821023
 20
110.1526615766193942
 30
0.0
  0
VERTEX
  5
4A84
  8
0
 10
235.7656348204587005
 20
110.1462572023441027
 30
0.0
  0
VERTEX
  5
4A85
  8
0
 10
235.749170718794204
 20
110.139404386242802
 30
0.0
  0
VERTEX
  5
4A86
  8
0
 10
235.7317762790978009
 20
110.132110788357096
 30
0.0
  0
VERTEX
  5
4A87
  8
0
 10
235.7227419524483878
 20
110.1283008685219045
 30
0.0
  0
VERTEX
  5
4A88
  8
0
 10
235.7134889624180971
 20
110.1243832706372956
 30
0.0
  0
VERTEX
  5
4A89
  8
0
 10
235.69434496201049
 20
110.1162281405439956
 30
0.0
  0
VERTEX
  5
4A8A
  8
0
 10
235.6743822284045109
 20
110.1076524882874992
 30
0.0
  0
VERTEX
  5
4A8B
  8
0
 10
235.6641049546153965
 20
110.1032088874686963
 30
0.0
  0
VERTEX
  5
4A8C
  8
0
 10
235.6536359955867113
 20
110.0986623249001042
 30
0.0
  0
VERTEX
  5
4A8D
  8
0
 10
235.6321391620749068
 20
110.0892627481326969
 30
0.0
  0
VERTEX
  5
4A8E
  8
0
 10
235.6099230371256112
 20
110.0794582718285994
 30
0.0
  0
VERTEX
  5
4A8F
  8
0
 10
235.5985546199578948
 20
110.0744054626781008
 30
0.0
  0
VERTEX
  5
4A90
  8
0
 10
235.5870174632040914
 20
110.0692528886526986
 30
0.0
  0
VERTEX
  5
4A91
  8
0
 10
235.5634509432196069
 20
110.0586501335816934
 30
0.0
  0
VERTEX
  5
4A92
  8
0
 10
235.5392507673867044
 20
110.047653146553202
 30
0.0
  0
VERTEX
  5
4A93
  8
0
 10
235.514443135863786
 20
110.0362647330526045
 30
0.0
  0
VERTEX
  5
4A94
  8
0
 10
235.4890532744028064
 20
110.0244874217383995
 30
0.0
  0
VERTEX
  5
4A95
  8
0
 10
235.4631055411610134
 20
110.0123235184800023
 30
0.0
  0
VERTEX
  5
4A96
  8
0
 10
235.4499298713614905
 20
110.006097266937104
 30
0.0
  0
VERTEX
  5
4A97
  8
0
 10
235.4366235235465865
 20
109.9997751563949038
 30
0.0
  0
VERTEX
  5
4A98
  8
0
 10
235.4096301245396887
 20
109.9868443416478954
 30
0.0
  0
VERTEX
  5
4A99
  8
0
 10
235.3821476383608911
 20
109.9735329949022002
 30
0.0
  0
VERTEX
  5
4A9A
  8
0
 10
235.2824225204404058
 20
109.9239762978815946
 30
0.0
  0
VERTEX
  5
4A9B
  8
0
 10
235.1011684817763125
 20
109.8287430498101003
 30
0.0
  0
VERTEX
  5
4A9C
  8
0
 10
234.9108753152908946
 20
109.7212977489520966
 30
0.0
  0
VERTEX
  5
4A9D
  8
0
 10
234.7155775362095937
 20
109.6026480458268964
 30
0.0
  0
VERTEX
  5
4A9E
  8
0
 10
234.6172085073355902
 20
109.5395116318146052
 30
0.0
  0
VERTEX
  5
4A9F
  8
0
 10
234.5189359906050868
 20
109.4740829527653005
 30
0.0
  0
VERTEX
  5
4AA0
  8
0
 10
234.3243075757922895
 20
109.3372341563425039
 30
0.0
  0
VERTEX
  5
4AA1
  8
0
 10
234.1316361258448069
 20
109.191653909217095
 30
0.0
  0
VERTEX
  5
4AA2
  8
0
 10
233.9359169345923135
 20
109.0326271320319051
 30
0.0
  0
VERTEX
  5
4AA3
  8
0
 10
233.738902313116796
 20
108.8601629983676986
 30
0.0
  0
VERTEX
  5
4AA4
  8
0
 10
233.5425667240290011
 20
108.6746555883455017
 30
0.0
  0
VERTEX
  5
4AA5
  8
0
 10
233.445239195845005
 20
108.5771752719386996
 30
0.0
  0
VERTEX
  5
4AA6
  8
0
 10
233.3487715180679061
 20
108.4766538799911046
 30
0.0
  0
VERTEX
  5
4AA7
  8
0
 10
233.1592713323539101
 20
108.2668851285783944
 30
0.0
  0
VERTEX
  5
4AA8
  8
0
 10
232.9756617808421026
 20
108.046212588613102
 30
0.0
  0
VERTEX
  5
4AA9
  8
0
 10
232.8865022190765899
 20
107.9320701249133947
 30
0.0
  0
SEQEND
  5
4AAA
  8
0
  0
LINE
  5
4509
  8
0
 10
235.8743745796664086
 20
110.190290994999998
 30
0.0
 11
241.0202078455234016
 21
110.190290994999998
 31
0.0
  0
POLYLINE
  5
450A
  8
0
 66
     1
 10
0.0
 20
0.0
 30
0.0
  0
VERTEX
  5
4AAB
  8
0
 10
244.0080802061129077
 20
107.9320701249133947
 30
0.0
  0
VERTEX
  5
4AAC
  8
0
 10
243.9189206443475086
 20
108.046212588613102
 30
0.0
  0
VERTEX
  5
4AAD
  8
0
 10
243.7353110928359001
 20
108.2668851285783944
 30
0.0
  0
VERTEX
  5
4AAE
  8
0
 10
243.5458109071219042
 20
108.4766538799911046
 30
0.0
  0
VERTEX
  5
4AAF
  8
0
 10
243.4493432293446062
 20
108.5771752719386996
 30
0.0
  0
VERTEX
  5
4AB0
  8
0
 10
243.3520157011606102
 20
108.6746555883455017
 30
0.0
  0
VERTEX
  5
4AB1
  8
0
 10
243.1556801120727869
 20
108.8601629983676986
 30
0.0
  0
VERTEX
  5
4AB2
  8
0
 10
242.9586654905972978
 20
109.0326271320319051
 30
0.0
  0
VERTEX
  5
4AB3
  8
0
 10
242.7629462993450034
 20
109.191653909217095
 30
0.0
  0
VERTEX
  5
4AB4
  8
0
 10
242.5702748493972933
 20
109.3372341563425039
 30
0.0
  0
VERTEX
  5
4AB5
  8
0
 10
242.3756464345844961
 20
109.4740829527653005
 30
0.0
  0
VERTEX
  5
4AB6
  8
0
 10
242.2773739178539927
 20
109.5395116318146052
 30
0.0
  0
VERTEX
  5
4AB7
  8
0
 10
242.1790048889801881
 20
109.6026480458268964
 30
0.0
  0
VERTEX
  5
4AB8
  8
0
 10
241.9837071098988872
 20
109.7212977489520966
 30
0.0
  0
VERTEX
  5
4AB9
  8
0
 10
241.7934139434134977
 20
109.8287430498101003
 30
0.0
  0
VERTEX
  5
4ABA
  8
0
 10
241.6121599047492055
 20
109.9239762978815946
 30
0.0
  0
VERTEX
  5
4ABB
  8
0
 10
241.5124347868286065
 20
109.9735329949022002
 30
0.0
  0
VERTEX
  5
4ABC
  8
0
 10
241.4849523006500931
 20
109.9868443416478954
 30
0.0
  0
VERTEX
  5
4ABD
  8
0
 10
241.4579589016429964
 20
109.9997751563949038
 30
0.0
  0
VERTEX
  5
4ABE
  8
0
 10
241.4446525538282913
 20
110.006097266937104
 30
0.0
  0
VERTEX
  5
4ABF
  8
0
 10
241.4314768840285979
 20
110.0123235184800023
 30
0.0
  0
VERTEX
  5
4AC0
  8
0
 10
241.4055291507868048
 20
110.0244874217383995
 30
0.0
  0
VERTEX
  5
4AC1
  8
0
 10
241.3801392893259958
 20
110.0362647330526045
 30
0.0
  0
VERTEX
  5
4AC2
  8
0
 10
241.3553316578031911
 20
110.047653146553202
 30
0.0
  0
VERTEX
  5
4AC3
  8
0
 10
241.3311314819702034
 20
110.0586501335816934
 30
0.0
  0
VERTEX
  5
4AC4
  8
0
 10
241.3075649619854914
 20
110.0692528886526986
 30
0.0
  0
VERTEX
  5
4AC5
  8
0
 10
241.296027805231688
 20
110.0744054626781008
 30
0.0
  0
VERTEX
  5
4AC6
  8
0
 10
241.284659388064
 20
110.0794582718285994
 30
0.0
  0
VERTEX
  5
4AC7
  8
0
 10
241.2624432631147897
 20
110.0892627481326969
 30
0.0
  0
VERTEX
  5
4AC8
  8
0
 10
241.240946429603099
 20
110.0986623249001042
 30
0.0
  0
VERTEX
  5
4AC9
  8
0
 10
241.2304774705741863
 20
110.1032088874686963
 30
0.0
  0
VERTEX
  5
4ACA
  8
0
 10
241.2202001967852993
 20
110.1076524882874992
 30
0.0
  0
VERTEX
  5
4ACB
  8
0
 10
241.2002374631792918
 20
110.1162281405439956
 30
0.0
  0
VERTEX
  5
4ACC
  8
0
 10
241.1810934627715142
 20
110.1243832706372956
 30
0.0
  0
VERTEX
  5
4ACD
  8
0
 10
241.1718404727411951
 20
110.1283008685219045
 30
0.0
  0
VERTEX
  5
4ACE
  8
0
 10
241.1628061460920094
 20
110.132110788357096
 30
0.0
  0
VERTEX
  5
4ACF
  8
0
 10
241.1454117063956062
 20
110.139404386242802
 30
0.0
  0
VERTEX
  5
4AD0
  8
0
 10
241.1289476047309108
 20
110.1462572023441027
 30
0.0
  0
VERTEX
  5
4AD1
  8
0
 10
241.113453070807509
 20
110.1526615766193942
 30
0.0
  0
VERTEX
  5
4AD2
  8
0
 10
241.0989693097272095
 20
110.1586089301733011
 30
0.0
  0
VERTEX
  5
4AD3
  8
0
 10
241.0855396942193067
 20
110.1640896461924939
 30
0.0
  0
VERTEX
  5
4AD4
  8
0
 10
241.0792343780786098
 20
110.166651698326902
 30
0.0
  0
VERTEX
  5
4AD5
  8
0
 10
241.0732099245234963
 20
110.1690929582551064
 30
0.0
  0
VERTEX
  5
4AD6
  8
0
 10
241.062028133836094
 20
110.1736068530726982
 30
0.0
  0
VERTEX
  5
4AD7
  8
0
 10
241.0520448142744954
 20
110.177618035755799
 30
0.0
  0
VERTEX
  5
4AD8
  8
0
 10
241.0433125423762988
 20
110.1811119627948017
 30
0.0
  0
VERTEX
  5
4AD9
  8
0
 10
241.0358860321910015
 20
110.1840727302645035
 30
0.0
  0
VERTEX
  5
4ADA
  8
0
 10
241.0298222750112132
 20
110.1864829159054011
 30
0.0
  0
VERTEX
  5
4ADB
  8
0
 10
241.0273198795248106
 20
110.1874756456627011
 30
0.0
  0
VERTEX
  5
4ADC
  8
0
 10
241.0251806056307942
 20
110.1883234378563969
 30
0.0
  0
VERTEX
  5
4ADD
  8
0
 10
241.0220226683954934
 20
110.1895734385961987
 30
0.0
  0
VERTEX
  5
4ADE
  8
0
 10
241.0204122634758903
 20
110.1902102001448043
 30
0.0
  0
VERTEX
  5
4ADF
  8
0
 10
241.0202078455234016
 20
110.190290994999998
 30
0.0
  0
SEQEND
  5
4AE0
  8
0
  0
POLYLINE
  5
450B
  8
0
 66
     1
 10
0.0
 20
0.0
 30
0.0
  0
VERTEX
  5
4AE1
  8
0
 10
237.4686234113173953
 20
107.9320701249133947
 30
0.0
  0
VERTEX
  5
4AE2
  8
0
 10
237.523086962392199
 20
107.9438382643381971
 30
0.0
  0
VERTEX
  5
4AE3
  8
0
 10
237.6322211647870972
 20
107.9653001803746974
 30
0.0
  0
VERTEX
  5
4AE4
  8
0
 10
237.741529065937101
 20
107.9840002036074935
 30
0.0
  0
VERTEX
  5
4AE5
  8
0
 10
237.7962091065315064
 20
107.9923173294131971
 30
0.0
  0
VERTEX
  5
4AE6
  8
0
 10
237.8508851330477967
 20
107.9999480830039005
 30
0.0
  0
VERTEX
  5
4AE7
  8
0
 10
237.9601595282900064
 20
108.0131594615903055
 30
0.0
  0
VERTEX
  5
4AE8
  8
0
 10
238.0692193042272891
 20
108.0236564664827057
 30
0.0
  0
VERTEX
  5
4AE9
  8
0
 10
238.1779296590588899
 20
108.0314681452179002
 30
0.0
  0
VERTEX
  5
4AEA
  8
0
 10
238.2861552631734128
 20
108.0366307460104025
 30
0.0
  0
VERTEX
  5
4AEB
  8
0
 10
238.3937616516327864
 20
108.0391878357298054
 30
0.0
  0
VERTEX
  5
4AEC
  8
0
 10
238.4472912125947914
 20
108.0395049208591018
 30
0.0
  0
VERTEX
  5
4AED
  8
0
 10
238.5008207735567964
 20
108.0391878357298054
 30
0.0
  0
VERTEX
  5
4AEE
  8
0
 10
238.6084271620163975
 20
108.0366307460104025
 30
0.0
  0
VERTEX
  5
4AEF
  8
0
 10
238.716652766130693
 20
108.0314681452179002
 30
0.0
  0
VERTEX
  5
4AF0
  8
0
 10
238.8253631209622085
 20
108.0236564664827057
 30
0.0
  0
VERTEX
  5
4AF1
  8
0
 10
238.9344228968996049
 20
108.0131594615903055
 30
0.0
  0
VERTEX
  5
4AF2
  8
0
 10
239.0436972921417862
 20
107.9999480830039005
 30
0.0
  0
VERTEX
  5
4AF3
  8
0
 10
239.0983733186583038
 20
107.9923173294131971
 30
0.0
  0
VERTEX
  5
4AF4
  8
0
 10
239.1530533592525103
 20
107.9840002036074935
 30
0.0
  0
VERTEX
  5
4AF5
  8
0
 10
239.262361260402713
 20
107.9653001803746974
 30
0.0
  0
VERTEX
  5
4AF6
  8
0
 10
239.3714954627974123
 20
107.9438382643381971
 30
0.0
  0
VERTEX
  5
4AF7
  8
0
 10
239.4259590138721876
 20
107.9320701249133947
 30
0.0
  0
SEQEND
  5
4AF8
  8
0
  0
POLYLINE
  5
450C
  8
0
 66
     1
 10
0.0
 20
0.0
 30
0.0
  0
VERTEX
  5
4AF9
  8
0
 10
239.4259590138721876
 20
107.9320701249133947
 30
0.0
  0
VERTEX
  5
4AFA
  8
0
 10
239.5484965338434904
 20
107.9029898943136061
 30
0.0
  0
VERTEX
  5
4AFB
  8
0
 10
239.791506853091505
 20
107.8344177737943994
 30
0.0
  0
VERTEX
  5
4AFC
  8
0
 10
240.030557172751287
 20
107.7522329460117021
 30
0.0
  0
VERTEX
  5
4AFD
  8
0
 10
240.1481610254201939
 20
107.7061801364158953
 30
0.0
  0
VERTEX
  5
4AFE
  8
0
 10
240.2643000486233973
 20
107.6569026244742986
 30
0.0
  0
VERTEX
  5
4AFF
  8
0
 10
240.4916234664474928
 20
107.5489819812663939
 30
0.0
  0
VERTEX
  5
4B00
  8
0
 10
240.7113209092129011
 20
107.4292480829487033
 30
0.0
  0
VERTEX
  5
4B01
  8
0
 10
240.9222517603861888
 20
107.2986571728864931
 30
0.0
  0
VERTEX
  5
4B02
  8
0
 10
241.1234051321225991
 20
107.1583112500835
 30
0.0
  0
VERTEX
  5
4B03
  8
0
 10
241.3138800371577872
 20
107.0094682549677003
 30
0.0
  0
VERTEX
  5
4B04
  8
0
 10
241.4048594999410113
 20
106.9322993789292013
 30
0.0
  0
VERTEX
  5
4B05
  8
0
 10
241.4928821011289983
 20
106.8535515960688969
 30
0.0
  0
VERTEX
  5
4B06
  8
0
 10
241.6609797383127898
 20
106.6908841662896066
 30
0.0
  0
VERTEX
  5
4B07
  8
0
 10
241.8220660849524108
 20
106.5177979619946029
 30
0.0
  0
VERTEX
  5
4B08
  8
0
 10
241.975416587688386
 20
106.3344797135211053
 30
0.0
  0
VERTEX
  5
4B09
  8
0
 10
242.1199300093720126
 20
106.1416840484327935
 30
0.0
  0
VERTEX
  5
4B0A
  8
0
 10
242.2546472126348078
 20
105.9402396548790932
 30
0.0
  0
VERTEX
  5
4B0B
  8
0
 10
242.3180680265392937
 20
105.8365540830734943
 30
0.0
  0
VERTEX
  5
4B0C
  8
0
 10
242.3787368875497918
 20
105.7310544376568942
 30
0.0
  0
VERTEX
  5
4B0D
  8
0
 10
242.4914857212235972
 20
105.5151274191394037
 30
0.0
  0
VERTEX
  5
4B0E
  8
0
 10
242.5923175203047037
 20
105.2935128893449956
 30
0.0
  0
VERTEX
  5
4B0F
  8
0
 10
242.6381374148540999
 20
105.1808748904158932
 30
0.0
  0
VERTEX
  5
4B10
  8
0
 10
242.6808352939735869
 20
105.0671913291764952
 30
0.0
  0
VERTEX
  5
4B11
  8
0
 10
242.7567193331329065
 20
104.8372784629053029
 30
0.0
  0
VERTEX
  5
4B12
  8
0
 10
242.8197648250499867
 20
104.604988197541303
 30
0.0
  0
VERTEX
  5
4B13
  8
0
 10
242.8464488514840127
 20
104.4883394230276963
 30
0.0
  0
VERTEX
  5
4B14
  8
0
 10
242.8699128309883122
 20
104.3715629415580963
 30
0.0
  0
VERTEX
  5
4B15
  8
0
 10
242.9072514687287025
 20
104.1382670489934981
 30
0.0
  0
VERTEX
  5
4B16
  8
0
 10
242.9320152093785055
 20
103.9064130459945972
 30
0.0
  0
VERTEX
  5
4B17
  8
0
 10
242.944596193992794
 20
103.6773394424401005
 30
0.0
  0
VERTEX
  5
4B18
  8
0
 10
242.9454533318574079
 20
103.4478317119849038
 30
0.0
  0
VERTEX
  5
4B19
  8
0
 10
242.9343027853952037
 20
103.2148510381301065
 30
0.0
  0
VERTEX
  5
4B1A
  8
0
 10
242.9240707500320866
 20
103.0974561846848019
 30
0.0
  0
VERTEX
  5
4B1B
  8
0
 10
242.910671346834306
 20
102.9796704862719992
 30
0.0
  0
VERTEX
  5
4B1C
  8
0
 10
242.8742370968346052
 20
102.7435524873432939
 30
0.0
  0
VERTEX
  5
4B1D
  8
0
 10
242.8248201811319973
 20
102.5077246135372064
 30
0.0
  0
VERTEX
  5
4B1E
  8
0
 10
242.7623821976442002
 20
102.2734043253406071
 30
0.0
  0
VERTEX
  5
4B1F
  8
0
 10
242.6870275580216116
 20
102.041798058570194
 30
0.0
  0
VERTEX
  5
4B20
  8
0
 10
242.5989859620540017
 20
101.8140479862725982
 30
0.0
  0
VERTEX
  5
4B21
  8
0
 10
242.5502937663050034
 20
101.7019192306412947
 30
0.0
  0
VERTEX
  5
4B22
  8
0
 10
242.4985541075641891
 20
101.5911295532108056
 30
0.0
  0
VERTEX
  5
4B23
  8
0
 10
242.3861946425529084
 20
101.3741064496362014
 30
0.0
  0
VERTEX
  5
4B24
  8
0
 10
242.2625154347772138
 20
101.1640220351274024
 30
0.0
  0
VERTEX
  5
4B25
  8
0
 10
242.1282461563457957
 20
100.9618418700823952
 30
0.0
  0
VERTEX
  5
4B26
  8
0
 10
241.9842362727850116
 20
100.7684506487923954
 30
0.0
  0
VERTEX
  5
4B27
  8
0
 10
241.8314761216452098
 20
100.5846726441701975
 30
0.0
  0
VERTEX
  5
4B28
  8
0
 10
241.7521610403067029
 20
100.4966232765983989
 30
0.0
  0
VERTEX
  5
4B29
  8
0
 10
241.6710886631908011
 20
100.4112448079360007
 30
0.0
  0
VERTEX
  5
4B2A
  8
0
 10
241.5015032955236904
 20
100.2461934583788974
 30
0.0
  0
VERTEX
  5
4B2B
  8
0
 10
241.3201532986317943
 20
100.0875405930943032
 30
0.0
  0
VERTEX
  5
4B2C
  8
0
 10
241.1277067992076013
 20
99.9367059558745154
 30
0.0
  0
VERTEX
  5
4B2D
  8
0
 10
240.9249614641528012
 20
99.7949752772470333
 30
0.0
  0
VERTEX
  5
4B2E
  8
0
 10
240.7128067180379105
 20
99.6634783003397047
 30
0.0
  0
VERTEX
  5
4B2F
  8
0
 10
240.6035108941582905
 20
99.6018842077505155
 30
0.0
  0
VERTEX
  5
4B30
  8
0
 10
240.4922502636304955
 20
99.5432120665502254
 30
0.0
  0
VERTEX
  5
4B31
  8
0
 10
240.2644110856917905
 20
99.435032853514997
 30
0.0
  0
VERTEX
  5
4B32
  8
0
 10
240.0304140990523933
 20
99.3396105773433078
 30
0.0
  0
VERTEX
  5
4B33
  8
0
 10
239.7913348941492018
 20
99.2574351413601903
 30
0.0
  0
VERTEX
  5
4B34
  8
0
 10
239.5484892287898049
 20
99.1889229550370857
 30
0.0
  0
VERTEX
  5
4B35
  8
0
 10
239.3032622849582083
 20
99.1343256797016039
 30
0.0
  0
VERTEX
  5
4B36
  8
0
 10
239.1801934213507934
 20
99.1122745051631568
 30
0.0
  0
VERTEX
  5
4B37
  8
0
 10
239.0570575665169883
 20
99.0937153564926234
 30
0.0
  0
VERTEX
  5
4B38
  8
0
 10
238.8113226007278911
 20
99.0669894455210738
 30
0.0
  0
VERTEX
  5
4B39
  8
0
 10
238.5675592839781984
 20
99.0538630541920639
 30
0.0
  0
VERTEX
  5
4B3A
  8
0
 10
238.4468887477767112
 20
99.0522574216450238
 30
0.0
  0
VERTEX
  5
4B3B
  8
0
 10
238.3262117779111122
 20
99.0538847955754704
 30
0.0
  0
VERTEX
  5
4B3C
  8
0
 10
238.0824393326537916
 20
99.0670560394232211
 30
0.0
  0
VERTEX
  5
4B3D
  8
0
 10
237.8367003047854098
 20
99.093828078836566
 30
0.0
  0
VERTEX
  5
4B3E
  8
0
 10
237.7135642932786936
 20
99.112410568570624
 30
0.0
  0
VERTEX
  5
4B3F
  8
0
 10
237.5904964858306982
 20
99.1344851681702153
 30
0.0
  0
VERTEX
  5
4B40
  8
0
 10
237.3452751800188878
 20
99.1891292631258352
 30
0.0
  0
VERTEX
  5
4B41
  8
0
 10
237.1024398364079104
 20
99.2576877249859422
 30
0.0
  0
VERTEX
  5
4B42
  8
0
 10
236.8633755175779072
 20
99.3399083000135192
 30
0.0
  0
VERTEX
  5
4B43
  8
0
 10
236.6293974863368135
 20
99.4353741439530836
 30
0.0
  0
VERTEX
  5
4B44
  8
0
 10
236.4015807424611921
 20
99.5435950867434229
 30
0.0
  0
VERTEX
  5
4B45
  8
0
 10
236.2903328013346993
 20
99.6022871502466955
 30
0.0
  0
VERTEX
  5
4B46
  8
0
 10
236.1810506075842113
 20
99.6639004459544253
 30
0.0
  0
VERTEX
  5
4B47
  8
0
 10
235.9689257634697981
 20
99.7954334290295151
 30
0.0
  0
VERTEX
  5
4B48
  8
0
 10
235.7662134870031139
 20
99.9371965634040151
 30
0.0
  0
VERTEX
  5
4B49
  8
0
 10
235.5738028733387921
 20
100.0880596155331972
 30
0.0
  0
VERTEX
  5
4B4A
  8
0
 10
235.3924912518394024
 20
100.2467363357976069
 30
0.0
  0
VERTEX
  5
4B4B
  8
0
 10
235.2229452575774928
 20
100.4118076015678014
 30
0.0
  0
VERTEX
  5
4B4C
  8
0
 10
235.141884133756605
 20
100.4972042117227033
 30
0.0
  0
VERTEX
  5
4B4D
  8
0
 10
235.0625813393710928
 20
100.5852712028135016
 30
0.0
  0
VERTEX
  5
4B4E
  8
0
 10
234.9098486860879973
 20
100.7690826896186991
 30
0.0
  0
VERTEX
  5
4B4F
  8
0
 10
234.7658698491734128
 20
100.9625047579284001
 30
0.0
  0
VERTEX
  5
4B50
  8
0
 10
234.631634692444095
 20
101.1647129042576978
 30
0.0
  0
VERTEX
  5
4B51
  8
0
 10
234.5079922383796998
 20
101.3748222183245957
 30
0.0
  0
VERTEX
  5
4B52
  8
0
 10
234.3956717759531045
 20
101.5918668406082048
 30
0.0
  0
VERTEX
  5
4B53
  8
0
 10
234.343952327231591
 20
101.7026659399940058
 30
0.0
  0
VERTEX
  5
4B54
  8
0
 10
234.2952807365282126
 20
101.8148032032929962
 30
0.0
  0
VERTEX
  5
4B55
  8
0
 10
234.2072811877353899
 20
102.0425678414656971
 30
0.0
  0
VERTEX
  5
4B56
  8
0
 10
234.1319694774790037
 20
102.274185171371002
 30
0.0
  0
VERTEX
  5
4B57
  8
0
 10
234.0695750039498932
 20
102.508512536613793
 30
0.0
  0
VERTEX
  5
4B58
  8
0
 10
234.0202017103677008
 20
102.7443434117068932
 30
0.0
  0
VERTEX
  5
4B59
  8
0
 10
233.9838107127615956
 20
102.9804603377630059
 30
0.0
  0
VERTEX
  5
4B5A
  8
0
 10
233.9704326521193991
 20
103.0982439438789982
 30
0.0
  0
VERTEX
  5
4B5B
  8
0
 10
233.960221690609103
 20
103.2156356449890069
 30
0.0
  0
VERTEX
  5
4B5C
  8
0
 10
233.9491122323456977
 20
103.4486068090493944
 30
0.0
  0
VERTEX
  5
4B5D
  8
0
 10
233.9500086138961876
 20
103.6781007878043965
 30
0.0
  0
VERTEX
  5
4B5E
  8
0
 10
233.9626251238597092
 20
103.9071307883262989
 30
0.0
  0
VERTEX
  5
4B5F
  8
0
 10
233.9874078066935112
 20
104.1388438889570978
 30
0.0
  0
VERTEX
  5
4B60
  8
0
 10
234.0247381190301894
 20
104.3719289804876951
 30
0.0
  0
VERTEX
  5
4B61
  8
0
 10
234.0481857104200003
 20
104.4885821448647931
 30
0.0
  0
VERTEX
  5
4B62
  8
0
 10
234.0748447062779007
 20
104.6050998197823958
 30
0.0
  0
VERTEX
  5
4B63
  8
0
 10
234.1378148410622089
 20
104.8371178348562012
 30
0.0
  0
VERTEX
  5
4B64
  8
0
 10
234.2135942974844056
 20
105.0667669983509001
 30
0.0
  0
VERTEX
  5
4B65
  8
0
 10
234.2562317246531904
 20
105.1803294296219065
 30
0.0
  0
VERTEX
  5
4B66
  8
0
 10
234.3019877384579104
 20
105.2928569727098989
 30
0.0
  0
VERTEX
  5
4B67
  8
0
 10
234.4026836374939933
 20
105.5142809607923056
 30
0.0
  0
VERTEX
  5
4B68
  8
0
 10
234.5153058827335997
 20
105.7300856025663052
 30
0.0
  0
VERTEX
  5
4B69
  8
0
 10
234.575923949889102
 20
105.8355584771530999
 30
0.0
  0
VERTEX
  5
4B6A
  8
0
 10
234.6393070362624087
 20
105.9392429050538027
 30
0.0
  0
VERTEX
  5
4B6B
  8
0
 10
234.7740032359141082
 20
106.1407675466282967
 30
0.0
  0
VERTEX
  5
4B6C
  8
0
 10
234.9185962062078943
 20
106.3337606090105965
 30
0.0
  0
VERTEX
  5
4B6D
  8
0
 10
235.072169416823499
 20
106.517404915306102
 30
0.0
  0
VERTEX
  5
4B6E
  8
0
 10
235.2336692342200877
 20
106.6909520018857052
 30
0.0
  0
VERTEX
  5
4B6F
  8
0
 10
235.4020107178909882
 20
106.8538366826984998
 30
0.0
  0
VERTEX
  5
4B70
  8
0
 10
235.4897006279823017
 20
106.9322799519676011
 30
0.0
  0
VERTEX
  5
4B71
  8
0
 10
235.5803911742447951
 20
107.0092112776001017
 30
0.0
  0
VERTEX
  5
4B72
  8
0
 10
235.7704200768012015
 20
107.1577515196424031
 30
0.0
  0
VERTEX
  5
4B73
  8
0
 10
235.9712969642999099
 20
107.2979768724417937
 30
0.0
  0
VERTEX
  5
4B74
  8
0
 10
236.1821052251121102
 20
107.4285753369984064
 30
0.0
  0
VERTEX
  5
4B75
  8
0
 10
236.4018211556771973
 20
107.5484021021404004
 30
0.0
  0
VERTEX
  5
4B76
  8
0
 10
236.6292868178975084
 20
107.6564635070909048
 30
0.0
  0
VERTEX
  5
4B77
  8
0
 10
236.7455353796802058
 20
107.7058186542015932
 30
0.0
  0
VERTEX
  5
4B78
  8
0
 10
236.8632589556127925
 20
107.7519451196117046
 30
0.0
  0
VERTEX
  5
4B79
  8
0
 10
237.1025906385912094
 20
107.8342661056765053
 30
0.0
  0
VERTEX
  5
4B7A
  8
0
 10
237.3459213757583086
 20
107.9029484105178938
 30
0.0
  0
VERTEX
  5
4B7B
  8
0
 10
237.4686234113173953
 20
107.9320701249133947
 30
0.0
  0
SEQEND
  5
4B7C
  8
0
  0
CIRCLE
  5
450D
  8
0
 10
238.4472912125947914
 20
103.6802909949999929
 30
0.0
 40
4.2999999999999989
  0
ARC
  5
450E
  8
0
 10
238.4472912125947914
 20
105.4802909949999048
 30
0.0
 40
0.4500000000000003
 50
13.3417559035428201
 51
166.6582417727780978
  0
ARC
  5
450F
  8
0
 10
239.6513922629847002
 20
105.7658551917224941
 30
0.0
 40
0.7875000000000004
 50
193.3417595550388057
 51
286.6582417727769894
  0
ARC
  5
4510
  8
0
 10
240.0061369394067867
 20
104.5802909949999986
 30
0.0
 40
0.4500000000000001
 50
313.3417582272194863
 51
106.6582417727770036
  0
ARC
  5
4511
  8
0
 10
240.8554933133748932
 20
103.6802909949999929
 30
0.0
 40
0.7874999999999993
 50
133.3417582272196
 51
226.6582417727802863
  0
ARC
  5
4512
  8
0
 10
240.0061369394067867
 20
102.7802909950000014
 30
0.0
 40
0.4500000000000003
 50
253.3417559035407862
 51
46.6582417727803929
  0
ARC
  5
4513
  8
0
 10
237.2431901622049111
 20
105.7658551917224941
 30
0.0
 40
0.7874999999999999
 50
253.3417593113773023
 51
346.6582417727781262
  0
ARC
  5
4514
  8
0
 10
236.8884454857827961
 20
104.5802909949999986
 30
0.0
 40
0.4500000000000006
 50
73.3417563299478701
 51
226.6582417727802863
  0
ARC
  5
4515
  8
0
 10
236.0390891118150023
 20
103.6802909949999929
 30
0.0
 40
0.7874999999999996
 50
313.3417593113787802
 51
46.6582417727803929
  0
ARC
  5
4516
  8
0
 10
236.8884454857827961
 20
102.7802909950000014
 30
0.0
 40
0.4500000000000003
 50
133.3417563299495896
 51
286.6582417727769894
  0
ARC
  5
4517
  8
0
 10
237.2431901622049111
 20
101.5947267982774065
 30
0.0
 40
0.7875000000000004
 50
13.3417582272218596
 51
106.6582417727770036
  0
ARC
  5
4518
  8
0
 10
238.4472912125947914
 20
101.8802909949999957
 30
0.0
 40
0.4500000000000006
 50
193.3417582272217885
 51
346.6582417727781262
  0
ARC
  5
4519
  8
0
 10
239.6513922629847002
 20
101.5947267982774065
 30
0.0
 40
0.7875000000000008
 50
73.3417595550374841
 51
166.6582417727780978
  0
LINE
  5
451A
  8
1
 10
106.0802497935785027
 20
143.1802909950000071
 30
0.0
 11
106.0802497935785027
 21
129.1802909949998934
 31
0.0
  0
LINE
  5
451B
  8
1
 10
123.0802497935785027
 20
213.8802909949999105
 30
0.0
 11
123.0802497935785027
 21
188.4802909949999048
 31
0.0
  0
LINE
  5
451C
  8
1
 10
123.0802497935785027
 20
164.1802909950000071
 30
0.0
 11
123.0802497935785027
 21
90.705936236528288
 31
0.0
  0
LINE
  5
451D
  8
1
 10
140.0802497935785027
 20
143.1802909950000071
 30
0.0
 11
140.0802497935785027
 21
129.1802909949998934
 31
0.0
  0
LINE
  5
451E
  8
3
 10
121.0802497935785027
 20
105.3012909949999028
 30
0.0
 11
123.0802497935785027
 21
105.3012909949999028
 31
0.0
  0
LINE
  5
451F
  8
3
 10
121.0802497935785027
 20
102.0592909949999978
 30
0.0
 11
123.0802497935785027
 21
102.0592909949999978
 31
0.0
  0
LINE
  5
4520
  8
3
 10
121.0802497935785027
 20
35.3269362365282973
 30
0.0
 11
123.0802497935785027
 21
35.3269362365282973
 31
0.0
  0
LINE
  5
4521
  8
3
 10
121.0802497935785027
 20
32.0849362365283426
 30
0.0
 11
123.0802497935785027
 21
32.0849362365283426
 31
0.0
  0
LINE
  5
4522
  8
0
 10
178.7472912125946891
 20
30.3418840986895511
 30
0.0
 11
178.7472912125946891
 21
37.069988374367199
 31
0.0
  0
LINE
  5
4523
  8
0
 10
166.8802497935785141
 20
29.621000914545899
 30
0.0
 11
176.8050346705612981
 21
29.621000914545899
 31
0.0
  0
LINE
  5
4524
  8
0
 10
171.4744559959200956
 20
40.7059362365283732
 30
0.0
 11
162.3802497935785141
 21
40.7059362365283732
 31
0.0
  0
LINE
  5
4525
  8
0
 10
162.3802497935785141
 20
26.7059362365283803
 30
0.0
 11
171.4744559959200956
 21
26.7059362365283803
 31
0.0
  0
LINE
  5
4526
  8
0
 10
176.8050346705612981
 20
37.790871558510851
 30
0.0
 11
166.8802497935785141
 21
37.790871558510851
 31
0.0
  0
LINE
  5
4527
  8
0
 10
162.3802497935785141
 20
40.2059362365283732
 30
0.0
 11
151.8802497935785141
 21
40.2059362365283732
 31
0.0
  0
LINE
  5
4528
  8
0
 10
151.8802497935785141
 20
27.2059362365283697
 30
0.0
 11
162.3802497935785141
 21
27.2059362365283697
 31
0.0
  0
LINE
  5
4529
  8
0
 10
147.8802497935785141
 20
29.0059362365283313
 30
0.0
 11
148.180249793578696
 21
28.7059362365283697
 31
0.0
  0
LINE
  5
452A
  8
0
 10
148.180249793578696
 20
38.7059362365283732
 30
0.0
 11
147.8802497935785141
 21
38.4059362365284187
 31
0.0
  0
LINE
  5
452B
  8
0
 10
148.180249793578696
 20
28.7059362365283697
 30
0.0
 11
151.8802497935785141
 21
28.7059362365283697
 31
0.0
  0
LINE
  5
452C
  8
0
 10
151.8802497935785141
 20
38.7059362365283732
 30
0.0
 11
148.180249793578696
 21
38.7059362365283732
 31
0.0
  0
POLYLINE
  5
452D
  8
0
 66
     1
 10
0.0
 20
0.0
 30
0.0
  0
VERTEX
  5
4B7D
  8
0
 10
174.3340705531776962
 20
29.6211217850304784
 30
0.0
  0
VERTEX
  5
4B7E
  8
0
 10
174.1080180637497961
 20
29.4552416039630316
 30
0.0
  0
VERTEX
  5
4B7F
  8
0
 10
173.6393803590750906
 20
29.0476918942132514
 30
0.0
  0
VERTEX
  5
4B80
  8
0
 10
173.1445292329574102
 20
28.5311974710671201
 30
0.0
  0
VERTEX
  5
4B81
  8
0
 10
172.888819094854199
 20
28.2318061838215115
 30
0.0
  0
SEQEND
  5
4B82
  8
0
  0
POLYLINE
  5
452E
  8
0
 66
     1
 10
0.0
 20
0.0
 30
0.0
  0
VERTEX
  5
4B83
  8
0
 10
166.1784083131506122
 20
30.1010042091998002
 30
0.0
  0
VERTEX
  5
4B84
  8
0
 10
166.2154050972644086
 20
30.1024972847654908
 30
0.0
  0
VERTEX
  5
4B85
  8
0
 10
166.2865012434307914
 20
30.1046886202951782
 30
0.0
  0
VERTEX
  5
4B86
  8
0
 10
166.3536899873141977
 20
30.1057966151024594
 30
0.0
  0
VERTEX
  5
4B87
  8
0
 10
166.3858035033337899
 20
30.1059362365283505
 30
0.0
  0
SEQEND
  5
4B88
  8
0
  0
POLYLINE
  5
452F
  8
0
 66
     1
 10
0.0
 20
0.0
 30
0.0
  0
VERTEX
  5
4B89
  8
0
 10
166.3858035033337899
 20
30.1059362365283505
 30
0.0
  0
VERTEX
  5
4B8A
  8
0
 10
166.4132387489343898
 20
30.1058274536892512
 30
0.0
  0
VERTEX
  5
4B8B
  8
0
 10
166.4657849535942091
 20
30.1049519039656808
 30
0.0
  0
VERTEX
  5
4B8C
  8
0
 10
166.5152120715846991
 20
30.1031884122503506
 30
0.0
  0
VERTEX
  5
4B8D
  8
0
 10
166.5387495087688876
 20
30.1019702152747186
 30
0.0
  0
VERTEX
  5
4B8E
  8
0
 10
166.5614999918659009
 20
30.100526144359609
 30
0.0
  0
VERTEX
  5
4B8F
  8
0
 10
166.6046332429143035
 20
30.0969565119530706
 30
0.0
  0
VERTEX
  5
4B90
  8
0
 10
166.6446011138505128
 20
30.0924732107266699
 30
0.0
  0
VERTEX
  5
4B91
  8
0
 10
166.6813977339633936
 20
30.0870722393023016
 30
0.0
  0
VERTEX
  5
4B92
  8
0
 10
166.7150221099190901
 20
30.0807518979122506
 30
0.0
  0
VERTEX
  5
4B93
  8
0
 10
166.7454780781276895
 20
30.0735127771120005
 30
0.0
  0
VERTEX
  5
4B94
  8
0
 10
166.7595203361838117
 20
30.06954950236263
 30
0.0
  0
VERTEX
  5
4B95
  8
0
 10
166.7727739375623059
 20
30.0653578337800091
 30
0.0
  0
VERTEX
  5
4B96
  8
0
 10
166.7969223188619878
 20
30.0562925019604599
 30
0.0
  0
VERTEX
  5
4B97
  8
0
 10
166.8179404163053903
 20
30.0463247367257509
 30
0.0
  0
VERTEX
  5
4B98
  8
0
 10
166.8358501970085115
 20
30.0354650329313699
 30
0.0
  0
VERTEX
  5
4B99
  8
0
 10
166.8506785596273119
 20
30.0237264235696593
 30
0.0
  0
VERTEX
  5
4B9A
  8
0
 10
166.8624574439861021
 20
30.011124457661591
 30
0.0
  0
VERTEX
  5
4B9B
  8
0
 10
166.8672147076372028
 20
30.0045052529917484
 30
0.0
  0
VERTEX
  5
4B9C
  8
0
 10
166.871223892914486
 20
29.9976771576900809
 30
0.0
  0
VERTEX
  5
4B9D
  8
0
 10
166.8770200673797888
 20
29.9834049566293288
 30
0.0
  0
VERTEX
  5
4B9E
  8
0
 10
166.8798932157569084
 20
29.9683306146529311
 30
0.0
  0
VERTEX
  5
4B9F
  8
0
 10
166.8802497935785141
 20
29.9605003646561308
 30
0.0
  0
SEQEND
  5
4BA0
  8
0
  0
POLYLINE
  5
4530
  8
0
 66
     1
 10
0.0
 20
0.0
 30
0.0
  0
VERTEX
  5
4BA1
  8
0
 10
176.8378421348083975
 20
37.7874492676559228
 30
0.0
  0
VERTEX
  5
4BA2
  8
0
 10
177.2720100535914014
 20
37.6911349521549184
 30
0.0
  0
VERTEX
  5
4BA3
  8
0
 10
177.9913169132562132
 20
37.4976755096738614
 30
0.0
  0
VERTEX
  5
4BA4
  8
0
 10
178.511078880299408
 20
37.30334237284967
 30
0.0
  0
VERTEX
  5
4BA5
  8
0
 10
178.6958835405660011
 20
37.2059362365283732
 30
0.0
  0
SEQEND
  5
4BA6
  8
0
  0
POLYLINE
  5
4531
  8
0
 66
     1
 10
0.0
 20
0.0
 30
0.0
  0
VERTEX
  5
4BA7
  8
0
 10
170.4218734742516972
 20
37.2059362365283732
 30
0.0
  0
VERTEX
  5
4BA8
  8
0
 10
170.3501221660841907
 20
37.2117283143469493
 30
0.0
  0
VERTEX
  5
4BA9
  8
0
 10
170.2199153799548981
 20
37.2235243993292215
 30
0.0
  0
VERTEX
  5
4BAA
  8
0
 10
170.1077715991121124
 20
37.23557206795045
 30
0.0
  0
VERTEX
  5
4BAB
  8
0
 10
170.0585857383121038
 20
37.2416784399450833
 30
0.0
  0
SEQEND
  5
4BAC
  8
0
  0
LINE
  5
4532
  8
0
 10
170.0585857383121038
 20
37.2416784399450833
 30
0.0
 11
167.2221769521385966
 21
37.612732890814641
 31
0.0
  0
POLYLINE
  5
4533
  8
0
 66
     1
 10
0.0
 20
0.0
 30
0.0
  0
VERTEX
  5
4BAD
  8
0
 10
167.2221769521385966
 20
37.612732890814641
 30
0.0
  0
VERTEX
  5
4BAE
  8
0
 10
167.2035571929694981
 20
37.6152047952460933
 30
0.0
  0
VERTEX
  5
4BAF
  8
0
 10
167.1678548839099108
 20
37.6201640804447379
 30
0.0
  0
VERTEX
  5
4BB0
  8
0
 10
167.1342091198978039
 20
37.6251430302984318
 30
0.0
  0
VERTEX
  5
4BB1
  8
0
 10
167.1181599289101882
 20
37.6276395144669777
 30
0.0
  0
VERTEX
  5
4BB2
  8
0
 10
167.1026277976363872
 20
37.6301404762414222
 30
0.0
  0
VERTEX
  5
4BB3
  8
0
 10
167.0731183293009963
 20
37.6351552453668319
 30
0.0
  0
VERTEX
  5
4BB4
  8
0
 10
167.0456876408011055
 20
37.640186160702001
 30
0.0
  0
VERTEX
  5
4BB5
  8
0
 10
167.0203421701534978
 20
37.6452320414849808
 30
0.0
  0
VERTEX
  5
4BB6
  8
0
 10
166.9970878659721052
 20
37.6502917034412121
 30
0.0
  0
VERTEX
  5
4BB7
  8
0
 10
166.9759301860707978
 20
37.6553639590615603
 30
0.0
  0
VERTEX
  5
4BB8
  8
0
 10
166.9661391512717898
 20
37.6579044375833973
 30
0.0
  0
VERTEX
  5
4BB9
  8
0
 10
166.9568740961840092
 20
37.6604476178813528
 30
0.0
  0
VERTEX
  5
4BBA
  8
0
 10
166.9399240687993995
 20
37.6655414867596008
 30
0.0
  0
VERTEX
  5
4BBB
  8
0
 10
166.9250840821100041
 20
37.6706443701588114
 30
0.0
  0
VERTEX
  5
4BBC
  8
0
 10
166.9123576190789038
 20
37.6757550704257866
 30
0.0
  0
VERTEX
  5
4BBD
  8
0
 10
166.9017476666230948
 20
37.6808723880729985
 30
0.0
  0
VERTEX
  5
4BBE
  8
0
 10
166.8932567149117858
 20
37.6859951220594667
 30
0.0
  0
VERTEX
  5
4BBF
  8
0
 10
166.8898065065374965
 20
37.6885581444993321
 30
0.0
  0
VERTEX
  5
4BC0
  8
0
 10
166.8868867567815926
 20
37.6911220700729928
 30
0.0
  0
VERTEX
  5
4BC1
  8
0
 10
166.8826392872701945
 20
37.6962520288127507
 30
0.0
  0
VERTEX
  5
4BC2
  8
0
 10
166.8805153032635928
 20
37.7013837942707823
 30
0.0
  0
VERTEX
  5
4BC3
  8
0
 10
166.8802497935785141
 20
37.7039499781429868
 30
0.0
  0
SEQEND
  5
4BC4
  8
0
  0
LINE
  5
4534
  8
0
 10
178.6958835405660011
 20
37.2059362365283732
 30
0.0
 11
170.4218734742516972
 21
37.2059362365283732
 31
0.0
  0
POLYLINE
  5
4535
  8
0
 66
     1
 10
0.0
 20
0.0
 30
0.0
  0
VERTEX
  5
4BC5
  8
0
 10
178.6958835405660011
 20
37.2059362365283732
 30
0.0
  0
VERTEX
  5
4BC6
  8
0
 10
178.6972417108063098
 20
37.2058644486487466
 30
0.0
  0
VERTEX
  5
4BC7
  8
0
 10
178.6999560693026865
 20
37.2052872273583333
 30
0.0
  0
VERTEX
  5
4BC8
  8
0
 10
178.7026668118841997
 20
37.2041255932102786
 30
0.0
  0
VERTEX
  5
4BC9
  8
0
 10
178.7040204649979103
 20
37.2033234099552601
 30
0.0
  0
VERTEX
  5
4BCA
  8
0
 10
178.7053727811747024
 20
37.2023725346834908
 30
0.0
  0
VERTEX
  5
4BCB
  8
0
 10
178.7080728340554003
 20
37.2000215599840729
 30
0.0
  0
VERTEX
  5
4BCC
  8
0
 10
178.7107658440143041
 20
37.1970666998223578
 30
0.0
  0
VERTEX
  5
4BCD
  8
0
 10
178.7134507033906061
 20
37.193502508105901
 30
0.0
  0
VERTEX
  5
4BCE
  8
0
 10
178.7161263255223105
 20
37.1893240605535311
 30
0.0
  0
VERTEX
  5
4BCF
  8
0
 10
178.7187916467962054
 20
37.1845269512268715
 30
0.0
  0
VERTEX
  5
4BD0
  8
0
 10
178.7201201190181905
 20
37.1818951619513882
 30
0.0
  0
VERTEX
  5
4BD1
  8
0
 10
178.7214456286048971
 20
37.1791072869687014
 30
0.0
  0
VERTEX
  5
4BD2
  8
0
 10
178.7240872592111884
 20
37.1730616797246967
 30
0.0
  0
VERTEX
  5
4BD3
  8
0
 10
178.7267155555269085
 20
37.1663872367213273
 30
0.0
  0
VERTEX
  5
4BD4
  8
0
 10
178.7293295647980074
 20
37.1590815484643073
 30
0.0
  0
VERTEX
  5
4BD5
  8
0
 10
178.7319283662070006
 20
37.1511426745154267
 30
0.0
  0
VERTEX
  5
4BD6
  8
0
 10
178.7345110723877042
 20
37.142569127002389
 30
0.0
  0
VERTEX
  5
4BD7
  8
0
 10
178.7357961226884981
 20
37.1380440022699077
 30
0.0
  0
VERTEX
  5
4BD8
  8
0
 10
178.73707683465841
 20
37.1333598376212421
 30
0.0
  0
VERTEX
  5
4BD9
  8
0
 10
178.7396248264689973
 20
37.1235142028103766
 30
0.0
  0
VERTEX
  5
4BDA
  8
0
 10
178.7421542272151953
 20
37.1130321545863424
 30
0.0
  0
VERTEX
  5
4BDB
  8
0
 10
178.743411706614296
 20
37.1075525825011709
 30
0.0
  0
SEQEND
  5
4BDC
  8
0
  0
POLYLINE
  5
4536
  8
0
 66
     1
 10
0.0
 20
0.0
 30
0.0
  0
VERTEX
  5
4BDD
  8
0
 10
178.743411706614296
 20
37.1075525825011709
 30
0.0
  0
VERTEX
  5
4BDE
  8
0
 10
178.7446005336817052
 20
37.1017176174010501
 30
0.0
  0
VERTEX
  5
4BDF
  8
0
 10
178.7463253118044122
 20
37.0895341274157317
 30
0.0
  0
VERTEX
  5
4BE0
  8
0
 10
178.7471842362062944
 20
37.0766716499531412
 30
0.0
  0
VERTEX
  5
4BE1
  8
0
 10
178.7472912125946891
 20
37.0699883743600367
 30
0.0
  0
SEQEND
  5
4BE2
  8
0
  0
POLYLINE
  5
4537
  8
0
 66
     1
 10
0.0
 20
0.0
 30
0.0
  0
VERTEX
  5
4BE3
  8
0
 10
178.7472912125946891
 20
37.0699883743600367
 30
0.0
  0
VERTEX
  5
4BE4
  8
0
 10
178.7468891771154915
 20
37.0565217447713167
 30
0.0
  0
VERTEX
  5
4BE5
  8
0
 10
178.7437004986250031
 20
37.0277252722627281
 30
0.0
  0
VERTEX
  5
4BE6
  8
0
 10
178.7374059659047987
 20
36.9965182121255793
 30
0.0
  0
VERTEX
  5
4BE7
  8
0
 10
178.7331276220675136
 20
36.9800457640137665
 30
0.0
  0
VERTEX
  5
4BE8
  8
0
 10
178.7281162870305877
 20
36.9630157971785209
 30
0.0
  0
VERTEX
  5
4BE9
  8
0
 10
178.7159666897877912
 20
36.9273569771156716
 30
0.0
  0
VERTEX
  5
4BEA
  8
0
 10
178.7011147488144047
 20
36.8897014534948084
 30
0.0
  0
VERTEX
  5
4BEB
  8
0
 10
178.6837380786421079
 20
36.8502277149220916
 30
0.0
  0
VERTEX
  5
4BEC
  8
0
 10
178.6640342138859978
 20
36.8091355997112331
 30
0.0
  0
VERTEX
  5
4BED
  8
0
 10
178.6422197929489073
 20
36.766645919786022
 30
0.0
  0
VERTEX
  5
4BEE
  8
0
 10
178.6305935302420949
 20
36.7449510526784024
 30
0.0
  0
VERTEX
  5
4BEF
  8
0
 10
178.618528415051486
 20
36.7229976800556415
 30
0.0
  0
VERTEX
  5
4BF0
  8
0
 10
178.5930922623668096
 20
36.6782454732056067
 30
0.0
  0
VERTEX
  5
4BF1
  8
0
 10
178.5655275796472949
 20
36.6316066819506503
 30
0.0
  0
VERTEX
  5
4BF2
  8
0
 10
178.5358254556037991
 20
36.5830210145148769
 30
0.0
  0
VERTEX
  5
4BF3
  8
0
 10
178.5040529256359036
 20
36.5325557618125529
 30
0.0
  0
VERTEX
  5
4BF4
  8
0
 10
178.4702855464817901
 20
36.4802852522036574
 30
0.0
  0
VERTEX
  5
4BF5
  8
0
 10
178.4526794387354016
 20
36.4534978555257112
 30
0.0
  0
VERTEX
  5
4BF6
  8
0
 10
178.4346062076758983
 20
36.4262895395999067
 30
0.0
  0
VERTEX
  5
4BF7
  8
0
 10
178.3971039392581019
 20
36.3706531478663919
 30
0.0
  0
VERTEX
  5
4BF8
  8
0
 10
178.3578738048057915
 20
36.3134654077408712
 30
0.0
  0
VERTEX
  5
4BF9
  8
0
 10
178.3376423681611129
 20
36.2843194216127429
 30
0.0
  0
VERTEX
  5
4BFA
  8
0
 10
178.3170176719793005
 20
36.2548219075463294
 30
0.0
  0
VERTEX
  5
4BFB
  8
0
 10
178.2746436370397873
 20
36.1948238640972022
 30
0.0
  0
VERTEX
  5
4BFC
  8
0
 10
178.2308651697497055
 20
36.1335771198804423
 30
0.0
  0
VERTEX
  5
4BFD
  8
0
 10
178.2084859922649116
 20
36.1025195857961307
 30
0.0
  0
VERTEX
  5
4BFE
  8
0
 10
178.1858002594998993
 20
36.0711911709533979
 30
0.0
  0
VERTEX
  5
4BFF
  8
0
 10
178.1395672848342997
 20
36.0077737309426311
 30
0.0
  0
VERTEX
  5
4C00
  8
0
 10
178.0922839676512979
 20
35.9434296748739825
 30
0.0
  0
VERTEX
  5
4C01
  8
0
 10
178.0440766714534107
 20
35.8782738447812335
 30
0.0
  0
VERTEX
  5
4C02
  8
0
 10
177.9950769669262058
 20
35.8124262743405097
 30
0.0
  0
VERTEX
  5
4C03
  8
0
 10
177.9454209718005018
 20
35.7460113265304926
 30
0.0
  0
VERTEX
  5
4C04
  8
0
 10
177.9203904995449932
 20
35.7126309522600422
 30
0.0
  0
VERTEX
  5
4C05
  8
0
 10
177.8952487600415111
 20
35.6791569627356466
 30
0.0
  0
VERTEX
  5
4C06
  8
0
 10
177.8447037931543946
 20
35.6119940700646112
 30
0.0
  0
VERTEX
  5
4C07
  8
0
 10
177.7939323737390964
 20
35.5446558431362973
 30
0.0
  0
VERTEX
  5
4C08
  8
0
 10
177.7430831172760008
 20
35.4772772147101705
 30
0.0
  0
VERTEX
  5
4C09
  8
0
 10
177.6923064344892111
 20
35.409994328214573
 30
0.0
  0
VERTEX
  5
4C0A
  8
0
 10
177.6417540133203943
 20
35.3429440441479983
 30
0.0
  0
VERTEX
  5
4C0B
  8
0
 10
177.6166095220389138
 20
35.3095489772762221
 30
0.0
  0
VERTEX
  5
4C0C
  8
0
 10
177.5915476482144015
 20
35.276222701481629
 30
0.0
  0
VERTEX
  5
4C0D
  8
0
 10
177.5408192443352959
 20
35.2086036822111126
 30
0.0
  0
VERTEX
  5
4C0E
  8
0
 10
177.4892404366379992
 20
35.1395581061494795
 30
0.0
  0
VERTEX
  5
4C0F
  8
0
 10
177.4369945090456895
 20
35.0692205821684411
 30
0.0
  0
VERTEX
  5
4C10
  8
0
 10
177.3842766252984973
 20
34.9977234864946922
 30
0.0
  0
VERTEX
  5
4C11
  8
0
 10
177.3312945609955023
 20
34.9251949462202518
 30
0.0
  0
VERTEX
  5
4C12
  8
0
 10
177.3047731525045947
 20
34.8885822473295093
 30
0.0
  0
VERTEX
  5
4C13
  8
0
 10
177.2782701220160106
 20
34.8517568584071569
 30
0.0
  0
VERTEX
  5
4C14
  8
0
 10
177.2254420489119013
 20
34.7775238222931193
 30
0.0
  0
VERTEX
  5
4C15
  8
0
 10
177.1730689777398027
 20
34.7026007313129412
 30
0.0
  0
VERTEX
  5
4C16
  8
0
 10
177.1214329142200938
 20
34.6270791781748812
 30
0.0
  0
VERTEX
  5
4C17
  8
0
 10
177.0708444896727087
 20
34.5510339222953533
 30
0.0
  0
VERTEX
  5
4C18
  8
0
 10
177.0216754550197038
 20
34.4745592363892683
 30
0.0
  0
VERTEX
  5
4C19
  8
0
 10
176.9977534203881078
 20
34.4361888664368507
 30
0.0
  0
VERTEX
  5
4C1A
  8
0
 10
176.9743366983051942
 20
34.3977223060288679
 30
0.0
  0
VERTEX
  5
4C1B
  8
0
 10
176.9292312963575
 20
34.3204581764645127
 30
0.0
  0
VERTEX
  5
4C1C
  8
0
 10
176.8868305526816016
 20
34.2426473531719466
 30
0.0
  0
VERTEX
  5
4C1D
  8
0
 10
176.8477010377293936
 20
34.1641147152558915
 30
0.0
  0
VERTEX
  5
4C1E
  8
0
 10
176.812538175417302
 20
34.0846395115452196
 30
0.0
  0
VERTEX
  5
4C1F
  8
0
 10
176.7941883699643029
 20
34.0377398105370119
 30
0.0
  0
VERTEX
  5
4C20
  8
0
 10
176.7892719786607074
 20
34.0242550294437933
 30
0.0
  0
VERTEX
  5
4C21
  8
0
 10
176.7845091187722915
 20
34.0107292695442993
 30
0.0
  0
VERTEX
  5
4C22
  8
0
 10
176.7821867604517934
 20
34.0039504253824134
 30
0.0
  0
VERTEX
  5
4C23
  8
0
 10
176.7799045969111091
 20
33.9971606096246504
 30
0.0
  0
VERTEX
  5
4C24
  8
0
 10
176.7754633410669953
 20
33.9835470478865318
 30
0.0
  0
VERTEX
  5
4C25
  8
0
 10
176.7711904017716904
 20
33.969886508574632
 30
0.0
  0
VERTEX
  5
4C26
  8
0
 10
176.7691186626900048
 20
33.9630379553357216
 30
0.0
  0
VERTEX
  5
4C27
  8
0
 10
176.7670909522487079
 20
33.9561768498067522
 30
0.0
  0
VERTEX
  5
4C28
  8
0
 10
176.7631702873088955
 20
33.9424158725355483
 30
0.0
  0
VERTEX
  5
4C29
  8
0
 10
176.759433820734813
 20
33.9286013305385268
 30
0.0
  0
VERTEX
  5
4C2A
  8
0
 10
176.7576363851351005
 20
33.9216732605822315
 30
0.0
  0
VERTEX
  5
4C2B
  8
0
 10
176.7558870808992992
 20
33.9147309412809435
 30
0.0
  0
VERTEX
  5
4C2C
  8
0
 10
176.752535704371212
 20
33.9008023974553225
 30
0.0
  0
VERTEX
  5
4C2D
  8
0
 10
176.7493854272761098
 20
33.8868133789459307
 30
0.0
  0
VERTEX
  5
4C2E
  8
0
 10
176.7464420742198001
 20
33.8727615649181715
 30
0.0
  0
VERTEX
  5
4C2F
  8
0
 10
176.7437115446232099
 20
33.858644645684187
 30
0.0
  0
VERTEX
  5
4C30
  8
0
 10
176.7411997963849899
 20
33.8444603339518224
 30
0.0
  0
VERTEX
  5
4C31
  8
0
 10
176.7400278384822911
 20
33.8373421997838477
 30
0.0
  0
VERTEX
  5
4C32
  8
0
 10
176.7389128268634977
 20
33.8302063750297819
 30
0.0
  0
VERTEX
  5
4C33
  8
0
 10
176.7368566512666064
 20
33.8158805555386834
 30
0.0
  0
VERTEX
  5
4C34
  8
0
 10
176.7350372786416131
 20
33.8014807101734505
 30
0.0
  0
VERTEX
  5
4C35
  8
0
 10
176.7334606857720871
 20
33.7870047260722686
 30
0.0
  0
VERTEX
  5
4C36
  8
0
 10
176.7321327894061938
 20
33.7724505443862881
 30
0.0
  0
VERTEX
  5
4C37
  8
0
 10
176.7310594173569882
 20
33.7578161586992564
 30
0.0
  0
VERTEX
  5
4C38
  8
0
 10
176.7306199675903997
 20
33.7504682755314889
 30
0.0
  0
VERTEX
  5
4C39
  8
0
 10
176.7302462791134872
 20
33.7430996100341716
 30
0.0
  0
VERTEX
  5
4C3A
  8
0
 10
176.7296989366990942
 20
33.7282989782836466
 30
0.0
  0
VERTEX
  5
4C3B
  8
0
 10
176.7294227765561914
 20
33.7134123700306034
 30
0.0
  0
VERTEX
  5
4C3C
  8
0
 10
176.7293880185752073
 20
33.7059362365283732
 30
0.0
  0
VERTEX
  5
4C3D
  8
0
 10
176.7294227765561914
 20
33.6984601030261501
 30
0.0
  0
VERTEX
  5
4C3E
  8
0
 10
176.7296989366990942
 20
33.6835734947730998
 30
0.0
  0
VERTEX
  5
4C3F
  8
0
 10
176.7302462791134872
 20
33.668772863022582
 30
0.0
  0
VERTEX
  5
4C40
  8
0
 10
176.7306199675903997
 20
33.6614041975252576
 30
0.0
  0
VERTEX
  5
4C41
  8
0
 10
176.7310594173569882
 20
33.65405631435749
 30
0.0
  0
VERTEX
  5
4C42
  8
0
 10
176.7321327894061938
 20
33.6394219286704583
 30
0.0
  0
VERTEX
  5
4C43
  8
0
 10
176.7334606857720871
 20
33.6248677469844779
 30
0.0
  0
VERTEX
  5
4C44
  8
0
 10
176.7350372786416131
 20
33.6103917628833031
 30
0.0
  0
VERTEX
  5
4C45
  8
0
 10
176.7368566512666064
 20
33.5959919175180701
 30
0.0
  0
VERTEX
  5
4C46
  8
0
 10
176.7389128268634977
 20
33.5816660980269717
 30
0.0
  0
VERTEX
  5
4C47
  8
0
 10
176.7400278384822911
 20
33.5745302732728987
 30
0.0
  0
VERTEX
  5
4C48
  8
0
 10
176.7411997963849899
 20
33.5674121391049312
 30
0.0
  0
VERTEX
  5
4C49
  8
0
 10
176.7437115446232099
 20
33.5532278273725595
 30
0.0
  0
VERTEX
  5
4C4A
  8
0
 10
176.7464420742198001
 20
33.5391109081385821
 30
0.0
  0
VERTEX
  5
4C4B
  8
0
 10
176.7493854272761098
 20
33.5250590941108229
 30
0.0
  0
VERTEX
  5
4C4C
  8
0
 10
176.752535704371212
 20
33.511070075601431
 30
0.0
  0
VERTEX
  5
4C4D
  8
0
 10
176.7558870808992992
 20
33.4971415317758101
 30
0.0
  0
VERTEX
  5
4C4E
  8
0
 10
176.7576363851351005
 20
33.490199212474522
 30
0.0
  0
VERTEX
  5
4C4F
  8
0
 10
176.759433820734813
 20
33.4832711425182197
 30
0.0
  0
VERTEX
  5
4C50
  8
0
 10
176.7631702873088955
 20
33.4694566005211982
 30
0.0
  0
VERTEX
  5
4C51
  8
0
 10
176.7670909522487079
 20
33.4556956232500013
 30
0.0
  0
VERTEX
  5
4C52
  8
0
 10
176.7691186626900048
 20
33.448834517721032
 30
0.0
  0
VERTEX
  5
4C53
  8
0
 10
176.7711904017716904
 20
33.4419859644820008
 30
0.0
  0
VERTEX
  5
4C54
  8
0
 10
176.7754633410669953
 20
33.4283254251702076
 30
0.0
  0
VERTEX
  5
4C55
  8
0
 10
176.7799045969111091
 20
33.4147118634321032
 30
0.0
  0
VERTEX
  5
4C56
  8
0
 10
176.7821867604517934
 20
33.4079220476743401
 30
0.0
  0
VERTEX
  5
4C57
  8
0
 10
176.7845091187722915
 20
33.4011432035124471
 30
0.0
  0
VERTEX
  5
4C58
  8
0
 10
176.7892719786607074
 20
33.3876174436129602
 30
0.0
  0
VERTEX
  5
4C59
  8
0
 10
176.7941883699643029
 20
33.3741326625197416
 30
0.0
  0
VERTEX
  5
4C5A
  8
0
 10
176.812538175417302
 20
33.3272329615115268
 30
0.0
  0
VERTEX
  5
4C5B
  8
0
 10
176.8477010377293936
 20
33.2477577578008621
 30
0.0
  0
VERTEX
  5
4C5C
  8
0
 10
176.8868305526816016
 20
33.1692251198847998
 30
0.0
  0
VERTEX
  5
4C5D
  8
0
 10
176.9292312963575
 20
33.0914142965922409
 30
0.0
  0
VERTEX
  5
4C5E
  8
0
 10
176.9743366983051942
 20
33.0141501670278785
 30
0.0
  0
VERTEX
  5
4C5F
  8
0
 10
176.9977534203881078
 20
32.9756836066199028
 30
0.0
  0
VERTEX
  5
4C60
  8
0
 10
177.0216754550197038
 20
32.9373132366674781
 30
0.0
  0
VERTEX
  5
4C61
  8
0
 10
177.0708444896727087
 20
32.8608385507614003
 30
0.0
  0
VERTEX
  5
4C62
  8
0
 10
177.1214329142200938
 20
32.7847932948818723
 30
0.0
  0
VERTEX
  5
4C63
  8
0
 10
177.1730689777398027
 20
32.7092717417436916
 30
0.0
  0
VERTEX
  5
4C64
  8
0
 10
177.2254420489119013
 20
32.6343486507636271
 30
0.0
  0
VERTEX
  5
4C65
  8
0
 10
177.2782701220160106
 20
32.5601156146495896
 30
0.0
  0
VERTEX
  5
4C66
  8
0
 10
177.3047731525045947
 20
32.5232902257272372
 30
0.0
  0
VERTEX
  5
4C67
  8
0
 10
177.3312945609955023
 20
32.4866775268365018
 30
0.0
  0
VERTEX
  5
4C68
  8
0
 10
177.3842766252984973
 20
32.4141489865620613
 30
0.0
  0
VERTEX
  5
4C69
  8
0
 10
177.4369945090456895
 20
32.3426518908882983
 30
0.0
  0
VERTEX
  5
4C6A
  8
0
 10
177.4892404366379992
 20
32.272314366907267
 30
0.0
  0
VERTEX
  5
4C6B
  8
0
 10
177.5408192443352959
 20
32.203268790845641
 30
0.0
  0
VERTEX
  5
4C6C
  8
0
 10
177.5915476482144015
 20
32.1356497715751175
 30
0.0
  0
VERTEX
  5
4C6D
  8
0
 10
177.6166095220389138
 20
32.1023234957805315
 30
0.0
  0
VERTEX
  5
4C6E
  8
0
 10
177.6417540133203943
 20
32.0689284289087482
 30
0.0
  0
VERTEX
  5
4C6F
  8
0
 10
177.6923064344892111
 20
32.0018781448421805
 30
0.0
  0
VERTEX
  5
4C70
  8
0
 10
177.7430831172760008
 20
31.9345952583465795
 30
0.0
  0
VERTEX
  5
4C71
  8
0
 10
177.7939323737390964
 20
31.8672166299204491
 30
0.0
  0
VERTEX
  5
4C72
  8
0
 10
177.8447037931543946
 20
31.7998784029921389
 30
0.0
  0
VERTEX
  5
4C73
  8
0
 10
177.8952487600415111
 20
31.7327155103210998
 30
0.0
  0
VERTEX
  5
4C74
  8
0
 10
177.9203904995449932
 20
31.6992415207967113
 30
0.0
  0
VERTEX
  5
4C75
  8
0
 10
177.9454209718005018
 20
31.6658611465262609
 30
0.0
  0
VERTEX
  5
4C76
  8
0
 10
177.9950769669262058
 20
31.5994461987162403
 30
0.0
  0
VERTEX
  5
4C77
  8
0
 10
178.0440766714534107
 20
31.5335986282755201
 30
0.0
  0
VERTEX
  5
4C78
  8
0
 10
178.0922839676512979
 20
31.468442798182771
 30
0.0
  0
VERTEX
  5
4C79
  8
0
 10
178.1395672848342997
 20
31.4040987421141189
 30
0.0
  0
VERTEX
  5
4C7A
  8
0
 10
178.1858002594998993
 20
31.3406813021033486
 30
0.0
  0
VERTEX
  5
4C7B
  8
0
 10
178.2084859922649116
 20
31.3093528872606193
 30
0.0
  0
VERTEX
  5
4C7C
  8
0
 10
178.2308651697497055
 20
31.2782953531763006
 30
0.0
  0
VERTEX
  5
4C7D
  8
0
 10
178.2746436370397873
 20
31.2170486089595514
 30
0.0
  0
VERTEX
  5
4C7E
  8
0
 10
178.3170176719793005
 20
31.1570505655104206
 30
0.0
  0
VERTEX
  5
4C7F
  8
0
 10
178.3376423681611129
 20
31.1275530514440106
 30
0.0
  0
VERTEX
  5
4C80
  8
0
 10
178.3578738048057915
 20
31.0984070653158788
 30
0.0
  0
VERTEX
  5
4C81
  8
0
 10
178.3971039392581019
 20
31.0412193251904682
 30
0.0
  0
VERTEX
  5
4C82
  8
0
 10
178.4346062076758983
 20
30.9855829334568398
 30
0.0
  0
VERTEX
  5
4C83
  8
0
 10
178.4526794387354016
 20
30.9583746175311489
 30
0.0
  0
VERTEX
  5
4C84
  8
0
 10
178.4702855464817901
 20
30.9315872208530891
 30
0.0
  0
VERTEX
  5
4C85
  8
0
 10
178.5040529256359036
 20
30.8793167112442006
 30
0.0
  0
VERTEX
  5
4C86
  8
0
 10
178.5358254556037991
 20
30.8288514585418696
 30
0.0
  0
VERTEX
  5
4C87
  8
0
 10
178.5655275796472949
 20
30.7802657911060997
 30
0.0
  0
VERTEX
  5
4C88
  8
0
 10
178.5930922623668096
 20
30.7336269998511398
 30
0.0
  0
VERTEX
  5
4C89
  8
0
 10
178.618528415051486
 20
30.6888747930011085
 30
0.0
  0
VERTEX
  5
4C8A
  8
0
 10
178.6305935302420949
 20
30.6669214203783511
 30
0.0
  0
VERTEX
  5
4C8B
  8
0
 10
178.6422197929489073
 20
30.6452265532707315
 30
0.0
  0
VERTEX
  5
4C8C
  8
0
 10
178.6640342138859978
 20
30.6027368733455205
 30
0.0
  0
VERTEX
  5
4C8D
  8
0
 10
178.6837380786421079
 20
30.5616447581346584
 30
0.0
  0
VERTEX
  5
4C8E
  8
0
 10
178.7011147488144047
 20
30.5221710195619416
 30
0.0
  0
VERTEX
  5
4C8F
  8
0
 10
178.7159666897877912
 20
30.4845154959410785
 30
0.0
  0
VERTEX
  5
4C90
  8
0
 10
178.7281162870305877
 20
30.4488566758782291
 30
0.0
  0
VERTEX
  5
4C91
  8
0
 10
178.7331276220675136
 20
30.4318267090429799
 30
0.0
  0
VERTEX
  5
4C92
  8
0
 10
178.7374059659047987
 20
30.4153542609310499
 30
0.0
  0
VERTEX
  5
4C93
  8
0
 10
178.7437004986250031
 20
30.3841472007940183
 30
0.0
  0
VERTEX
  5
4C94
  8
0
 10
178.7468891771154915
 20
30.3553507282854298
 30
0.0
  0
VERTEX
  5
4C95
  8
0
 10
178.7472912125946891
 20
30.3418840986967098
 30
0.0
  0
SEQEND
  5
4C96
  8
0
  0
POLYLINE
  5
4538
  8
0
 66
     1
 10
0.0
 20
0.0
 30
0.0
  0
VERTEX
  5
4C97
  8
0
 10
178.7472912125946891
 20
30.3418840986967098
 30
0.0
  0
VERTEX
  5
4C98
  8
0
 10
178.7471842362062944
 20
30.3352008231036017
 30
0.0
  0
VERTEX
  5
4C99
  8
0
 10
178.7463253118044122
 20
30.3223383456410183
 30
0.0
  0
VERTEX
  5
4C9A
  8
0
 10
178.7446005336817052
 20
30.3101548556556999
 30
0.0
  0
VERTEX
  5
4C9B
  8
0
 10
178.743411706614296
 20
30.3043198905555684
 30
0.0
  0
SEQEND
  5
4C9C
  8
0
  0
POLYLINE
  5
4539
  8
0
 66
     1
 10
0.0
 20
0.0
 30
0.0
  0
VERTEX
  5
4C9D
  8
0
 10
178.743411706614296
 20
30.3043198905555684
 30
0.0
  0
VERTEX
  5
4C9E
  8
0
 10
178.7421542370998111
 20
30.2988403608362695
 30
0.0
  0
VERTEX
  5
4C9F
  8
0
 10
178.7396248558515879
 20
30.28835838787586
 30
0.0
  0
VERTEX
  5
4CA0
  8
0
 10
178.7370768829188989
 20
30.2785128152535208
 30
0.0
  0
VERTEX
  5
4CA1
  8
0
 10
178.7357961800551038
 20
30.2738286766895115
 30
0.0
  0
VERTEX
  5
4CA2
  8
0
 10
178.7345111385654945
 20
30.2693035746168597
 30
0.0
  0
VERTEX
  5
4CA3
  8
0
 10
178.73192844892381
 20
30.2607300621214108
 30
0.0
  0
VERTEX
  5
4CA4
  8
0
 10
178.7293296624096968
 20
30.2527912100257517
 30
0.0
  0
VERTEX
  5
4CA5
  8
0
 10
178.7267156660761884
 20
30.2454855311148094
 30
0.0
  0
VERTEX
  5
4CA6
  8
0
 10
178.7240873804097987
 20
30.2388110858320296
 30
0.0
  0
VERTEX
  5
4CA7
  8
0
 10
178.721445757818401
 20
30.2327654657996199
 30
0.0
  0
VERTEX
  5
4CA8
  8
0
 10
178.7201202511392069
 20
30.2299775808973017
 30
0.0
  0
VERTEX
  5
4CA9
  8
0
 10
178.7187917810294948
 20
30.2273457796051197
 30
0.0
  0
VERTEX
  5
4CAA
  8
0
 10
178.7161264614055938
 20
30.2225486408083306
 30
0.0
  0
VERTEX
  5
4CAB
  8
0
 10
178.7134508371665902
 20
30.2183701581250297
 30
0.0
  0
VERTEX
  5
4CAC
  8
0
 10
178.7107659715267971
 20
30.2148059277542416
 30
0.0
  0
VERTEX
  5
4CAD
  8
0
 10
178.7080729507381136
 20
30.2118510278196517
 30
0.0
  0
VERTEX
  5
4CAE
  8
0
 10
178.7053728820415017
 20
30.2095000149036004
 30
0.0
  0
VERTEX
  5
4CAF
  8
0
 10
178.7040205559534911
 20
30.208549122017299
 30
0.0
  0
VERTEX
  5
4CB0
  8
0
 10
178.7026668915212042
 20
30.2077469226626398
 30
0.0
  0
VERTEX
  5
4CB1
  8
0
 10
178.6999561218599126
 20
30.2065852625194111
 30
0.0
  0
VERTEX
  5
4CB2
  8
0
 10
178.69724172999139
 20
30.2060080264387807
 30
0.0
  0
VERTEX
  5
4CB3
  8
0
 10
178.6958835405660011
 20
30.2059362365283803
 30
0.0
  0
SEQEND
  5
4CB4
  8
0
  0
POLYLINE
  5
453A
  8
0
 66
     1
 10
0.0
 20
0.0
 30
0.0
  0
VERTEX
  5
4CB5
  8
0
 10
170.4218734742516972
 20
30.2059362365283803
 30
0.0
  0
VERTEX
  5
4CB6
  8
0
 10
170.4355156776483966
 20
30.2060522099723094
 30
0.0
  0
VERTEX
  5
4CB7
  8
0
 10
170.4632850198796916
 20
30.2069772232433706
 30
0.0
  0
VERTEX
  5
4CB8
  8
0
 10
170.4916977348482021
 20
30.2088199635035188
 30
0.0
  0
VERTEX
  5
4CB9
  8
0
 10
170.5061440239583135
 20
30.2100830054694214
 30
0.0
  0
VERTEX
  5
4CBA
  8
0
 10
170.5207494884737116
 20
30.2115724592649713
 30
0.0
  0
VERTEX
  5
4CBB
  8
0
 10
170.5504354081919871
 20
30.2152263453979195
 30
0.0
  0
VERTEX
  5
4CBC
  8
0
 10
170.5807501022426891
 20
30.2197728589533199
 30
0.0
  0
VERTEX
  5
4CBD
  8
0
 10
170.6116876810905865
 20
30.2252028394699401
 30
0.0
  0
VERTEX
  5
4CBE
  8
0
 10
170.6432417807477009
 20
30.2315067333901197
 30
0.0
  0
VERTEX
  5
4CBF
  8
0
 10
170.6754055877694896
 20
30.2386746022129991
 30
0.0
  0
VERTEX
  5
4CC0
  8
0
 10
170.6917138859272995
 20
30.2425793189460101
 30
0.0
  0
VERTEX
  5
4CC1
  8
0
 10
170.708171865715002
 20
30.2466961340180696
 30
0.0
  0
VERTEX
  5
4CC2
  8
0
 10
170.7415329828691029
 20
30.2555606580058409
 30
0.0
  0
VERTEX
  5
4CC3
  8
0
 10
170.7754809410448047
 20
30.2652571617163701
 30
0.0
  0
VERTEX
  5
4CC4
  8
0
 10
170.810007405294499
 20
30.2757743106063799
 30
0.0
  0
VERTEX
  5
4CC5
  8
0
 10
170.845103734378398
 20
30.2871004696837609
 30
0.0
  0
VERTEX
  5
4CC6
  8
0
 10
170.8807610118547018
 20
30.299223726920669
 30
0.0
  0
VERTEX
  5
4CC7
  8
0
 10
170.8987971523162912
 20
30.3055804751800189
 30
0.0
  0
VERTEX
  5
4CC8
  8
0
 10
170.9169700730739976
 20
30.3121319165171599
 30
0.0
  0
VERTEX
  5
4CC9
  8
0
 10
170.9537214326958008
 20
30.3258126050895989
 30
0.0
  0
VERTEX
  5
4CCA
  8
0
 10
170.9910051508429945
 20
30.3402530454218287
 30
0.0
  0
VERTEX
  5
4CCB
  8
0
 10
171.009843413062498
 20
30.3477541019258297
 30
0.0
  0
VERTEX
  5
4CCC
  8
0
 10
171.0288108323736083
 20
30.3554401724223908
 30
0.0
  0
VERTEX
  5
4CCD
  8
0
 10
171.0671276490704997
 20
30.3713606091512283
 30
0.0
  0
VERTEX
  5
4CCE
  8
0
 10
171.1059443623659888
 20
30.3880006752143608
 30
0.0
  0
VERTEX
  5
4CCF
  8
0
 10
171.1255365616790982
 20
30.3965862136876694
 30
0.0
  0
VERTEX
  5
4CD0
  8
0
 10
171.1452493465264979
 20
30.40534639724115
 30
0.0
  0
VERTEX
  5
4CD1
  8
0
 10
171.1850306121579877
 20
30.4233835211621297
 30
0.0
  0
VERTEX
  5
4CD2
  8
0
 10
171.225275829923504
 20
30.4420975260283093
 30
0.0
  0
VERTEX
  5
4CD3
  8
0
 10
171.2659723543758901
 20
30.4614736391395091
 30
0.0
  0
VERTEX
  5
4CD4
  8
0
 10
171.3071072478327892
 20
30.4814968522782692
 30
0.0
  0
VERTEX
  5
4CD5
  8
0
 10
171.3486673042384041
 20
30.5021519388652713
 30
0.0
  0
VERTEX
  5
4CD6
  8
0
 10
171.3696025741313917
 20
30.5127116210844598
 30
0.0
  0
VERTEX
  5
4CD7
  8
0
 10
171.3906390729700888
 20
30.5234234718814186
 30
0.0
  0
VERTEX
  5
4CD8
  8
0
 10
171.4330088825651899
 20
30.5452958424223198
 30
0.0
  0
VERTEX
  5
4CD9
  8
0
 10
171.4757628643585008
 20
30.5677532787700592
 30
0.0
  0
VERTEX
  5
4CDA
  8
0
 10
171.5188894711509136
 20
30.5907812087295987
 30
0.0
  0
VERTEX
  5
4CDB
  8
0
 10
171.5623787602455081
 20
30.6143659770601815
 30
0.0
  0
VERTEX
  5
4CDC
  8
0
 10
171.6062164625934088
 20
30.63849162667168
 30
0.0
  0
VERTEX
  5
4CDD
  8
0
 10
171.6282613943920126
 20
30.6507522210275809
 30
0.0
  0
VERTEX
  5
4CDE
  8
0
 10
171.6503878986790994
 20
30.663141934466239
 30
0.0
  0
VERTEX
  5
4CDF
  8
0
 10
171.6948780620857065
 20
30.6883004557657912
 30
0.0
  0
VERTEX
  5
4CE0
  8
0
 10
171.7396716393172937
 20
30.713950535924031
 30
0.0
  0
VERTEX
  5
4CE1
  8
0
 10
171.8986109335903052
 20
30.8073519049685309
 30
0.0
  0
VERTEX
  5
4CE2
  8
0
 10
172.177262972953713
 20
30.978854013533919
 30
0.0
  0
VERTEX
  5
4CE3
  8
0
 10
172.4605262689937888
 20
31.1614046475526685
 30
0.0
  0
VERTEX
  5
4CE4
  8
0
 10
172.6026594977859077
 20
31.2555741970974204
 30
0.0
  0
VERTEX
  5
4CE5
  8
0
 10
172.7444375896303939
 20
31.3509874979762415
 30
0.0
  0
VERTEX
  5
4CE6
  8
0
 10
173.0273689904350078
 20
31.5452480797471289
 30
0.0
  0
VERTEX
  5
4CE7
  8
0
 10
173.3152634849049889
 20
31.7473952137584092
 30
0.0
  0
VERTEX
  5
4CE8
  8
0
 10
173.6055259392506116
 20
31.9549932348106793
 30
0.0
  0
VERTEX
  5
4CE9
  8
0
 10
173.8944669874674105
 20
32.1648085688476613
 30
0.0
  0
VERTEX
  5
4CEA
  8
0
 10
174.1782769452819934
 20
32.3735145342791384
 30
0.0
  0
VERTEX
  5
4CEB
  8
0
 10
174.3170198348026929
 20
32.4763860392413406
 30
0.0
  0
VERTEX
  5
4CEC
  8
0
 10
174.4529762345522954
 20
32.5776966375989332
 30
0.0
  0
VERTEX
  5
4CED
  8
0
 10
174.7155687224150995
 20
32.7747672966347565
 30
0.0
  0
VERTEX
  5
4CEE
  8
0
 10
174.9656600128880086
 20
32.9643049217779733
 30
0.0
  0
VERTEX
  5
4CEF
  8
0
 10
175.084498990726388
 20
33.0551570488794368
 30
0.0
  0
SEQEND
  5
4CF0
  8
0
  0
POLYLINE
  5
453B
  8
0
 66
     1
 10
0.0
 20
0.0
 30
0.0
  0
VERTEX
  5
4CF1
  8
0
 10
175.084498990726388
 20
33.0551570488794368
 30
0.0
  0
VERTEX
  5
4CF2
  8
0
 10
175.1297974437491121
 20
33.0909234053236787
 30
0.0
  0
VERTEX
  5
4CF3
  8
0
 10
175.212702859958398
 20
33.1626514351161177
 30
0.0
  0
VERTEX
  5
4CF4
  8
0
 10
175.2563169374338941
 20
33.204603116312569
 30
0.0
  0
VERTEX
  5
4CF5
  8
0
 10
175.2681343842288868
 20
33.21660311139442
 30
0.0
  0
VERTEX
  5
4CF6
  8
0
 10
175.2796654702304124
 20
33.2286089761970516
 30
0.0
  0
VERTEX
  5
4CF7
  8
0
 10
175.2853235845745985
 20
33.2346140647419972
 30
0.0
  0
VERTEX
  5
4CF8
  8
0
 10
175.2909100571193903
 20
33.2406205667062977
 30
0.0
  0
VERTEX
  5
4CF9
  8
0
 10
175.3018680100126119
 20
33.2526377388386507
 30
0.0
  0
VERTEX
  5
4CFA
  8
0
 10
175.3125391974662932
 20
33.2646603484439609
 30
0.0
  0
VERTEX
  5
4CFB
  8
0
 10
175.3177672140170102
 20
33.2706736472342826
 30
0.0
  0
VERTEX
  5
4CFC
  8
0
 10
175.3229234914751942
 20
33.276688251307057
 30
0.0
  0
VERTEX
  5
4CFD
  8
0
 10
175.3330207674763983
 20
33.2887213031489182
 30
0.0
  0
VERTEX
  5
4CFE
  8
0
 10
175.3428309043497109
 20
33.3007593596288416
 30
0.0
  0
VERTEX
  5
4CFF
  8
0
 10
175.3476282587049866
 20
33.3067802194852902
 30
0.0
  0
VERTEX
  5
4D00
  8
0
 10
175.3523537844189093
 20
33.3128022763463605
 30
0.0
  0
VERTEX
  5
4D01
  8
0
 10
175.3615892934537897
 20
33.3248499088423387
 30
0.0
  0
VERTEX
  5
4D02
  8
0
 10
175.3705373206709908
 20
33.3369021126012512
 30
0.0
  0
VERTEX
  5
4D03
  8
0
 10
175.3791977587364102
 20
33.3489587430527834
 30
0.0
  0
VERTEX
  5
4D04
  8
0
 10
175.3875705037644082
 20
33.3610196555735001
 30
0.0
  0
VERTEX
  5
4D05
  8
0
 10
175.3956554553211902
 20
33.3730847054884023
 30
0.0
  0
VERTEX
  5
4D06
  8
0
 10
175.3995899781064054
 20
33.3791187367442035
 30
0.0
  0
VERTEX
  5
4D07
  8
0
 10
175.4034525164254035
 20
33.3851537480732077
 30
0.0
  0
VERTEX
  5
4D08
  8
0
 10
175.4109615935481088
 20
33.3972266385553667
 30
0.0
  0
VERTEX
  5
4D09
  8
0
 10
175.4181825966153951
 20
33.4093032321165992
 30
0.0
  0
VERTEX
  5
4D0A
  8
0
 10
175.4251154390090051
 20
33.4213833838937333
 30
0.0
  0
VERTEX
  5
4D0B
  8
0
 10
175.4317600375667894
 20
33.4334669489812768
 30
0.0
  0
VERTEX
  5
4D0C
  8
0
 10
175.4381163125848957
 20
33.4455537824326328
 30
0.0
  0
VERTEX
  5
4D0D
  8
0
 10
175.441186304804404
 20
33.4515983794881322
 30
0.0
  0
VERTEX
  5
4D0E
  8
0
 10
175.4441841878171999
 20
33.4576437392619326
 30
0.0
  0
VERTEX
  5
4D0F
  8
0
 10
175.4499635904776085
 20
33.4697366744461533
 30
0.0
  0
VERTEX
  5
4D10
  8
0
 10
175.4554544512400014
 20
33.4818324429262475
 30
0.0
  0
VERTEX
  5
4D11
  8
0
 10
175.4606567042399092
 20
33.4939308996091611
 30
0.0
  0
VERTEX
  5
4D12
  8
0
 10
175.4655702870743141
 20
33.5060318993698729
 30
0.0
  0
VERTEX
  5
4D13
  8
0
 10
175.4701951408030141
 20
33.5181352970524813
 30
0.0
  0
VERTEX
  5
4D14
  8
0
 10
175.4723992767808056
 20
33.5241878497455517
 30
0.0
  0
VERTEX
  5
4D15
  8
0
 10
175.4745312099493901
 20
33.5302409474727483
 30
0.0
  0
VERTEX
  5
4D16
  8
0
 10
175.4785784425006909
 20
33.5423487054190517
 30
0.0
  0
VERTEX
  5
4D17
  8
0
 10
175.4823367899091124
 20
33.554458425654623
 30
0.0
  0
VERTEX
  5
4D18
  8
0
 10
175.4858062070917981
 20
33.5665699629191678
 30
0.0
  0
VERTEX
  5
4D19
  8
0
 10
175.4889866524322031
 20
33.5786831719307202
 30
0.0
  0
VERTEX
  5
4D1A
  8
0
 10
175.491878087779213
 20
33.5907979073869001
 30
0.0
  0
VERTEX
  5
4D1B
  8
0
 10
175.4932154157312993
 20
33.5968558021198831
 30
0.0
  0
VERTEX
  5
4D1C
  8
0
 10
175.4944804784497023
 20
33.6029140239674007
 30
0.0
  0
VERTEX
  5
4D1D
  8
0
 10
175.4967937932264874
 20
33.6150313763352031
 30
0.0
  0
VERTEX
  5
4D1E
  8
0
 10
175.4988180043609987
 20
33.6271498191383671
 30
0.0
  0
VERTEX
  5
4D1F
  8
0
 10
175.5005530875718875
 20
33.639269207011921
 30
0.0
  0
VERTEX
  5
4D20
  8
0
 10
175.501999022046391
 20
33.6513893945797307
 30
0.0
  0
VERTEX
  5
4D21
  8
0
 10
175.5031557904399051
 20
33.6635102364558705
 30
0.0
  0
VERTEX
  5
4D22
  8
0
 10
175.5036257328847
 20
33.6695708573242882
 30
0.0
  0
VERTEX
  5
4D23
  8
0
 10
175.5040233788768091
 20
33.6756315872465919
 30
0.0
  0
VERTEX
  5
4D24
  8
0
 10
175.5046017769496132
 20
33.6877533015522204
 30
0.0
  0
VERTEX
  5
4D25
  8
0
 10
175.5048909777206063
 20
33.6998752339683278
 30
0.0
  0
VERTEX
  5
4D26
  8
0
 10
175.5049271278982985
 20
33.7059362365283732
 30
0.0
  0
VERTEX
  5
4D27
  8
0
 10
175.5048909777206063
 20
33.7119972390884186
 30
0.0
  0
VERTEX
  5
4D28
  8
0
 10
175.5046017769496132
 20
33.7241191715045332
 30
0.0
  0
VERTEX
  5
4D29
  8
0
 10
175.5040233788768091
 20
33.7362408858101617
 30
0.0
  0
VERTEX
  5
4D2A
  8
0
 10
175.5036257328847
 20
33.7423016157324582
 30
0.0
  0
VERTEX
  5
4D2B
  8
0
 10
175.5031557904399051
 20
33.7483622366008831
 30
0.0
  0
VERTEX
  5
4D2C
  8
0
 10
175.501999022046391
 20
33.7604830784770229
 30
0.0
  0
VERTEX
  5
4D2D
  8
0
 10
175.5005530875718875
 20
33.7726032660448325
 30
0.0
  0
VERTEX
  5
4D2E
  8
0
 10
175.4988180043609987
 20
33.7847226539183794
 30
0.0
  0
VERTEX
  5
4D2F
  8
0
 10
175.4967937932264874
 20
33.7968410967215505
 30
0.0
  0
VERTEX
  5
4D30
  8
0
 10
175.4944804784497023
 20
33.8089584490893529
 30
0.0
  0
VERTEX
  5
4D31
  8
0
 10
175.4932154157312993
 20
33.8150166709368705
 30
0.0
  0
VERTEX
  5
4D32
  8
0
 10
175.491878087779213
 20
33.8210745656698535
 30
0.0
  0
VERTEX
  5
4D33
  8
0
 10
175.4889866524322031
 20
33.8331893011260334
 30
0.0
  0
VERTEX
  5
4D34
  8
0
 10
175.4858062070917981
 20
33.8453025101375715
 30
0.0
  0
VERTEX
  5
4D35
  8
0
 10
175.4823367899091124
 20
33.8574140474021306
 30
0.0
  0
VERTEX
  5
4D36
  8
0
 10
175.4785784425006909
 20
33.8695237676377019
 30
0.0
  0
VERTEX
  5
4D37
  8
0
 10
175.4745312099493901
 20
33.8816315255839982
 30
0.0
  0
VERTEX
  5
4D38
  8
0
 10
175.4723992767808056
 20
33.8876846233112019
 30
0.0
  0
VERTEX
  5
4D39
  8
0
 10
175.4701951408030141
 20
33.8937371760042723
 30
0.0
  0
VERTEX
  5
4D3A
  8
0
 10
175.4655702870743141
 20
33.9058405736868806
 30
0.0
  0
VERTEX
  5
4D3B
  8
0
 10
175.4606567042399092
 20
33.9179415734475924
 30
0.0
  0
VERTEX
  5
4D3C
  8
0
 10
175.4554544512400014
 20
33.930040030130499
 30
0.0
  0
VERTEX
  5
4D3D
  8
0
 10
175.4499635904776085
 20
33.9421357986105932
 30
0.0
  0
VERTEX
  5
4D3E
  8
0
 10
175.4441841878171999
 20
33.954228733794821
 30
0.0
  0
VERTEX
  5
4D3F
  8
0
 10
175.441186304804404
 20
33.9602740935686072
 30
0.0
  0
VERTEX
  5
4D40
  8
0
 10
175.4381163125848957
 20
33.9663186906241208
 30
0.0
  0
VERTEX
  5
4D41
  8
0
 10
175.4317600375667894
 20
33.9784055240754697
 30
0.0
  0
VERTEX
  5
4D42
  8
0
 10
175.4251154390090051
 20
33.9904890891630203
 30
0.0
  0
VERTEX
  5
4D43
  8
0
 10
175.4181825966153951
 20
34.0025692409401472
 30
0.0
  0
VERTEX
  5
4D44
  8
0
 10
175.4109615935481088
 20
34.0146458345013798
 30
0.0
  0
VERTEX
  5
4D45
  8
0
 10
175.4034525164254035
 20
34.0267187249835388
 30
0.0
  0
VERTEX
  5
4D46
  8
0
 10
175.3995899781064054
 20
34.0327537363125501
 30
0.0
  0
VERTEX
  5
4D47
  8
0
 10
175.3956554553211902
 20
34.0387877675683512
 30
0.0
  0
VERTEX
  5
4D48
  8
0
 10
175.3875705037644082
 20
34.0508528174832534
 30
0.0
  0
VERTEX
  5
4D49
  8
0
 10
175.3791977587364102
 20
34.0629137300039702
 30
0.0
  0
VERTEX
  5
4D4A
  8
0
 10
175.3705373206709908
 20
34.0749703604555023
 30
0.0
  0
VERTEX
  5
4D4B
  8
0
 10
175.3615892934537897
 20
34.0870225642144078
 30
0.0
  0
VERTEX
  5
4D4C
  8
0
 10
175.3523537844189093
 20
34.0990701967103931
 30
0.0
  0
VERTEX
  5
4D4D
  8
0
 10
175.3476282587047876
 20
34.1050922535714633
 30
0.0
  0
VERTEX
  5
4D4E
  8
0
 10
175.3428309043497109
 20
34.111113113427912
 30
0.0
  0
VERTEX
  5
4D4F
  8
0
 10
175.3330207674763983
 20
34.1231511699078283
 30
0.0
  0
VERTEX
  5
4D50
  8
0
 10
175.3229234914751942
 20
34.1351842217496895
 30
0.0
  0
VERTEX
  5
4D51
  8
0
 10
175.3177672140170102
 20
34.141198825822471
 30
0.0
  0
VERTEX
  5
4D52
  8
0
 10
175.3125391974662932
 20
34.1472121246127926
 30
0.0
  0
VERTEX
  5
4D53
  8
0
 10
175.3018680100126119
 20
34.1592347342181029
 30
0.0
  0
VERTEX
  5
4D54
  8
0
 10
175.2909100571193903
 20
34.1712519063504487
 30
0.0
  0
VERTEX
  5
4D55
  8
0
 10
175.2853235845745985
 20
34.1772584083147493
 30
0.0
  0
VERTEX
  5
4D56
  8
0
 10
175.2796654702304124
 20
34.1832634968596878
 30
0.0
  0
VERTEX
  5
4D57
  8
0
 10
175.2681343842288868
 20
34.1952693616623336
 30
0.0
  0
VERTEX
  5
4D58
  8
0
 10
175.2563169374338941
 20
34.2072693567441775
 30
0.0
  0
VERTEX
  5
4D59
  8
0
 10
175.212702859958398
 20
34.2492210379406288
 30
0.0
  0
VERTEX
  5
4D5A
  8
0
 10
175.1297974437491121
 20
34.3209490677330677
 30
0.0
  0
VERTEX
  5
4D5B
  8
0
 10
175.084498990726388
 20
34.3567154241773096
 30
0.0
  0
SEQEND
  5
4D5C
  8
0
  0
POLYLINE
  5
453C
  8
0
 66
     1
 10
0.0
 20
0.0
 30
0.0
  0
VERTEX
  5
4D5D
  8
0
 10
175.084498990726388
 20
34.3567154241773096
 30
0.0
  0
VERTEX
  5
4D5E
  8
0
 10
174.9656600128880086
 20
34.4475675512787802
 30
0.0
  0
VERTEX
  5
4D5F
  8
0
 10
174.7155687224150995
 20
34.6371051764219828
 30
0.0
  0
VERTEX
  5
4D60
  8
0
 10
174.4529762345522954
 20
34.8341758354578204
 30
0.0
  0
VERTEX
  5
4D61
  8
0
 10
174.3170198348026929
 20
34.935486433815413
 30
0.0
  0
VERTEX
  5
4D62
  8
0
 10
174.1782769452819934
 20
35.0383579387776081
 30
0.0
  0
VERTEX
  5
4D63
  8
0
 10
173.8944669874674105
 20
35.2470639042090923
 30
0.0
  0
VERTEX
  5
4D64
  8
0
 10
173.6055259392506116
 20
35.4568792382460671
 30
0.0
  0
VERTEX
  5
4D65
  8
0
 10
173.3152634849049889
 20
35.6644772592983372
 30
0.0
  0
VERTEX
  5
4D66
  8
0
 10
173.0273689904350078
 20
35.8666243933096212
 30
0.0
  0
VERTEX
  5
4D67
  8
0
 10
172.7444375896303939
 20
36.060884975080512
 30
0.0
  0
VERTEX
  5
4D68
  8
0
 10
172.6026594977859077
 20
36.1562982759593297
 30
0.0
  0
VERTEX
  5
4D69
  8
0
 10
172.4605262689937888
 20
36.2504678255040815
 30
0.0
  0
VERTEX
  5
4D6A
  8
0
 10
172.177262972953713
 20
36.4330184595228275
 30
0.0
  0
VERTEX
  5
4D6B
  8
0
 10
171.8986109335903052
 20
36.6045205680882191
 30
0.0
  0
VERTEX
  5
4D6C
  8
0
 10
171.7396716393172937
 20
36.697921937132719
 30
0.0
  0
VERTEX
  5
4D6D
  8
0
 10
171.6948780620857065
 20
36.7235720172909623
 30
0.0
  0
VERTEX
  5
4D6E
  8
0
 10
171.6503878986789005
 20
36.7487305385905074
 30
0.0
  0
VERTEX
  5
4D6F
  8
0
 10
171.6282613943920126
 20
36.7611202520291727
 30
0.0
  0
VERTEX
  5
4D70
  8
0
 10
171.6062164625934088
 20
36.7733808463850735
 30
0.0
  0
VERTEX
  5
4D71
  8
0
 10
171.5623787602455081
 20
36.7975064959965721
 30
0.0
  0
VERTEX
  5
4D72
  8
0
 10
171.5188894711509136
 20
36.8210912643271513
 30
0.0
  0
VERTEX
  5
4D73
  8
0
 10
171.4757628643585008
 20
36.8441191942868116
 30
0.0
  0
VERTEX
  5
4D74
  8
0
 10
171.4330088825649909
 20
36.8665766306344267
 30
0.0
  0
VERTEX
  5
4D75
  8
0
 10
171.3906390729700888
 20
36.8884490011753314
 30
0.0
  0
VERTEX
  5
4D76
  8
0
 10
171.3696025741313917
 20
36.8991608519722902
 30
0.0
  0
VERTEX
  5
4D77
  8
0
 10
171.3486673042384041
 20
36.9097205341915924
 30
0.0
  0
VERTEX
  5
4D78
  8
0
 10
171.3071072478327892
 20
36.9303756207784772
 30
0.0
  0
VERTEX
  5
4D79
  8
0
 10
171.2659723543756058
 20
36.9503988339172409
 30
0.0
  0
VERTEX
  5
4D7A
  8
0
 10
171.225275829923504
 20
36.9697749470284407
 30
0.0
  0
VERTEX
  5
4D7B
  8
0
 10
171.1850306121579877
 20
36.9884889518946167
 30
0.0
  0
VERTEX
  5
4D7C
  8
0
 10
171.1452493465264979
 20
37.0065260758157066
 30
0.0
  0
VERTEX
  5
4D7D
  8
0
 10
171.1255365616790982
 20
37.015286259369077
 30
0.0
  0
VERTEX
  5
4D7E
  8
0
 10
171.1059443623659888
 20
37.0238717978423892
 30
0.0
  0
VERTEX
  5
4D7F
  8
0
 10
171.0671276490704997
 20
37.0405118639055217
 30
0.0
  0
VERTEX
  5
4D80
  8
0
 10
171.0288108323736083
 20
37.0564323006343628
 30
0.0
  0
VERTEX
  5
4D81
  8
0
 10
171.009843413062498
 20
37.0641183711309168
 30
0.0
  0
VERTEX
  5
4D82
  8
0
 10
170.9910051508429945
 20
37.0716194276349071
 30
0.0
  0
VERTEX
  5
4D83
  8
0
 10
170.9537214326958008
 20
37.0860598679671511
 30
0.0
  0
VERTEX
  5
4D84
  8
0
 10
170.9169700730739976
 20
37.0997405565395866
 30
0.0
  0
VERTEX
  5
4D85
  8
0
 10
170.8987971523162912
 20
37.1062919978767312
 30
0.0
  0
VERTEX
  5
4D86
  8
0
 10
170.8807610118547018
 20
37.112648746136081
 30
0.0
  0
VERTEX
  5
4D87
  8
0
 10
170.845103734378398
 20
37.124772003372982
 30
0.0
  0
VERTEX
  5
4D88
  8
0
 10
170.810007405294499
 20
37.1360981624503665
 30
0.0
  0
VERTEX
  5
4D89
  8
0
 10
170.7754809410448047
 20
37.1466153113403834
 30
0.0
  0
VERTEX
  5
4D8A
  8
0
 10
170.7415329828691029
 20
37.1563118150509126
 30
0.0
  0
VERTEX
  5
4D8B
  8
0
 10
170.708171865715002
 20
37.1651763390386805
 30
0.0
  0
VERTEX
  5
4D8C
  8
0
 10
170.6917138859272995
 20
37.1692931541107399
 30
0.0
  0
VERTEX
  5
4D8D
  8
0
 10
170.6754055877694896
 20
37.1731978708437509
 30
0.0
  0
VERTEX
  5
4D8E
  8
0
 10
170.6432417807477009
 20
37.1803657396666267
 30
0.0
  0
VERTEX
  5
4D8F
  8
0
 10
170.6116876810905865
 20
37.1866696335868099
 30
0.0
  0
VERTEX
  5
4D90
  8
0
 10
170.5807501022426891
 20
37.1920996141034266
 30
0.0
  0
VERTEX
  5
4D91
  8
0
 10
170.5504354081919871
 20
37.1966461276588234
 30
0.0
  0
VERTEX
  5
4D92
  8
0
 10
170.5207494884737116
 20
37.2003000137917823
 30
0.0
  0
VERTEX
  5
4D93
  8
0
 10
170.5061440239583135
 20
37.2017894675873322
 30
0.0
  0
VERTEX
  5
4D94
  8
0
 10
170.4916977348482021
 20
37.2030525095532312
 30
0.0
  0
VERTEX
  5
4D95
  8
0
 10
170.4632850198796916
 20
37.2048952498133829
 30
0.0
  0
VERTEX
  5
4D96
  8
0
 10
170.4355156776483966
 20
37.2058202630844406
 30
0.0
  0
VERTEX
  5
4D97
  8
0
 10
170.4218734742516972
 20
37.2059362365283732
 30
0.0
  0
SEQEND
  5
4D98
  8
0
  0
LINE
  5
453D
  8
0
 10
178.6958835405660011
 20
30.2059362365283803
 30
0.0
 11
170.4218734742516972
 21
30.2059362365283803
 31
0.0
  0
POLYLINE
  5
453E
  8
0
 66
     1
 10
0.0
 20
0.0
 30
0.0
  0
VERTEX
  5
4D99
  8
0
 10
178.6958835405660011
 20
30.2059362365283803
 30
0.0
  0
VERTEX
  5
4D9A
  8
0
 10
178.511078880299408
 20
30.10853010020708
 30
0.0
  0
VERTEX
  5
4D9B
  8
0
 10
177.9913169132562132
 20
29.9141969633828886
 30
0.0
  0
VERTEX
  5
4D9C
  8
0
 10
177.2720100535914014
 20
29.720737520901821
 30
0.0
  0
VERTEX
  5
4D9D
  8
0
 10
176.8378421348083975
 20
29.6244232054008307
 30
0.0
  0
SEQEND
  5
4D9E
  8
0
  0
POLYLINE
  5
453F
  8
0
 66
     1
 10
0.0
 20
0.0
 30
0.0
  0
VERTEX
  5
4D9F
  8
0
 10
166.8802497935785141
 20
29.7079224949137597
 30
0.0
  0
VERTEX
  5
4DA0
  8
0
 10
166.8805153032635928
 20
29.7104886787859712
 30
0.0
  0
VERTEX
  5
4DA1
  8
0
 10
166.8826392872701945
 20
29.7156204442439993
 30
0.0
  0
VERTEX
  5
4DA2
  8
0
 10
166.8868867567815926
 20
29.7207504029837608
 30
0.0
  0
VERTEX
  5
4DA3
  8
0
 10
166.8898065065374965
 20
29.7233143285574215
 30
0.0
  0
VERTEX
  5
4DA4
  8
0
 10
166.8932567149117858
 20
29.7258773509972798
 30
0.0
  0
VERTEX
  5
4DA5
  8
0
 10
166.9017476666230948
 20
29.7310000849837515
 30
0.0
  0
VERTEX
  5
4DA6
  8
0
 10
166.9123576190789038
 20
29.7361174026309492
 30
0.0
  0
VERTEX
  5
4DA7
  8
0
 10
166.9250840821100041
 20
29.7412281028979386
 30
0.0
  0
VERTEX
  5
4DA8
  8
0
 10
166.9399240687993995
 20
29.7463309862971492
 30
0.0
  0
VERTEX
  5
4DA9
  8
0
 10
166.9568740961840092
 20
29.7514248551754008
 30
0.0
  0
VERTEX
  5
4DAA
  8
0
 10
166.9661391512717898
 20
29.7539680354733491
 30
0.0
  0
VERTEX
  5
4DAB
  8
0
 10
166.9759301860707978
 20
29.7565085139951897
 30
0.0
  0
VERTEX
  5
4DAC
  8
0
 10
166.9970878659721052
 20
29.7615807696155308
 30
0.0
  0
VERTEX
  5
4DAD
  8
0
 10
167.0203421701534978
 20
29.7666404315717692
 30
0.0
  0
VERTEX
  5
4DAE
  8
0
 10
167.0456876408011055
 20
29.771686312354749
 30
0.0
  0
VERTEX
  5
4DAF
  8
0
 10
167.0731183293009963
 20
29.7767172276899217
 30
0.0
  0
VERTEX
  5
4DB0
  8
0
 10
167.1026277976363872
 20
29.7817319968153313
 30
0.0
  0
VERTEX
  5
4DB1
  8
0
 10
167.1181599289101882
 20
29.7842329585897687
 30
0.0
  0
VERTEX
  5
4DB2
  8
0
 10
167.1342091198978039
 20
29.7867294427583182
 30
0.0
  0
VERTEX
  5
4DB3
  8
0
 10
167.1678548839099108
 20
29.7917083926120085
 30
0.0
  0
VERTEX
  5
4DB4
  8
0
 10
167.2035571929694981
 20
29.7966676778106603
 30
0.0
  0
VERTEX
  5
4DB5
  8
0
 10
167.2221769521385966
 20
29.7991395822422191
 30
0.0
  0
SEQEND
  5
4DB6
  8
0
  0
LINE
  5
4540
  8
0
 10
167.2221769521385966
 20
29.7991395822422191
 30
0.0
 11
170.0585857383121038
 21
30.1701940331116703
 31
0.0
  0
POLYLINE
  5
4541
  8
0
 66
     1
 10
0.0
 20
0.0
 30
0.0
  0
VERTEX
  5
4DB7
  8
0
 10
170.0585857383121038
 20
30.1701940331116703
 30
0.0
  0
VERTEX
  5
4DB8
  8
0
 10
170.1077715991121124
 20
30.1763004051063
 30
0.0
  0
VERTEX
  5
4DB9
  8
0
 10
170.2199153799548981
 20
30.1883480737275285
 30
0.0
  0
VERTEX
  5
4DBA
  8
0
 10
170.3501221660841907
 20
30.2001441587098007
 30
0.0
  0
VERTEX
  5
4DBB
  8
0
 10
170.4218734742516972
 20
30.2059362365283803
 30
0.0
  0
SEQEND
  5
4DBC
  8
0
  0
POLYLINE
  5
4542
  8
0
 66
     1
 10
0.0
 20
0.0
 30
0.0
  0
VERTEX
  5
4DBD
  8
0
 10
176.8378421348083975
 20
29.6244232054008307
 30
0.0
  0
VERTEX
  5
4DBE
  8
0
 10
176.832365157069205
 20
29.6233725458714616
 30
0.0
  0
VERTEX
  5
4DBF
  8
0
 10
176.8214205740864031
 20
29.6218510427174806
 30
0.0
  0
VERTEX
  5
4DC0
  8
0
 10
176.810491834755112
 20
29.6210949535544614
 30
0.0
  0
VERTEX
  5
4DC1
  8
0
 10
176.8050346705612981
 20
29.621000914545899
 30
0.0
  0
SEQEND
  5
4DC2
  8
0
  0
LINE
  5
4543
  8
0
 10
166.8802497935785141
 20
29.621000914545899
 30
0.0
 11
166.8802497935785141
 21
37.790871558510851
 31
0.0
  0
POLYLINE
  5
4544
  8
0
 66
     1
 10
0.0
 20
0.0
 30
0.0
  0
VERTEX
  5
4DC3
  8
0
 10
171.4744559959200956
 20
40.7059362365283732
 30
0.0
  0
VERTEX
  5
4DC4
  8
0
 10
171.5182845139131018
 20
40.7047633198212679
 30
0.0
  0
VERTEX
  5
4DC5
  8
0
 10
171.6048468627558918
 20
40.6954820532005215
 30
0.0
  0
VERTEX
  5
4DC6
  8
0
 10
171.6897626752574979
 20
40.6772150653530389
 30
0.0
  0
VERTEX
  5
4DC7
  8
0
 10
171.7315350136142911
 20
40.6648256327929403
 30
0.0
  0
VERTEX
  5
4DC8
  8
0
 10
171.7729051063992927
 20
40.6503004946255189
 30
0.0
  0
VERTEX
  5
4DC9
  8
0
 10
171.8558013352231058
 20
40.6142982635194585
 30
0.0
  0
VERTEX
  5
4DCA
  8
0
 10
171.9388497288323094
 20
40.5687324210626912
 30
0.0
  0
VERTEX
  5
4DCB
  8
0
 10
172.0217672963466953
 20
40.5133843239420912
 30
0.0
  0
VERTEX
  5
4DCC
  8
0
 10
172.1042809166702057
 20
40.448105652094327
 30
0.0
  0
VERTEX
  5
4DCD
  8
0
 10
172.1861309680504917
 20
40.3728147968737403
 30
0.0
  0
VERTEX
  5
4DCE
  8
0
 10
172.226730224938791
 20
40.3314064858599295
 30
0.0
  0
VERTEX
  5
4DCF
  8
0
 10
172.2670725927958131
 20
40.2874933590372777
 30
0.0
  0
VERTEX
  5
4DD0
  8
0
 10
172.3468704450210112
 20
40.1921899848569026
 30
0.0
  0
VERTEX
  5
4DD1
  8
0
 10
172.4252986086723922
 20
40.0870216563538406
 30
0.0
  0
VERTEX
  5
4DD2
  8
0
 10
172.5021439169283894
 20
39.9721703045295271
 30
0.0
  0
VERTEX
  5
4DD3
  8
0
 10
172.5772140517979096
 20
39.8478685126471035
 30
0.0
  0
VERTEX
  5
4DD4
  8
0
 10
172.6503568925110983
 20
39.7143556174344212
 30
0.0
  0
VERTEX
  5
4DD5
  8
0
 10
172.6861527374227876
 20
39.6442481350484286
 30
0.0
  0
VERTEX
  5
4DD6
  8
0
 10
172.7214036063693925
 20
39.5719716899144487
 30
0.0
  0
VERTEX
  5
4DD7
  8
0
 10
172.7901915573798135
 20
39.4211309337248395
 30
0.0
  0
VERTEX
  5
4DD8
  8
0
 10
172.856572691129486
 20
39.2623080077602324
 30
0.0
  0
VERTEX
  5
4DD9
  8
0
 10
172.888819094854199
 20
39.180066289235242
 30
0.0
  0
SEQEND
  5
4DDA
  8
0
  0
POLYLINE
  5
4545
  8
0
 66
     1
 10
0.0
 20
0.0
 30
0.0
  0
VERTEX
  5
4DDB
  8
0
 10
172.888819094854199
 20
28.2318061838215115
 30
0.0
  0
VERTEX
  5
4DDC
  8
0
 10
172.8565726911288039
 20
28.1495644652944783
 30
0.0
  0
VERTEX
  5
4DDD
  8
0
 10
172.790191557379103
 20
27.9907415393300916
 30
0.0
  0
VERTEX
  5
4DDE
  8
0
 10
172.7214036063687104
 20
27.8399007831407097
 30
0.0
  0
VERTEX
  5
4DDF
  8
0
 10
172.6861527374221055
 20
27.7676243380068399
 30
0.0
  0
VERTEX
  5
4DE0
  8
0
 10
172.6503568925103878
 20
27.697516855620961
 30
0.0
  0
VERTEX
  5
4DE1
  8
0
 10
172.5772140517970001
 20
27.5640039604083995
 30
0.0
  0
VERTEX
  5
4DE2
  8
0
 10
172.5021439169277073
 20
27.4397021685261997
 30
0.0
  0
VERTEX
  5
4DE3
  8
0
 10
172.4252986086719091
 20
27.3248508167019999
 30
0.0
  0
VERTEX
  5
4DE4
  8
0
 10
172.3468704450206133
 20
27.2196824881990516
 30
0.0
  0
VERTEX
  5
4DE5
  8
0
 10
172.2670725927951025
 20
27.1243791140188897
 30
0.0
  0
VERTEX
  5
4DE6
  8
0
 10
172.2267302249383931
 20
27.0804659871962485
 30
0.0
  0
VERTEX
  5
4DE7
  8
0
 10
172.1861309680500085
 20
27.0390576761825514
 30
0.0
  0
VERTEX
  5
4DE8
  8
0
 10
172.1042809166696941
 20
26.9637668209620607
 30
0.0
  0
VERTEX
  5
4DE9
  8
0
 10
172.0217672963462974
 20
26.8984881491143213
 30
0.0
  0
VERTEX
  5
4DEA
  8
0
 10
171.9388497288319115
 20
26.8431400519938315
 30
0.0
  0
VERTEX
  5
4DEB
  8
0
 10
171.8558013352227931
 20
26.7975742095371814
 30
0.0
  0
VERTEX
  5
4DEC
  8
0
 10
171.7729051063990937
 20
26.7615719784311104
 30
0.0
  0
VERTEX
  5
4DED
  8
0
 10
171.7315350136140921
 20
26.7470468402636889
 30
0.0
  0
VERTEX
  5
4DEE
  8
0
 10
171.6897626752574979
 20
26.7346574077037111
 30
0.0
  0
VERTEX
  5
4DEF
  8
0
 10
171.6048468627558918
 20
26.7163904198562285
 30
0.0
  0
VERTEX
  5
4DF0
  8
0
 10
171.5182845139131018
 20
26.7071091532354785
 30
0.0
  0
VERTEX
  5
4DF1
  8
0
 10
171.4744559959200956
 20
26.7059362365283803
 30
0.0
  0
SEQEND
  5
4DF2
  8
0
  0
POLYLINE
  5
4546
  8
0
 66
     1
 10
0.0
 20
0.0
 30
0.0
  0
VERTEX
  5
4DF3
  8
0
 10
176.8050346705612981
 20
37.790871558510851
 30
0.0
  0
VERTEX
  5
4DF4
  8
0
 10
176.810491834755112
 20
37.7907775195022921
 30
0.0
  0
VERTEX
  5
4DF5
  8
0
 10
176.8214205740864031
 20
37.790021430339273
 30
0.0
  0
VERTEX
  5
4DF6
  8
0
 10
176.832365157069205
 20
37.7884999271852919
 30
0.0
  0
VERTEX
  5
4DF7
  8
0
 10
176.8378421348083975
 20
37.7874492676559228
 30
0.0
  0
SEQEND
  5
4DF8
  8
0
  0
POLYLINE
  5
4547
  8
0
 66
     1
 10
0.0
 20
0.0
 30
0.0
  0
VERTEX
  5
4DF9
  8
0
 10
166.8802497935785141
 20
37.4513721084006193
 30
0.0
  0
VERTEX
  5
4DFA
  8
0
 10
166.8798933278820016
 20
37.443543072428497
 30
0.0
  0
VERTEX
  5
4DFB
  8
0
 10
166.877020981480598
 20
37.4284706177666067
 30
0.0
  0
VERTEX
  5
4DFC
  8
0
 10
166.8712261805690105
 20
37.4141996757613313
 30
0.0
  0
VERTEX
  5
4DFD
  8
0
 10
166.8672178275486999
 20
37.4073720074619587
 30
0.0
  0
VERTEX
  5
4DFE
  8
0
 10
166.8624614594614002
 20
37.4007531114696192
 30
0.0
  0
VERTEX
  5
4DFF
  8
0
 10
166.8506844642865872
 20
37.3881514550663496
 30
0.0
  0
VERTEX
  5
4E00
  8
0
 10
166.8358579837583875
 20
37.3764128182060631
 30
0.0
  0
VERTEX
  5
4E01
  8
0
 10
166.8179499338455116
 20
37.3655528308020166
 30
0.0
  0
VERTEX
  5
4E02
  8
0
 10
166.7969332954818924
 20
37.355584598307253
 30
0.0
  0
VERTEX
  5
4E03
  8
0
 10
166.7727860042134012
 20
37.3465186795560911
 30
0.0
  0
VERTEX
  5
4E04
  8
0
 10
166.7595327851030902
 20
37.3423266903158719
 30
0.0
  0
VERTEX
  5
4E05
  8
0
 10
166.745490790474804
 20
37.3383630851714088
 30
0.0
  0
VERTEX
  5
4E06
  8
0
 10
166.7150349690573137
 20
37.3311232964823603
 30
0.0
  0
VERTEX
  5
4E07
  8
0
 10
166.6814102089379048
 20
37.3248023102398818
 30
0.0
  0
VERTEX
  5
4E08
  8
0
 10
166.644612678757511
 20
37.3194007513341219
 30
0.0
  0
VERTEX
  5
4E09
  8
0
 10
166.6046434075809941
 20
37.3149169459067025
 30
0.0
  0
VERTEX
  5
4E0A
  8
0
 10
166.5615083276057078
 20
37.3113469093874528
 30
0.0
  0
VERTEX
  5
4E0B
  8
0
 10
166.5387567952163863
 20
37.3099026768161366
 30
0.0
  0
VERTEX
  5
4E0C
  8
0
 10
166.5152182356002868
 20
37.3086843456061388
 30
0.0
  0
VERTEX
  5
4E0D
  8
0
 10
166.4657887118077895
 20
37.3069206662014494
 30
0.0
  0
VERTEX
  5
4E0E
  8
0
 10
166.4132399970110043
 20
37.3060450294206021
 30
0.0
  0
VERTEX
  5
4E0F
  8
0
 10
166.3858035030092992
 20
37.3059362365284031
 30
0.0
  0
SEQEND
  5
4E10
  8
0
  0
POLYLINE
  5
4548
  8
0
 66
     1
 10
0.0
 20
0.0
 30
0.0
  0
VERTEX
  5
4E11
  8
0
 10
166.3858035030092992
 20
37.3059362365284031
 30
0.0
  0
VERTEX
  5
4E12
  8
0
 10
166.3536895939120939
 20
37.3060758613173675
 30
0.0
  0
VERTEX
  5
4E13
  8
0
 10
166.2865004888423925
 20
37.307183870812537
 30
0.0
  0
VERTEX
  5
4E14
  8
0
 10
166.2154047677722986
 20
37.3093752005794386
 30
0.0
  0
VERTEX
  5
4E15
  8
0
 10
166.1784083131506122
 20
37.3108682638570599
 30
0.0
  0
SEQEND
  5
4E16
  8
0
  0
POLYLINE
  5
4549
  8
0
 66
     1
 10
0.0
 20
0.0
 30
0.0
  0
VERTEX
  5
4E17
  8
0
 10
172.888819094854199
 20
39.180066289235242
 30
0.0
  0
VERTEX
  5
4E18
  8
0
 10
173.1445292329628955
 20
38.8806750019834908
 30
0.0
  0
VERTEX
  5
4E19
  8
0
 10
173.6393803590785865
 20
38.3641805788404326
 30
0.0
  0
VERTEX
  5
4E1A
  8
0
 10
174.1080180637511035
 20
37.9566308690928125
 30
0.0
  0
VERTEX
  5
4E1B
  8
0
 10
174.3340705531782078
 20
37.7907506880260371
 30
0.0
  0
SEQEND
  5
4E1C
  8
0
  0
LINE
  5
454A
  8
0
 10
151.8802497935785141
 20
27.2059362365283697
 30
0.0
 11
151.8802497935785141
 21
40.2059362365283732
 31
0.0
  0
LINE
  5
454B
  8
0
 10
162.3802497935785141
 20
40.7059362365283732
 30
0.0
 11
162.3802497935785141
 21
26.7059362365283803
 31
0.0
  0
POLYLINE
  5
454C
  8
0
 66
     1
 10
0.0
 20
0.0
 30
0.0
  0
VERTEX
  5
4E1D
  8
0
 10
166.1784083131506122
 20
37.3108682638570599
 30
0.0
  0
VERTEX
  5
4E1E
  8
0
 10
166.0857675375208942
 20
37.3156733520578427
 30
0.0
  0
VERTEX
  5
4E1F
  8
0
 10
165.8974887244357888
 20
37.3301880498380569
 30
0.0
  0
VERTEX
  5
4E20
  8
0
 10
165.7053390650233098
 20
37.3512826535389877
 30
0.0
  0
VERTEX
  5
4E21
  8
0
 10
165.6078623505244991
 20
37.3643070452158099
 30
0.0
  0
VERTEX
  5
4E22
  8
0
 10
165.5094791464958064
 20
37.3789849805449421
 30
0.0
  0
VERTEX
  5
4E23
  8
0
 10
165.3100821687924054
 20
37.4132990390535269
 30
0.0
  0
VERTEX
  5
4E24
  8
0
 10
165.1073332397421893
 20
37.4542052762272988
 30
0.0
  0
VERTEX
  5
4E25
  8
0
 10
164.9014286345000073
 20
37.5016609820285112
 30
0.0
  0
VERTEX
  5
4E26
  8
0
 10
164.6925749918750057
 20
37.5556008396832794
 30
0.0
  0
VERTEX
  5
4E27
  8
0
 10
164.4809879988665102
 20
37.6159377468211531
 30
0.0
  0
VERTEX
  5
4E28
  8
0
 10
164.3742339803183938
 20
37.6484737370611811
 30
0.0
  0
VERTEX
  5
4E29
  8
0
 10
164.2668749212519117
 20
37.6825690455733593
 30
0.0
  0
VERTEX
  5
4E2A
  8
0
 10
164.0504606583214979
 20
37.7553701288884511
 30
0.0
  0
VERTEX
  5
4E2B
  8
0
 10
163.8319900024212075
 20
37.8341929088808229
 30
0.0
  0
VERTEX
  5
4E2C
  8
0
 10
163.611718071507994
 20
37.9188687135331293
 30
0.0
  0
VERTEX
  5
4E2D
  8
0
 10
163.3899094158902869
 20
38.0092089225714815
 30
0.0
  0
VERTEX
  5
4E2E
  8
0
 10
163.1668371042341903
 20
38.1050056950761018
 30
0.0
  0
VERTEX
  5
4E2F
  8
0
 10
163.0549145098063946
 20
38.1548802849910089
 30
0.0
  0
VERTEX
  5
4E30
  8
0
 10
162.942781776953808
 20
38.2060327849078476
 30
0.0
  0
VERTEX
  5
4E31
  8
0
 10
162.7180307045657059
 20
38.3120464196575767
 30
0.0
  0
VERTEX
  5
4E32
  8
0
 10
162.4928800928161934
 20
38.422784606484008
 30
0.0
  0
VERTEX
  5
4E33
  8
0
 10
162.3802497935785141
 20
38.4798386858713002
 30
0.0
  0
SEQEND
  5
4E34
  8
0
  0
POLYLINE
  5
454D
  8
0
 66
     1
 10
0.0
 20
0.0
 30
0.0
  0
VERTEX
  5
4E35
  8
0
 10
162.3802497935785141
 20
28.93203378718556
 30
0.0
  0
VERTEX
  5
4E36
  8
0
 10
162.4928800928161934
 20
28.9890878665727314
 30
0.0
  0
VERTEX
  5
4E37
  8
0
 10
162.7180307045657059
 20
29.0998260533991697
 30
0.0
  0
VERTEX
  5
4E38
  8
0
 10
162.942781776953808
 20
29.205839688149009
 30
0.0
  0
VERTEX
  5
4E39
  8
0
 10
163.0549145098063946
 20
29.2569921880657411
 30
0.0
  0
VERTEX
  5
4E3A
  8
0
 10
163.1668371042339913
 20
29.3068667779806411
 30
0.0
  0
VERTEX
  5
4E3B
  8
0
 10
163.3899094158902869
 20
29.4026635504852685
 30
0.0
  0
VERTEX
  5
4E3C
  8
0
 10
163.611718071507994
 20
29.4930037595236207
 30
0.0
  0
VERTEX
  5
4E3D
  8
0
 10
163.8319900024212075
 20
29.5776795641759307
 30
0.0
  0
VERTEX
  5
4E3E
  8
0
 10
164.0504606583214979
 20
29.6565023441682989
 30
0.0
  0
VERTEX
  5
4E3F
  8
0
 10
164.2668749212519117
 20
29.7293034274833907
 30
0.0
  0
VERTEX
  5
4E40
  8
0
 10
164.3742339803183938
 20
29.7633987359956791
 30
0.0
  0
VERTEX
  5
4E41
  8
0
 10
164.4809879988665102
 20
29.7959347262357213
 30
0.0
  0
VERTEX
  5
4E42
  8
0
 10
164.6925749918750057
 20
29.8562716333735807
 30
0.0
  0
VERTEX
  5
4E43
  8
0
 10
164.9014286345000073
 20
29.9102114910282388
 30
0.0
  0
VERTEX
  5
4E44
  8
0
 10
165.1073332397421893
 20
29.9576671968294512
 30
0.0
  0
VERTEX
  5
4E45
  8
0
 10
165.3100821687924054
 20
29.9985734340032195
 30
0.0
  0
VERTEX
  5
4E46
  8
0
 10
165.5094791464958064
 20
30.0328874925118114
 30
0.0
  0
VERTEX
  5
4E47
  8
0
 10
165.6078623505244991
 20
30.0475654278409401
 30
0.0
  0
VERTEX
  5
4E48
  8
0
 10
165.7053390650233098
 20
30.0605898195177588
 30
0.0
  0
VERTEX
  5
4E49
  8
0
 10
165.8974887244357888
 20
30.0816844232186895
 30
0.0
  0
VERTEX
  5
4E4A
  8
0
 10
166.0857675375208942
 20
30.0961991209989002
 30
0.0
  0
VERTEX
  5
4E4B
  8
0
 10
166.1784083131506122
 20
30.1010042091998002
 30
0.0
  0
SEQEND
  5
4E4C
  8
0
  0
LINE
  5
454E
  8
0
 10
147.8802497935785141
 20
38.4059362365284187
 30
0.0
 11
147.8802497935785141
 21
29.0059362365283313
 31
0.0
  0
LINE
  5
454F
  8
0
 10
148.180249793578696
 20
38.7059362365283732
 30
0.0
 11
148.180249793578696
 21
28.7059362365283697
 31
0.0
  0
LINE
  5
4550
  8
1
 10
181.7472912125946891
 20
33.7059362365283732
 30
0.0
 11
104.5802497935783038
 21
33.7059362365283732
 31
0.0
  0
LINE
  5
4551
  8
1
 10
104.5802497935781048
 20
103.6802909949999929
 30
0.0
 11
175.3802497935785141
 21
103.6802909949999929
 31
0.0
  0
LINE
  5
4552
  8
0
 10
176.7293880185750083
 20
63.6802909949999218
 30
0.0
 11
175.5049271278980996
 21
63.6802909949999218
 31
0.0
  0
LINE
  5
4553
  8
0
 10
162.3802497935785141
 20
97.1902909949999128
 30
0.0
 11
151.8802497935785141
 21
97.1902909949999128
 31
0.0
  0
LINE
  5
4554
  8
0
 10
152.0302271418682096
 20
110.1902909949998985
 30
0.0
 11
166.667575567115108
 21
110.1902909949998985
 31
0.0
  0
LINE
  5
4555
  8
0
 10
147.8802497935785141
 20
108.3802909949998963
 30
0.0
 11
148.1802497935784118
 21
108.6802909949998934
 31
0.0
  0
LINE
  5
4556
  8
0
 10
148.1802497935784118
 20
98.6802909949999218
 30
0.0
 11
147.8802497935785141
 21
98.9802909949998764
 31
0.0
  0
LINE
  5
4557
  8
0
 10
169.9211730812760095
 20
107.9802909949999048
 30
0.0
 11
172.3802497935785141
 21
107.9802909949999048
 31
0.0
  0
LINE
  5
4558
  8
0
 10
148.1802497935784118
 20
108.6802909949998934
 30
0.0
 11
151.8802497935785141
 21
108.6802909949998934
 31
0.0
  0
LINE
  5
4559
  8
0
 10
151.8802497935785141
 20
98.6802909949999218
 30
0.0
 11
148.1802497935784118
 21
98.6802909949999218
 31
0.0
  0
POLYLINE
  5
455A
  8
0
 66
     1
 10
0.0
 20
0.0
 30
0.0
  0
VERTEX
  5
4E4D
  8
0
 10
176.6547288208371072
 20
83.9036697950913037
 30
0.0
  0
VERTEX
  5
4E4E
  8
0
 10
176.5721009037926876
 20
84.3477962218986193
 30
0.0
  0
VERTEX
  5
4E4F
  8
0
 10
176.4015870485613959
 20
85.2399297040273893
 30
0.0
  0
VERTEX
  5
4E50
  8
0
 10
176.2243091240964077
 20
86.1354805159082559
 30
0.0
  0
VERTEX
  5
4E51
  8
0
 10
176.133234884924093
 20
86.5838996504550948
 30
0.0
  0
VERTEX
  5
4E52
  8
0
 10
176.040584362908902
 20
87.0324730383492664
 30
0.0
  0
VERTEX
  5
4E53
  8
0
 10
175.8507574139810004
 20
87.9290505665286162
 30
0.0
  0
VERTEX
  5
4E54
  8
0
 10
175.6552777800613967
 20
88.8231108151980635
 30
0.0
  0
VERTEX
  5
4E55
  8
0
 10
175.4546551517476018
 20
89.7125395367838507
 30
0.0
  0
VERTEX
  5
4E56
  8
0
 10
175.2494525272699946
 20
90.595241695785802
 30
0.0
  0
VERTEX
  5
4E57
  8
0
 10
175.0402795059258096
 20
91.4691653124169477
 30
0.0
  0
VERTEX
  5
4E58
  8
0
 10
174.9344074326654095
 20
91.9022032945312901
 30
0.0
  0
VERTEX
  5
4E59
  8
0
 10
174.8277935979918141
 20
92.3322880169604048
 30
0.0
  0
VERTEX
  5
4E5A
  8
0
 10
174.6127058780377865
 20
93.1825876327088451
 30
0.0
  0
VERTEX
  5
4E5B
  8
0
 10
174.3957751236366107
 20
94.0180598665773175
 30
0.0
  0
VERTEX
  5
4E5C
  8
0
 10
174.1777994114652017
 20
94.8367415827533193
 30
0.0
  0
VERTEX
  5
4E5D
  8
0
 10
173.9572908699475988
 20
95.6451241123819216
 30
0.0
  0
VERTEX
  5
4E5E
  8
0
 10
173.7301160966271993
 20
96.4584555876245844
 30
0.0
  0
VERTEX
  5
4E5F
  8
0
 10
173.6141266605324915
 20
96.866498974783525
 30
0.0
  0
VERTEX
  5
4E60
  8
0
 10
173.496621907512008
 20
97.2751051195487833
 30
0.0
  0
VERTEX
  5
4E61
  8
0
 10
173.2573399723781051
 20
98.0929565953029936
 30
0.0
  0
VERTEX
  5
4E62
  8
0
 10
173.0128396531976875
 20
98.9099515867810339
 30
0.0
  0
VERTEX
  5
4E63
  8
0
 10
172.8888190948538863
 20
99.3175051687128132
 30
0.0
  0
SEQEND
  5
4E64
  8
0
  0
LINE
  5
455B
  8
0
 10
162.3802497935785141
 20
110.1902909949998985
 30
0.0
 11
162.3802497935785141
 21
97.1902909949999128
 31
0.0
  0
POLYLINE
  5
455C
  8
0
 66
     1
 10
0.0
 20
0.0
 30
0.0
  0
VERTEX
  5
4E65
  8
0
 10
166.1784083131504133
 20
89.4242554376097445
 30
0.0
  0
VERTEX
  5
4E66
  8
0
 10
166.2171057768582045
 20
89.3303298955059546
 30
0.0
  0
VERTEX
  5
4E67
  8
0
 10
166.2913255893635949
 20
89.1412058952106037
 30
0.0
  0
VERTEX
  5
4E68
  8
0
 10
166.361261399105814
 20
88.9505195853949715
 30
0.0
  0
VERTEX
  5
4E69
  8
0
 10
166.3946051432789943
 20
88.8546436523034657
 30
0.0
  0
VERTEX
  5
4E6A
  8
0
 10
166.4268576839849061
 20
88.7584415114443743
 30
0.0
  0
VERTEX
  5
4E6B
  8
0
 10
166.488067016340608
 20
88.5651472237912856
 30
0.0
  0
VERTEX
  5
4E6C
  8
0
 10
166.5448506278729894
 20
88.3708162316887353
 30
0.0
  0
VERTEX
  5
4E6D
  8
0
 10
166.5971788591722884
 20
88.175630910883541
 30
0.0
  0
VERTEX
  5
4E6E
  8
0
 10
166.6450314933242964
 20
87.9797753642892246
 30
0.0
  0
VERTEX
  5
4E6F
  8
0
 10
166.6883979722512947
 20
87.7834342343448668
 30
0.0
  0
VERTEX
  5
4E70
  8
0
 10
166.7083982715298021
 20
87.6851391204052959
 30
0.0
  0
VERTEX
  5
4E71
  8
0
 10
166.7272774921262055
 20
87.5867914732757242
 30
0.0
  0
VERTEX
  5
4E72
  8
0
 10
166.7616787632732951
 20
87.3900303707975752
 30
0.0
  0
VERTEX
  5
4E73
  8
0
 10
166.7916192621568996
 20
87.1933374939318071
 30
0.0
  0
VERTEX
  5
4E74
  8
0
 10
166.8171253952436928
 20
86.9969036877364346
 30
0.0
  0
VERTEX
  5
4E75
  8
0
 10
166.8382330263989104
 20
86.800922900351992
 30
0.0
  0
VERTEX
  5
4E76
  8
0
 10
166.8549878711579879
 20
86.6055909578064558
 30
0.0
  0
VERTEX
  5
4E77
  8
0
 10
166.8617500441278025
 20
86.5082297117860151
 30
0.0
  0
VERTEX
  5
4E78
  8
0
 10
166.8674457518534098
 20
86.4111043425504874
 30
0.0
  0
VERTEX
  5
4E79
  8
0
 10
166.8756727178601977
 20
86.2176589759527161
 30
0.0
  0
VERTEX
  5
4E7A
  8
0
 10
166.8797450344235926
 20
86.025449003086095
 30
0.0
  0
VERTEX
  5
4E7B
  8
0
 10
166.8802497935785141
 20
85.9298671746805383
 30
0.0
  0
SEQEND
  5
4E7C
  8
0
  0
POLYLINE
  5
455D
  8
0
 66
     1
 10
0.0
 20
0.0
 30
0.0
  0
VERTEX
  5
4E7D
  8
0
 10
176.7293880185750083
 20
63.6802909949999218
 30
0.0
  0
VERTEX
  5
4E7E
  8
0
 10
176.7297168755256109
 20
63.6803665606668901
 30
0.0
  0
VERTEX
  5
4E7F
  8
0
 10
176.7322894307083061
 20
63.6809592405186109
 30
0.0
  0
VERTEX
  5
4E80
  8
0
 10
176.7372776602475994
 20
63.6821162995290422
 30
0.0
  0
VERTEX
  5
4E81
  8
0
 10
176.7406236791669016
 20
63.6828982393882086
 30
0.0
  0
VERTEX
  5
4E82
  8
0
 10
176.7445082501552918
 20
63.6838118878475612
 30
0.0
  0
VERTEX
  5
4E83
  8
0
 10
176.7538052628588048
 20
63.6860241153172808
 30
0.0
  0
VERTEX
  5
4E84
  8
0
 10
176.7649965495037918
 20
63.6887350497395133
 30
0.0
  0
VERTEX
  5
4E85
  8
0
 10
176.7779180751969932
 20
63.6919304963267621
 30
0.0
  0
VERTEX
  5
4E86
  8
0
 10
176.7924161595535111
 20
63.695599561239959
 30
0.0
  0
VERTEX
  5
4E87
  8
0
 10
176.8083481061460134
 20
63.6997340695957917
 30
0.0
  0
VERTEX
  5
4E88
  8
0
 10
176.8168101116004891
 20
63.7019738975888927
 30
0.0
  0
VERTEX
  5
4E89
  8
0
 10
176.8255818461850026
 20
63.7043279320759765
 30
0.0
  0
VERTEX
  5
4E8A
  8
0
 10
176.8439951680192905
 20
63.7093765505696581
 30
0.0
  0
VERTEX
  5
4E8B
  8
0
 10
176.8634756422102043
 20
63.714876532759007
 30
0.0
  0
VERTEX
  5
4E8C
  8
0
 10
176.8839219063717962
 20
63.7208259301901023
 30
0.0
  0
VERTEX
  5
4E8D
  8
0
 10
176.9052431454038015
 20
63.7272241091992271
 30
0.0
  0
VERTEX
  5
4E8E
  8
0
 10
176.9273577562046
 20
63.7340714413748728
 30
0.0
  0
VERTEX
  5
4E8F
  8
0
 10
176.9386892661381978
 20
63.7376638575703609
 30
0.0
  0
VERTEX
  5
4E90
  8
0
 10
176.9501920242501001
 20
63.7413690078894604
 30
0.0
  0
VERTEX
  5
4E91
  8
0
 10
176.9736789170231077
 20
63.7491183332961882
 30
0.0
  0
VERTEX
  5
4E92
  8
0
 10
176.9977570424285034
 20
63.7573211567672331
 30
0.0
  0
VERTEX
  5
4E93
  8
0
 10
177.0099999590105995
 20
63.7615931854688611
 30
0.0
  0
VERTEX
  5
4E94
  8
0
 10
177.0858957971994982
 20
63.7896230918382514
 30
0.0
  0
VERTEX
  5
4E95
  8
0
 10
177.2457855438061927
 20
63.8577461921927068
 30
0.0
  0
VERTEX
  5
4E96
  8
0
 10
177.4091828665262085
 20
63.9410503791955023
 30
0.0
  0
VERTEX
  5
4E97
  8
0
 10
177.5692070247253014
 20
64.0375619936833971
 30
0.0
  0
VERTEX
  5
4E98
  8
0
 10
177.724942392947213
 20
64.1476485990834533
 30
0.0
  0
VERTEX
  5
4E99
  8
0
 10
177.8815714370070964
 20
64.2772141982860319
 30
0.0
  0
VERTEX
  5
4E9A
  8
0
 10
177.9589677573216875
 20
64.349398848350873
 30
0.0
  0
VERTEX
  5
4E9B
  8
0
 10
177.9717528318263078
 20
64.3619048426635061
 30
0.0
  0
VERTEX
  5
4E9C
  8
0
 10
177.9972033642144993
 20
64.3873208906988737
 30
0.0
  0
VERTEX
  5
4E9D
  8
0
 10
178.0224786726195987
 20
64.413272728758642
 30
0.0
  0
VERTEX
  5
4E9E
  8
0
 10
178.0350447823711875
 20
64.426448355569363
 30
0.0
  0
VERTEX
  5
4E9F
  8
0
 10
178.0475601202084874
 20
64.4397564192001653
 30
0.0
  0
VERTEX
  5
4EA0
  8
0
 10
178.0724293695984102
 20
64.4667675942107223
 30
0.0
  0
VERTEX
  5
4EA1
  8
0
 10
178.0970684043711003
 20
64.4943014770965135
 30
0.0
  0
VERTEX
  5
4EA2
  8
0
 10
178.1214595509125047
 20
64.5223529074335858
 30
0.0
  0
VERTEX
  5
4EA3
  8
0
 10
178.1455855004799105
 20
64.5509163704606124
 30
0.0
  0
VERTEX
  5
4EA4
  8
0
 10
178.1694293313707931
 20
64.5799860311114742
 30
0.0
  0
VERTEX
  5
4EA5
  8
0
 10
178.181240277382301
 20
64.5947087863083595
 30
0.0
  0
VERTEX
  5
4EA6
  8
0
 10
178.1929747936790136
 20
64.6095561079345941
 30
0.0
  0
VERTEX
  5
4EA7
  8
0
 10
178.2162067997780923
 20
64.6396215847724704
 30
0.0
  0
VERTEX
  5
4EA8
  8
0
 10
178.2391089618218132
 20
64.6701750503457049
 30
0.0
  0
VERTEX
  5
4EA9
  8
0
 10
178.2616649200994914
 20
64.7012082275893761
 30
0.0
  0
VERTEX
  5
4EAA
  8
0
 10
178.2838585828588123
 20
64.7327122427201118
 30
0.0
  0
VERTEX
  5
4EAB
  8
0
 10
178.3056741566414871
 20
64.7646776376090827
 30
0.0
  0
VERTEX
  5
4EAC
  8
0
 10
178.3164353137946989
 20
64.780830240778144
 30
0.0
  0
VERTEX
  5
4EAD
  8
0
 10
178.3270961768544112
 20
64.7970943853647157
 30
0.0
  0
VERTEX
  5
4EAE
  8
0
 10
178.3481095385332083
 20
64.8299519095324541
 30
0.0
  0
VERTEX
  5
4EAF
  8
0
 10
178.3686995272084914
 20
64.8632391073548149
 30
0.0
  0
VERTEX
  5
4EB0
  8
0
 10
178.3888518497637961
 20
64.8969443775712023
 30
0.0
  0
VERTEX
  5
4EB1
  8
0
 10
178.4085526651190037
 20
64.9310556532691123
 30
0.0
  0
VERTEX
  5
4EB2
  8
0
 10
178.4277886145652872
 20
64.9655604403719451
 30
0.0
  0
VERTEX
  5
4EB3
  8
0
 10
178.4372282287997109
 20
64.9829563896050502
 30
0.0
  0
VERTEX
  5
4EB4
  8
0
 10
178.446546841993694
 20
65.0004458443533792
 30
0.0
  0
VERTEX
  5
4EB5
  8
0
 10
178.464814918889914
 20
65.0356984142049157
 30
0.0
  0
VERTEX
  5
4EB6
  8
0
 10
178.4825807902539054
 20
65.0713039907369364
 30
0.0
  0
VERTEX
  5
4EB7
  8
0
 10
178.4998328134803955
 20
65.1072477152646059
 30
0.0
  0
VERTEX
  5
4EB8
  8
0
 10
178.5165598037060022
 20
65.143514055167401
 30
0.0
  0
VERTEX
  5
4EB9
  8
0
 10
178.5327510784904916
 20
65.1800868346012692
 30
0.0
  0
VERTEX
  5
4EBA
  8
0
 10
178.5406426325079963
 20
65.1984829171422859
 30
0.0
  0
VERTEX
  5
4EBB
  8
0
 10
178.5483965015970966
 20
65.2169492709019352
 30
0.0
  0
VERTEX
  5
4EBC
  8
0
 10
178.5634865255813111
 20
65.2540840172569858
 30
0.0
  0
VERTEX
  5
4EBD
  8
0
 10
178.5780122328428092
 20
65.2914732122471548
 30
0.0
  0
VERTEX
  5
4EBE
  8
0
 10
178.5919653747421023
 20
65.3290985368940653
 30
0.0
  0
VERTEX
  5
4EBF
  8
0
 10
178.6053384083095068
 20
65.3669412798634255
 30
0.0
  0
VERTEX
  5
4EC0
  8
0
 10
178.6181868488031057
 20
65.4051726962725013
 30
0.0
  0
VERTEX
  5
4EC1
  8
0
 10
178.6244506434836126
 20
65.4245575740050924
 30
0.0
  0
VERTEX
  5
4EC2
  8
0
 10
178.6306025943806048
 20
65.4441206503404089
 30
0.0
  0
VERTEX
  5
4EC3
  8
0
 10
178.6425540230823117
 20
65.4837696745356368
 30
0.0
  0
VERTEX
  5
4EC4
  8
0
 10
178.6540078377306031
 20
65.5240955367209779
 30
0.0
  0
VERTEX
  5
4EC5
  8
0
 10
178.659538007654902
 20
65.5445043805219427
 30
0.0
  0
VERTEX
  5
4EC6
  8
0
 10
178.6649317503174075
 20
65.5650728110572061
 30
0.0
  0
VERTEX
  5
4EC7
  8
0
 10
178.6752945795030882
 20
65.6066749777375833
 30
0.0
  0
VERTEX
  5
4EC8
  8
0
 10
178.6850663416072962
 20
65.6488745433379961
 30
0.0
  0
VERTEX
  5
4EC9
  8
0
 10
178.6897215506537009
 20
65.6701895275907361
 30
0.0
  0
VERTEX
  5
4ECA
  8
0
 10
178.6942183333547121
 20
65.6916431842005011
 30
0.0
  0
VERTEX
  5
4ECB
  8
0
 10
178.7027232042593994
 20
65.7349519151386801
 30
0.0
  0
VERTEX
  5
4ECC
  8
0
 10
178.7105550160316909
 20
65.7787712849097659
 30
0.0
  0
VERTEX
  5
4ECD
  8
0
 10
178.717689251190194
 20
65.8230713701842376
 30
0.0
  0
VERTEX
  5
4ECE
  8
0
 10
178.7241027281187939
 20
65.8678210624178462
 30
0.0
  0
VERTEX
  5
4ECF
  8
0
 10
178.7297736517245994
 20
65.9129878543338634
 30
0.0
  0
VERTEX
  5
4ED0
  8
0
 10
178.7323242523002023
 20
65.9357171624614864
 30
0.0
  0
VERTEX
  5
4ED1
  8
0
 10
178.7346817266088124
 20
65.9585380080110042
 30
0.0
  0
VERTEX
  5
4ED2
  8
0
 10
178.7388082567877063
 20
66.0044367493905639
 30
0.0
  0
VERTEX
  5
4ED3
  8
0
 10
178.7421362284553084
 20
66.050648483139156
 30
0.0
  0
VERTEX
  5
4ED4
  8
0
 10
178.7446503734342969
 20
66.097137029172444
 30
0.0
  0
VERTEX
  5
4ED5
  8
0
 10
178.7463372107085888
 20
66.1438658818093188
 30
0.0
  0
VERTEX
  5
4ED6
  8
0
 10
178.7471850654573871
 20
66.1907987390786445
 30
0.0
  0
VERTEX
  5
4ED7
  8
0
 10
178.7472912122545949
 20
66.2143344797678708
 30
0.0
  0
VERTEX
  5
4ED8
  8
0
 10
178.7471839175966011
 20
66.2379128197256648
 30
0.0
  0
VERTEX
  5
4ED9
  8
0
 10
178.7463247359802949
 20
66.2851778679995221
 30
0.0
  0
VERTEX
  5
4EDA
  8
0
 10
178.744600212580707
 20
66.3325546820710485
 30
0.0
  0
VERTEX
  5
4EDB
  8
0
 10
178.743411706614296
 20
66.3562726488383703
 30
0.0
  0
SEQEND
  5
4EDC
  8
0
  0
POLYLINE
  5
455E
  8
0
 66
     1
 10
0.0
 20
0.0
 30
0.0
  0
VERTEX
  5
4EDD
  8
0
 10
178.743411706614296
 20
66.3562726488383703
 30
0.0
  0
VERTEX
  5
4EDE
  8
0
 10
178.7421542370996121
 20
66.3792306390705136
 30
0.0
  0
VERTEX
  5
4EDF
  8
0
 10
178.7396248558513889
 20
66.4252005047939917
 30
0.0
  0
VERTEX
  5
4EE0
  8
0
 10
178.7370768829187
 20
66.47122915616157
 30
0.0
  0
VERTEX
  5
4EE1
  8
0
 10
178.7357961800549049
 20
66.4942606037655821
 30
0.0
  0
VERTEX
  5
4EE2
  8
0
 10
178.7345111385652103
 20
66.5173008389018321
 30
0.0
  0
VERTEX
  5
4EE3
  8
0
 10
178.7319284489234974
 20
66.5634000679891358
 30
0.0
  0
VERTEX
  5
4EE4
  8
0
 10
178.7293296624094978
 20
66.6095113300329729
 30
0.0
  0
VERTEX
  5
4EE5
  8
0
 10
178.7267156660759042
 20
66.6556187969534619
 30
0.0
  0
VERTEX
  5
4EE6
  8
0
 10
178.7240873804097987
 20
66.701706426288041
 30
0.0
  0
VERTEX
  5
4EE7
  8
0
 10
178.7214457578182021
 20
66.7477579935363963
 30
0.0
  0
VERTEX
  5
4EE8
  8
0
 10
178.7201202511388942
 20
66.7707651419165984
 30
0.0
  0
VERTEX
  5
4EE9
  8
0
 10
178.7187917810294948
 20
66.7937571245531387
 30
0.0
  0
VERTEX
  5
4EEA
  8
0
 10
178.7161264614053096
 20
66.8396873279849331
 30
0.0
  0
VERTEX
  5
4EEB
  8
0
 10
178.7134508371663912
 20
66.8855320277562839
 30
0.0
  0
VERTEX
  5
4EEC
  8
0
 10
178.7107659715265982
 20
66.9312745956223978
 30
0.0
  0
VERTEX
  5
4EED
  8
0
 10
178.7080729507378862
 20
66.9768983838195737
 30
0.0
  0
VERTEX
  5
4EEE
  8
0
 10
178.7053728820411891
 20
67.0223867578488068
 30
0.0
  0
VERTEX
  5
4EEF
  8
0
 10
178.7040205559534911
 20
67.045074978005303
 30
0.0
  0
VERTEX
  5
4EF0
  8
0
 10
178.7026668915208916
 20
67.0677231294446017
 30
0.0
  0
VERTEX
  5
4EF1
  8
0
 10
178.6999561218597137
 20
67.1128909897866635
 30
0.0
  0
VERTEX
  5
4EF2
  8
0
 10
178.6972417299911911
 20
67.1578739430231906
 30
0.0
  0
VERTEX
  5
4EF3
  8
0
 10
178.6958835405656885
 20
67.1802909949999218
 30
0.0
  0
SEQEND
  5
4EF4
  8
0
  0
POLYLINE
  5
455F
  8
0
 66
     1
 10
0.0
 20
0.0
 30
0.0
  0
VERTEX
  5
4EF5
  8
0
 10
170.4218734742514982
 20
67.1802909949999218
 30
0.0
  0
VERTEX
  5
4EF6
  8
0
 10
170.4355156776481977
 20
67.1517988792903395
 30
0.0
  0
VERTEX
  5
4EF7
  8
0
 10
170.4632850198794927
 20
67.0949339604256636
 30
0.0
  0
VERTEX
  5
4EF8
  8
0
 10
170.4916977348480032
 20
67.0382425069948056
 30
0.0
  0
VERTEX
  5
4EF9
  8
0
 10
170.5061440239580861
 20
67.009967224214023
 30
0.0
  0
VERTEX
  5
4EFA
  8
0
 10
170.5207494884735127
 20
66.9817417765443395
 30
0.0
  0
VERTEX
  5
4EFB
  8
0
 10
170.5504354081919871
 20
66.9254489734182414
 30
0.0
  0
VERTEX
  5
4EFC
  8
0
 10
170.5807501022424901
 20
66.8693811932010647
 30
0.0
  0
VERTEX
  5
4EFD
  8
0
 10
170.6116876810903875
 20
66.8135553700576281
 30
0.0
  0
VERTEX
  5
4EFE
  8
0
 10
170.6432417807475019
 20
66.7579882271635086
 30
0.0
  0
VERTEX
  5
4EFF
  8
0
 10
170.6754055877692906
 20
66.7026962303670814
 30
0.0
  0
VERTEX
  5
4F00
  8
0
 10
170.6917138859272995
 20
66.6751584763133849
 30
0.0
  0
VERTEX
  5
4F01
  8
0
 10
170.7081718657148031
 20
66.6476955451650639
 30
0.0
  0
VERTEX
  5
4F02
  8
0
 10
170.7415329828691029
 20
66.593001997031223
 30
0.0
  0
VERTEX
  5
4F03
  8
0
 10
170.7754809410448047
 20
66.5386310350909014
 30
0.0
  0
VERTEX
  5
4F04
  8
0
 10
170.810007405294499
 20
66.484597699103432
 30
0.0
  0
VERTEX
  5
4F05
  8
0
 10
170.8451037343781991
 20
66.4309165896832639
 30
0.0
  0
VERTEX
  5
4F06
  8
0
 10
170.8807610118545028
 20
66.3776018416646991
 30
0.0
  0
VERTEX
  5
4F07
  8
0
 10
170.8987971523160923
 20
66.3510861371600811
 30
0.0
  0
VERTEX
  5
4F08
  8
0
 10
170.9169700730739976
 20
66.3246671071420622
 30
0.0
  0
VERTEX
  5
4F09
  8
0
 10
170.9537214326958008
 20
66.2721256817506656
 30
0.0
  0
VERTEX
  5
4F0A
  8
0
 10
170.9910051508429945
 20
66.219990699725912
 30
0.0
  0
VERTEX
  5
4F0B
  8
0
 10
171.0098434130622991
 20
66.1940796835475282
 30
0.0
  0
VERTEX
  5
4F0C
  8
0
 10
171.0288108323734093
 20
66.1682751233801838
 30
0.0
  0
VERTEX
  5
4F0D
  8
0
 10
171.0671276490701871
 20
66.1169917025603979
 30
0.0
  0
VERTEX
  5
4F0E
  8
0
 10
171.1059443623657899
 20
66.0661529375906582
 30
0.0
  0
VERTEX
  5
4F0F
  8
0
 10
171.1255365616788993
 20
66.0409041307942459
 30
0.0
  0
VERTEX
  5
4F10
  8
0
 10
171.145249346526299
 20
66.0157710454955833
 30
0.0
  0
VERTEX
  5
4F11
  8
0
 10
171.1850306121577887
 20
65.965857929392044
 30
0.0
  0
VERTEX
  5
4F12
  8
0
 10
171.2252758299231914
 20
65.9164251509164103
 30
0.0
  0
VERTEX
  5
4F13
  8
0
 10
171.2659723543756058
 20
65.8674839055367727
 30
0.0
  0
VERTEX
  5
4F14
  8
0
 10
171.3071072478325902
 20
65.81904500059008
 30
0.0
  0
VERTEX
  5
4F15
  8
0
 10
171.3486673042384041
 20
65.7711188358771039
 30
0.0
  0
VERTEX
  5
4F16
  8
0
 10
171.3696025741313917
 20
65.7473511653758749
 30
0.0
  0
VERTEX
  5
4F17
  8
0
 10
171.3906390729700888
 20
65.7237153866434056
 30
0.0
  0
VERTEX
  5
4F18
  8
0
 10
171.4330088825649909
 20
65.6768441887760162
 30
0.0
  0
VERTEX
  5
4F19
  8
0
 10
171.4757628643585008
 20
65.6305143260456987
 30
0.0
  0
VERTEX
  5
4F1A
  8
0
 10
171.5188894711509136
 20
65.5847317974833857
 30
0.0
  0
VERTEX
  5
4F1B
  8
0
 10
171.5623787602453092
 20
65.5395005358701326
 30
0.0
  0
VERTEX
  5
4F1C
  8
0
 10
171.6062164625934088
 20
65.4948285761186924
 30
0.0
  0
VERTEX
  5
4F1D
  8
0
 10
171.6282613943916999
 20
65.4727047947077097
 30
0.0
  0
VERTEX
  5
4F1E
  8
0
 10
171.6503878986789005
 20
65.4507237556773305
 30
0.0
  0
VERTEX
  5
4F1F
  8
0
 10
171.6948780620857065
 20
65.4071936218527696
 30
0.0
  0
VERTEX
  5
4F20
  8
0
 10
171.7396716393170095
 20
65.364245409839981
 30
0.0
  0
VERTEX
  5
4F21
  8
0
 10
171.8986109335903052
 20
65.2186057825267369
 30
0.0
  0
VERTEX
  5
4F22
  8
0
 10
172.177262972953713
 20
64.9864308014078631
 30
0.0
  0
VERTEX
  5
4F23
  8
0
 10
172.4605262689935898
 20
64.7770933350675051
 30
0.0
  0
VERTEX
  5
4F24
  8
0
 10
172.6026594977859077
 20
64.6811459660518437
 30
0.0
  0
VERTEX
  5
4F25
  8
0
 10
172.7444375896303939
 20
64.5910408257826418
 30
0.0
  0
VERTEX
  5
4F26
  8
0
 10
173.0273689904346952
 20
64.4268519291868813
 30
0.0
  0
VERTEX
  5
4F27
  8
0
 10
173.3152634849049889
 20
64.2795812435550431
 30
0.0
  0
VERTEX
  5
4F28
  8
0
 10
173.605525939250299
 20
64.1497467196698636
 30
0.0
  0
VERTEX
  5
4F29
  8
0
 10
173.8944669874674105
 20
64.0378515744368713
 30
0.0
  0
VERTEX
  5
4F2A
  8
0
 10
174.1782769452817945
 20
63.9438342275804814
 30
0.0
  0
VERTEX
  5
4F2B
  8
0
 10
174.3170198348026929
 20
63.9033707469085073
 30
0.0
  0
VERTEX
  5
4F2C
  8
0
 10
174.4529762345522954
 20
63.8671240195205598
 30
0.0
  0
VERTEX
  5
4F2D
  8
0
 10
174.7155687224149005
 20
63.8064320167114474
 30
0.0
  0
VERTEX
  5
4F2E
  8
0
 10
174.9656600128878097
 20
63.7597672057271225
 30
0.0
  0
VERTEX
  5
4F2F
  8
0
 10
175.084498990726388
 20
63.7413250968085876
 30
0.0
  0
SEQEND
  5
4F30
  8
0
  0
POLYLINE
  5
4560
  8
0
 66
     1
 10
0.0
 20
0.0
 30
0.0
  0
VERTEX
  5
4F31
  8
0
 10
175.084498990726388
 20
63.7413250968085876
 30
0.0
  0
VERTEX
  5
4F32
  8
0
 10
175.107468204577799
 20
63.7379906260328823
 30
0.0
  0
VERTEX
  5
4F33
  8
0
 10
175.1514861055848087
 20
63.7316004898503579
 30
0.0
  0
VERTEX
  5
4F34
  8
0
 10
175.1929393730908942
 20
63.725582664863019
 30
0.0
  0
VERTEX
  5
4F35
  8
0
 10
175.212702859958398
 20
63.7227135736607977
 30
0.0
  0
VERTEX
  5
4F36
  8
0
 10
175.231823531914813
 20
63.7199378007387267
 30
0.0
  0
VERTEX
  5
4F37
  8
0
 10
175.2681343842286878
 20
63.7146665068814499
 30
0.0
  0
VERTEX
  5
4F38
  8
0
 10
175.3018680100126119
 20
63.7097693523657824
 30
0.0
  0
VERTEX
  5
4F39
  8
0
 10
175.3330207674763983
 20
63.7052468658750684
 30
0.0
  0
VERTEX
  5
4F3A
  8
0
 10
175.3615892934535054
 20
63.7010995356446017
 30
0.0
  0
VERTEX
  5
4F3B
  8
0
 10
175.3875705037642092
 20
63.6973278094088471
 30
0.0
  0
VERTEX
  5
4F3C
  8
0
 10
175.3995899781064054
 20
63.6955829266196005
 30
0.0
  0
VERTEX
  5
4F3D
  8
0
 10
175.4109615935481088
 20
63.69393209435313
 30
0.0
  0
VERTEX
  5
4F3E
  8
0
 10
175.4317600375667894
 20
63.6909127570692988
 30
0.0
  0
VERTEX
  5
4F3F
  8
0
 10
175.4499635904774095
 20
63.6882701235170714
 30
0.0
  0
VERTEX
  5
4F40
  8
0
 10
175.4655702870740868
 20
63.6860044789876483
 30
0.0
  0
VERTEX
  5
4F41
  8
0
 10
175.478578442500492
 20
63.684116068073962
 30
0.0
  0
VERTEX
  5
4F42
  8
0
 10
175.4889866524320041
 20
63.682605094643769
 30
0.0
  0
VERTEX
  5
4F43
  8
0
 10
175.4932154157312993
 20
63.6819911995522503
 30
0.0
  0
VERTEX
  5
4F44
  8
0
 10
175.4938569804866972
 20
63.6818980627586768
 30
0.0
  0
VERTEX
  5
4F45
  8
0
 10
175.4950859091520101
 20
63.6817196575792295
 30
0.0
  0
VERTEX
  5
4F46
  8
0
 10
175.4962425669739048
 20
63.6815517440524914
 30
0.0
  0
VERTEX
  5
4F47
  8
0
 10
175.4967937932264874
 20
63.6814717218174735
 30
0.0
  0
VERTEX
  5
4F48
  8
0
 10
175.4973269504841937
 20
63.6813943226819319
 30
0.0
  0
VERTEX
  5
4F49
  8
0
 10
175.4983390564308934
 20
63.6812473939397421
 30
0.0
  0
VERTEX
  5
4F4A
  8
0
 10
175.4992788817787073
 20
63.6811109582664301
 30
0.0
  0
VERTEX
  5
4F4B
  8
0
 10
175.5001464237095092
 20
63.6809850160712827
 30
0.0
  0
VERTEX
  5
4F4C
  8
0
 10
175.5009416796212918
 20
63.6808695677318326
 30
0.0
  0
VERTEX
  5
4F4D
  8
0
 10
175.5016646471295019
 20
63.6807646135942775
 30
0.0
  0
VERTEX
  5
4F4E
  8
0
 10
175.501999022046391
 20
63.6807160719509682
 30
0.0
  0
VERTEX
  5
4F4F
  8
0
 10
175.5023153240661031
 20
63.6806701539735229
 30
0.0
  0
VERTEX
  5
4F50
  8
0
 10
175.5028937084796041
 20
63.6805861891527627
 30
0.0
  0
VERTEX
  5
4F51
  8
0
 10
175.5033997986359111
 20
63.6805127193838132
 30
0.0
  0
VERTEX
  5
4F52
  8
0
 10
175.5038335930167079
 20
63.6804497448869995
 30
0.0
  0
VERTEX
  5
4F53
  8
0
 10
175.5041950903215877
 20
63.6803972658510418
 30
0.0
  0
VERTEX
  5
4F54
  8
0
 10
175.5044842894664896
 20
63.6803552824333892
 30
0.0
  0
VERTEX
  5
4F55
  8
0
 10
175.5046017769493005
 20
63.6803382266220694
 30
0.0
  0
VERTEX
  5
4F56
  8
0
 10
175.5047011895840114
 20
63.6803237947600209
 30
0.0
  0
VERTEX
  5
4F57
  8
0
 10
175.5048457900236087
 20
63.6803028029254108
 30
0.0
  0
VERTEX
  5
4F58
  8
0
 10
175.5049180903519925
 20
63.6802923069922997
 30
0.0
  0
VERTEX
  5
4F59
  8
0
 10
175.5049271278980996
 20
63.6802909949999218
 30
0.0
  0
SEQEND
  5
4F5A
  8
0
  0
POLYLINE
  5
4561
  8
0
 66
     1
 10
0.0
 20
0.0
 30
0.0
  0
VERTEX
  5
4F5B
  8
0
 10
178.6958835405656885
 20
67.1802909949999218
 30
0.0
  0
VERTEX
  5
4F5C
  8
0
 10
178.511078880299209
 20
69.8116180535630235
 30
0.0
  0
VERTEX
  5
4F5D
  8
0
 10
177.9913169132559858
 20
75.061328807040212
 30
0.0
  0
VERTEX
  5
4F5E
  8
0
 10
177.2720100535914014
 20
80.2874376022336662
 30
0.0
  0
VERTEX
  5
4F5F
  8
0
 10
176.8378421348081133
 20
82.8892702390267857
 30
0.0
  0
SEQEND
  5
4F60
  8
0
  0
LINE
  5
4562
  8
0
 10
166.8802497935785141
 20
85.9298671746805383
 30
0.0
 11
166.8802497935785141
 21
80.6336224106275665
 31
0.0
  0
POLYLINE
  5
4563
  8
0
 66
     1
 10
0.0
 20
0.0
 30
0.0
  0
VERTEX
  5
4F61
  8
0
 10
166.8802497935785141
 20
80.6336224106275665
 30
0.0
  0
VERTEX
  5
4F62
  8
0
 10
166.8805153032635928
 20
80.5642995803068089
 30
0.0
  0
VERTEX
  5
4F63
  8
0
 10
166.8826392872701945
 20
80.4256701898201243
 30
0.0
  0
VERTEX
  5
4F64
  8
0
 10
166.8868867567815926
 20
80.287089605979844
 30
0.0
  0
VERTEX
  5
4F65
  8
0
 10
166.8898065065372975
 20
80.2178277812822387
 30
0.0
  0
VERTEX
  5
4F66
  8
0
 10
166.8932567149115016
 20
80.1485903538224136
 30
0.0
  0
VERTEX
  5
4F67
  8
0
 10
166.9017476666230948
 20
80.0102049392954342
 30
0.0
  0
VERTEX
  5
4F68
  8
0
 10
166.9123576190789038
 20
79.8719658416289064
 30
0.0
  0
VERTEX
  5
4F69
  8
0
 10
166.9250840821098052
 20
79.7339055057120447
 30
0.0
  0
VERTEX
  5
4F6A
  8
0
 10
166.9399240687993995
 20
79.5960563344783338
 30
0.0
  0
VERTEX
  5
4F6B
  8
0
 10
166.9568740961838103
 20
79.4584506813008318
 30
0.0
  0
VERTEX
  5
4F6C
  8
0
 10
166.9661391512717898
 20
79.3897492689913804
 30
0.0
  0
VERTEX
  5
4F6D
  8
0
 10
166.9759301860707978
 20
79.3211208423983578
 30
0.0
  0
VERTEX
  5
4F6E
  8
0
 10
166.9970878659719062
 20
79.1840990492558774
 30
0.0
  0
VERTEX
  5
4F6F
  8
0
 10
167.0203421701534978
 20
79.0474174610598936
 30
0.0
  0
VERTEX
  5
4F70
  8
0
 10
167.0456876408009066
 20
78.9111081571498687
 30
0.0
  0
VERTEX
  5
4F71
  8
0
 10
167.073118329300712
 20
78.7752031294902224
 30
0.0
  0
VERTEX
  5
4F72
  8
0
 10
167.102627797636103
 20
78.6397342751607482
 30
0.0
  0
VERTEX
  5
4F73
  8
0
 10
167.1181599289099893
 20
78.5721733530446755
 30
0.0
  0
VERTEX
  5
4F74
  8
0
 10
167.1342091198978039
 20
78.5047333888712444
 30
0.0
  0
VERTEX
  5
4F75
  8
0
 10
167.1678548839097118
 20
78.370232155498428
 30
0.0
  0
VERTEX
  5
4F76
  8
0
 10
167.2035571929694981
 20
78.2362621426501335
 30
0.0
  0
VERTEX
  5
4F77
  8
0
 10
167.2221769521383976
 20
78.1694861749103609
 30
0.0
  0
SEQEND
  5
4F78
  8
0
  0
LINE
  5
4564
  8
0
 10
167.2221769521383976
 20
78.1694861749103609
 30
0.0
 11
170.0585857383117911
 21
68.145830031194663
 31
0.0
  0
POLYLINE
  5
4565
  8
0
 66
     1
 10
0.0
 20
0.0
 30
0.0
  0
VERTEX
  5
4F79
  8
0
 10
170.0585857383117911
 20
68.145830031194663
 30
0.0
  0
VERTEX
  5
4F7A
  8
0
 10
170.1077715991121124
 20
67.9808726428184116
 30
0.0
  0
VERTEX
  5
4F7B
  8
0
 10
170.2199153799548981
 20
67.6554172081525564
 30
0.0
  0
VERTEX
  5
4F7C
  8
0
 10
170.3501221660839917
 20
67.3367580479498145
 30
0.0
  0
VERTEX
  5
4F7D
  8
0
 10
170.4218734742514982
 20
67.1802909949999218
 30
0.0
  0
SEQEND
  5
4F7E
  8
0
  0
POLYLINE
  5
4566
  8
0
 66
     1
 10
0.0
 20
0.0
 30
0.0
  0
VERTEX
  5
4F7F
  8
0
 10
176.8378421348081133
 20
82.8892702390267857
 30
0.0
  0
VERTEX
  5
4F80
  8
0
 10
176.8081609677873871
 20
83.0566701074731952
 30
0.0
  0
VERTEX
  5
4F81
  8
0
 10
176.7480208766924079
 20
83.3922542711996755
 30
0.0
  0
VERTEX
  5
4F82
  8
0
 10
176.6861438395293931
 20
83.7326666782509648
 30
0.0
  0
VERTEX
  5
4F83
  8
0
 10
176.6547288208371072
 20
83.9036697950913037
 30
0.0
  0
SEQEND
  5
4F84
  8
0
  0
POLYLINE
  5
4567
  8
0
 66
     1
 10
0.0
 20
0.0
 30
0.0
  0
VERTEX
  5
4F85
  8
0
 10
172.8888190948538863
 20
99.3175051687128132
 30
0.0
  0
VERTEX
  5
4F86
  8
0
 10
172.8782671477246993
 20
99.3519741955943658
 30
0.0
  0
VERTEX
  5
4F87
  8
0
 10
172.8569538760746127
 20
99.4214986575861701
 30
0.0
  0
VERTEX
  5
4F88
  8
0
 10
172.8353649773644065
 20
99.4917897632275015
 30
0.0
  0
VERTEX
  5
4F89
  8
0
 10
172.8244685507355882
 20
99.5272169381821357
 30
0.0
  0
VERTEX
  5
4F8A
  8
0
 10
172.8135049050308112
 20
99.562828650777746
 30
0.0
  0
VERTEX
  5
4F8B
  8
0
 10
172.7913783357720945
 20
99.6345958285785116
 30
0.0
  0
VERTEX
  5
4F8C
  8
0
 10
172.7689901605104126
 20
99.7070712141683941
 30
0.0
  0
VERTEX
  5
4F8D
  8
0
 10
172.7463454749095035
 20
99.7802341744734065
 30
0.0
  0
VERTEX
  5
4F8E
  8
0
 10
172.7234495694310112
 20
99.8540635670836707
 30
0.0
  0
VERTEX
  5
4F8F
  8
0
 10
172.7003079189113919
 20
99.9285377826351748
 30
0.0
  0
VERTEX
  5
4F90
  8
0
 10
172.6886466978847068
 20
99.9660098290887333
 30
0.0
  0
VERTEX
  5
4F91
  8
0
 10
172.6769261716376036
 20
100.003634788319502
 30
0.0
  0
VERTEX
  5
4F92
  8
0
 10
172.6533101379027073
 20
100.0793321725534071
 30
0.0
  0
VERTEX
  5
4F93
  8
0
 10
172.6294657780136106
 20
100.1556071908402998
 30
0.0
  0
VERTEX
  5
4F94
  8
0
 10
172.6053991897281037
 20
100.2324368128674053
 30
0.0
  0
VERTEX
  5
4F95
  8
0
 10
172.5811165950964892
 20
100.3097977708784043
 30
0.0
  0
VERTEX
  5
4F96
  8
0
 10
172.5566243266760011
 20
100.387666609370001
 30
0.0
  0
VERTEX
  5
4F97
  8
0
 10
172.5443015703968115
 20
100.4267841151531968
 30
0.0
  0
VERTEX
  5
4F98
  8
0
 10
172.5319285672181024
 20
100.4660205154631996
 30
0.0
  0
VERTEX
  5
4F99
  8
0
 10
172.5070325595947907
 20
100.5448461402400966
 30
0.0
  0
VERTEX
  5
4F9A
  8
0
 10
172.4819418926595063
 20
100.6241228192969999
 30
0.0
  0
VERTEX
  5
4F9B
  8
0
 10
172.4693256819485043
 20
100.6639227104831065
 30
0.0
  0
VERTEX
  5
4F9C
  8
0
 10
172.456663377249896
 20
100.7038261912883002
 30
0.0
  0
VERTEX
  5
4F9D
  8
0
 10
172.431204035742013
 20
100.7839314152455046
 30
0.0
  0
VERTEX
  5
4F9E
  8
0
 10
172.4055710912479924
 20
100.8644132123892945
 30
0.0
  0
VERTEX
  5
4F9F
  8
0
 10
172.3926918272591138
 20
100.9047873169648
 30
0.0
  0
VERTEX
  5
4FA0
  8
0
 10
172.3797719564790896
 20
100.9452459083918967
 30
0.0
  0
VERTEX
  5
4FA1
  8
0
 10
172.3538142222589045
 20
101.0264034761016063
 30
0.0
  0
VERTEX
  5
4FA2
  8
0
 10
172.327705645677014
 20
101.1078595787465986
 30
0.0
  0
VERTEX
  5
4FA3
  8
0
 10
172.3014541378614979
 20
101.1895876136501045
 30
0.0
  0
VERTEX
  5
4FA4
  8
0
 10
172.275067751353788
 20
101.2715607564956031
 30
0.0
  0
VERTEX
  5
4FA5
  8
0
 10
172.2485546670577037
 20
101.3537520061956059
 30
0.0
  0
VERTEX
  5
4FA6
  8
0
 10
172.2352532015578959
 20
101.3949209461300001
 30
0.0
  0
VERTEX
  5
4FA7
  8
0
 10
172.2219231807395943
 20
101.4361342304200946
 30
0.0
  0
VERTEX
  5
4FA8
  8
0
 10
172.1951816890490932
 20
101.518680211856605
 30
0.0
  0
VERTEX
  5
4FA9
  8
0
 10
172.1683386750302986
 20
101.6013626952781976
 30
0.0
  0
VERTEX
  5
4FAA
  8
0
 10
172.141402693482604
 20
101.6841544342823056
 30
0.0
  0
VERTEX
  5
4FAB
  8
0
 10
172.1143823892587079
 20
101.7670281363464966
 30
0.0
  0
VERTEX
  5
4FAC
  8
0
 10
172.0872865890243872
 20
101.8499561837956975
 30
0.0
  0
VERTEX
  5
4FAD
  8
0
 10
172.0737131926250072
 20
101.8914318482866008
 30
0.0
  0
VERTEX
  5
4FAE
  8
0
 10
172.0601243244140903
 20
101.9329105674552949
 30
0.0
  0
VERTEX
  5
4FAF
  8
0
 10
172.0329048192404002
 20
102.0158629303946043
 30
0.0
  0
VERTEX
  5
4FB0
  8
0
 10
172.0056374760104063
 20
102.0987846130288972
 30
0.0
  0
VERTEX
  5
4FB1
  8
0
 10
171.9099645079178913
 20
102.3883495964691974
 30
0.0
  0
VERTEX
  5
4FB2
  8
0
 10
171.7460894874724886
 20
102.8794347785941028
 30
0.0
  0
VERTEX
  5
4FB3
  8
0
 10
171.5789551853727062
 20
103.3740949813967944
 30
0.0
  0
VERTEX
  5
4FB4
  8
0
 10
171.492967895465199
 20
103.6262189258859934
 30
0.0
  0
VERTEX
  5
4FB5
  8
0
 10
171.4056569285822036
 20
103.880613699584103
 30
0.0
  0
VERTEX
  5
4FB6
  8
0
 10
171.3024185966438893
 20
104.1793589751707003
 30
0.0
  0
VERTEX
  5
4FB7
  8
0
 10
171.2726964483821916
 20
104.2649599298298995
 30
0.0
  0
VERTEX
  5
4FB8
  8
0
 10
171.2428893770560876
 20
104.3506244613157037
 30
0.0
  0
VERTEX
  5
4FB9
  8
0
 10
171.2279566476333912
 20
104.3934727975666021
 30
0.0
  0
VERTEX
  5
4FBA
  8
0
 10
171.2130058831079964
 20
104.4363276924415942
 30
0.0
  0
VERTEX
  5
4FBB
  8
0
 10
171.1830545652121032
 20
104.5220446733365947
 30
0.0
  0
VERTEX
  5
4FBC
  8
0
 10
171.1530441064857939
 20
104.6077504220608034
 30
0.0
  0
VERTEX
  5
4FBD
  8
0
 10
171.122983260718712
 20
104.6934199645118042
 30
0.0
  0
VERTEX
  5
4FBE
  8
0
 10
171.0928808385934019
 20
104.7790283737044064
 30
0.0
  0
VERTEX
  5
4FBF
  8
0
 10
171.062745693872813
 20
104.8645508084987057
 30
0.0
  0
VERTEX
  5
4FC0
  8
0
 10
171.0476686257090932
 20
104.9072720555358984
 30
0.0
  0
VERTEX
  5
4FC1
  8
0
 10
171.0325867095338879
 20
104.9499625518524937
 30
0.0
  0
VERTEX
  5
4FC2
  8
0
 10
171.0024127838223933
 20
105.0352390486678047
 30
0.0
  0
VERTEX
  5
4FC3
  8
0
 10
170.9722328162096971
 20
105.1203559432976959
 30
0.0
  0
VERTEX
  5
4FC4
  8
0
 10
170.9420556932342947
 20
105.2052891167741961
 30
0.0
  0
VERTEX
  5
4FC5
  8
0
 10
170.91189027420819
 20
105.2900147238160002
 30
0.0
  0
VERTEX
  5
4FC6
  8
0
 10
170.8817453767771894
 20
105.3745092296660033
 30
0.0
  0
VERTEX
  5
4FC7
  8
0
 10
170.8666833641910046
 20
105.4166625589783024
 30
0.0
  0
VERTEX
  5
4FC8
  8
0
 10
170.8516292498547955
 20
105.4587508788231958
 30
0.0
  0
VERTEX
  5
4FC9
  8
0
 10
170.8215470258172957
 20
105.5427267810724032
 30
0.0
  0
VERTEX
  5
4FCA
  8
0
 10
170.7915067914134113
 20
105.6264159250997068
 30
0.0
  0
VERTEX
  5
4FCB
  8
0
 10
170.7615173948929055
 20
105.7097953500369982
 30
0.0
  0
VERTEX
  5
4FCC
  8
0
 10
170.7315877359424121
 20
105.7928421319744956
 30
0.0
  0
VERTEX
  5
4FCD
  8
0
 10
170.701726750441793
 20
105.8755334242971031
 30
0.0
  0
VERTEX
  5
4FCE
  8
0
 10
170.6868248088644009
 20
105.9167386531522936
 30
0.0
  0
VERTEX
  5
4FCF
  8
0
 10
170.6719433953145995
 20
105.9578464971610003
 30
0.0
  0
VERTEX
  5
4FD0
  8
0
 10
170.6422466334514922
 20
106.0397587761784024
 30
0.0
  0
VERTEX
  5
4FD1
  8
0
 10
170.6126454186924093
 20
106.1212478803772967
 30
0.0
  0
VERTEX
  5
4FD2
  8
0
 10
170.5831486808438058
 20
106.2022916595052067
 30
0.0
  0
VERTEX
  5
4FD3
  8
0
 10
170.553765310722099
 20
106.2828682307420962
 30
0.0
  0
VERTEX
  5
4FD4
  8
0
 10
170.5245041451996997
 20
106.3629560148900026
 30
0.0
  0
VERTEX
  5
4FD5
  8
0
 10
170.5099221322523135
 20
106.4028099601290052
 30
0.0
  0
VERTEX
  5
4FD6
  8
0
 10
170.495373952237486
 20
106.4425337721015978
 30
0.0
  0
VERTEX
  5
4FD7
  8
0
 10
170.4663834158940858
 20
106.521580637209496
 30
0.0
  0
VERTEX
  5
4FD8
  8
0
 10
170.4375411212893141
 20
106.6000761547166036
 30
0.0
  0
VERTEX
  5
4FD9
  8
0
 10
170.4231782167229881
 20
106.6391108863426069
 30
0.0
  0
VERTEX
  5
4FDA
  8
0
 10
170.33788200780441
 20
106.8701829732863047
 30
0.0
  0
VERTEX
  5
4FDB
  8
0
 10
170.1725314334508141
 20
107.3145654711778008
 30
0.0
  0
VERTEX
  5
4FDC
  8
0
 10
170.0156216523214141
 20
107.7320153281788038
 30
0.0
  0
VERTEX
  5
4FDD
  8
0
 10
169.9398812668491985
 20
107.9320701249132952
 30
0.0
  0
SEQEND
  5
4FDE
  8
0
  0
LINE
  5
4568
  8
0
 10
151.8802497935785141
 20
110.040313646710203
 30
0.0
 11
151.8802497935785141
 21
97.1902909949999128
 31
0.0
  0
POLYLINE
  5
4569
  8
0
 66
     1
 10
0.0
 20
0.0
 30
0.0
  0
VERTEX
  5
4FDF
  8
0
 10
162.3802497935785141
 20
97.1902909949999128
 30
0.0
  0
VERTEX
  5
4FE0
  8
0
 10
162.4928800928159944
 20
96.9897639689893083
 30
0.0
  0
VERTEX
  5
4FE1
  8
0
 10
162.718030704565507
 20
96.5844686465833036
 30
0.0
  0
VERTEX
  5
4FE2
  8
0
 10
162.9427817769534954
 20
96.1738236854292552
 30
0.0
  0
VERTEX
  5
4FE3
  8
0
 10
163.0549145098061103
 20
95.9666114019771328
 30
0.0
  0
VERTEX
  5
4FE4
  8
0
 10
163.1668371042339913
 20
95.7582016889009253
 30
0.0
  0
VERTEX
  5
4FE5
  8
0
 10
163.389909415890088
 20
95.3379816574313992
 30
0.0
  0
VERTEX
  5
4FE6
  8
0
 10
163.611718071507994
 20
94.9135539926586063
 30
0.0
  0
VERTEX
  5
4FE7
  8
0
 10
163.8319900024212075
 20
94.4853195613198551
 30
0.0
  0
VERTEX
  5
4FE8
  8
0
 10
164.050460658321299
 20
94.0536885940639138
 30
0.0
  0
VERTEX
  5
4FE9
  8
0
 10
164.2668749212515991
 20
93.6190794762311214
 30
0.0
  0
VERTEX
  5
4FEA
  8
0
 10
164.3742339803181949
 20
93.4007907563863853
 30
0.0
  0
VERTEX
  5
4FEB
  8
0
 10
164.4809879988663113
 20
93.1819173945353754
 30
0.0
  0
VERTEX
  5
4FEC
  8
0
 10
164.6925749918748068
 20
92.742614618833457
 30
0.0
  0
VERTEX
  5
4FED
  8
0
 10
164.9014286344998084
 20
92.3015738763187557
 30
0.0
  0
VERTEX
  5
4FEE
  8
0
 10
165.1073332397421893
 20
91.8592436085538964
 30
0.0
  0
VERTEX
  5
4FEF
  8
0
 10
165.3100821687924054
 20
91.4160830566920311
 30
0.0
  0
VERTEX
  5
4FF0
  8
0
 10
165.5094791464954938
 20
90.9725597449445047
 30
0.0
  0
VERTEX
  5
4FF1
  8
0
 10
165.6078623505243002
 20
90.7508100058466454
 30
0.0
  0
VERTEX
  5
4FF2
  8
0
 10
165.7053390650233098
 20
90.5291477877807154
 30
0.0
  0
VERTEX
  5
4FF3
  8
0
 10
165.8974887244355045
 20
90.0863260890717754
 30
0.0
  0
VERTEX
  5
4FF4
  8
0
 10
166.0857675375206952
 20
89.644576360782338
 30
0.0
  0
VERTEX
  5
4FF5
  8
0
 10
166.1784083131506122
 20
89.4242554376097445
 30
0.0
  0
SEQEND
  5
4FF6
  8
0
  0
POLYLINE
  5
456A
  8
0
 66
     1
 10
0.0
 20
0.0
 30
0.0
  0
VERTEX
  5
4FF7
  8
0
 10
151.8802497935785141
 20
110.040313646710203
 30
0.0
  0
VERTEX
  5
4FF8
  8
0
 10
151.8884361383499879
 20
110.0484999914820037
 30
0.0
  0
VERTEX
  5
4FF9
  8
0
 10
151.9041267240990862
 20
110.064190577230903
 30
0.0
  0
VERTEX
  5
4FFA
  8
0
 10
151.9189059821644037
 20
110.0789698352962063
 30
0.0
  0
VERTEX
  5
4FFB
  8
0
 10
151.9259531978707116
 20
110.0860170510025995
 30
0.0
  0
VERTEX
  5
4FFC
  8
0
 10
151.9327717994364946
 20
110.0928356525682972
 30
0.0
  0
VERTEX
  5
4FFD
  8
0
 10
151.9457221934083009
 20
110.1057860465401035
 30
0.0
  0
VERTEX
  5
4FFE
  8
0
 10
151.9577553124574933
 20
110.1178191655892959
 30
0.0
  0
VERTEX
  5
4FFF
  8
0
 10
151.9688694361124988
 20
110.1289332892444008
 30
0.0
  0
VERTEX
  5
5000
  8
0
 10
151.9790629752976088
 20
110.1391268284294966
 30
0.0
  0
VERTEX
  5
5001
  8
0
 10
151.9883344725606094
 20
110.1483983256922983
 30
0.0
  0
VERTEX
  5
5002
  8
0
 10
151.9926240360597944
 20
110.152687889191597
 30
0.0
  0
VERTEX
  5
5003
  8
0
 10
151.996682602280714
 20
110.1567464554126019
 30
0.0
  0
VERTEX
  5
5004
  8
0
 10
152.0041061708589041
 20
110.1641700239908062
 30
0.0
  0
VERTEX
  5
5005
  8
0
 10
152.0106041168880893
 20
110.1706679700198066
 30
0.0
  0
VERTEX
  5
5006
  8
0
 10
152.0161755113041977
 20
110.1762393644360003
 30
0.0
  0
VERTEX
  5
5007
  8
0
 10
152.0208195575202978
 20
110.1808834106521005
 30
0.0
  0
VERTEX
  5
5008
  8
0
 10
152.0245355915400864
 20
110.1845994446718038
 30
0.0
  0
VERTEX
  5
5009
  8
0
 10
152.0260454327560069
 20
110.1861092858879942
 30
0.0
  0
VERTEX
  5
500A
  8
0
 10
152.0273230820519075
 20
110.1873869351836959
 30
0.0
  0
VERTEX
  5
500B
  8
0
 10
152.0291816305058887
 20
110.189245483637805
 30
0.0
  0
VERTEX
  5
500C
  8
0
 10
152.0301109711705863
 20
110.1901748243025025
 30
0.0
  0
VERTEX
  5
500D
  8
0
 10
152.0302271418682096
 20
110.1902909949998985
 30
0.0
  0
SEQEND
  5
500E
  8
0
  0
POLYLINE
  5
456B
  8
0
 66
     1
 10
0.0
 20
0.0
 30
0.0
  0
VERTEX
  5
500F
  8
0
 10
169.9398812668491985
 20
107.9320701249132952
 30
0.0
  0
VERTEX
  5
5010
  8
0
 10
169.8942575520609068
 20
108.046212588613102
 30
0.0
  0
VERTEX
  5
5011
  8
0
 10
169.792371710540408
 20
108.2668851285782949
 30
0.0
  0
VERTEX
  5
5012
  8
0
 10
169.6773774946721005
 20
108.4766538799910052
 30
0.0
  0
VERTEX
  5
5013
  8
0
 10
169.6153998029612922
 20
108.5771752719386001
 30
0.0
  0
VERTEX
  5
5014
  8
0
 10
169.550681038768289
 20
108.6746555883454022
 30
0.0
  0
VERTEX
  5
5015
  8
0
 10
169.4137830408872105
 20
108.8601629983675991
 30
0.0
  0
VERTEX
  5
5016
  8
0
 10
169.2682411398394891
 20
109.0326271320318057
 30
0.0
  0
VERTEX
  5
5017
  8
0
 10
169.115673516826007
 20
109.1916539092169955
 30
0.0
  0
VERTEX
  5
5018
  8
0
 10
168.9574864607139091
 20
109.3372341563424044
 30
0.0
  0
VERTEX
  5
5019
  8
0
 10
168.7890143090733091
 20
109.4740829527652011
 30
0.0
  0
VERTEX
  5
501A
  8
0
 10
168.7002933937573914
 20
109.5395116318145057
 30
0.0
  0
VERTEX
  5
501B
  8
0
 10
168.6087546955056951
 20
109.6026480458267969
 30
0.0
  0
VERTEX
  5
501C
  8
0
 10
168.4177178634718075
 20
109.7212977489520966
 30
0.0
  0
VERTEX
  5
501D
  8
0
 10
168.2168072152742013
 20
109.8287430498100008
 30
0.0
  0
VERTEX
  5
501E
  8
0
 10
168.006709377429388
 20
109.9239762978814952
 30
0.0
  0
VERTEX
  5
501F
  8
0
 10
167.880143903366104
 20
109.9735329949021008
 30
0.0
  0
VERTEX
  5
5020
  8
0
 10
167.8434735357776901
 20
109.9868443416477959
 30
0.0
  0
VERTEX
  5
5021
  8
0
 10
167.8065727512538956
 20
109.9997751563948043
 30
0.0
  0
VERTEX
  5
5022
  8
0
 10
167.7880347439626973
 20
110.006097266937104
 30
0.0
  0
VERTEX
  5
5023
  8
0
 10
167.7694375879420932
 20
110.0123235184800023
 30
0.0
  0
VERTEX
  5
5024
  8
0
 10
167.7320633255814926
 20
110.0244874217383995
 30
0.0
  0
VERTEX
  5
5025
  8
0
 10
167.6944444702681096
 20
110.036264733052505
 30
0.0
  0
VERTEX
  5
5026
  8
0
 10
167.6565747497828909
 20
110.047653146553202
 30
0.0
  0
VERTEX
  5
5027
  8
0
 10
167.618447121812693
 20
110.0586501335815939
 30
0.0
  0
VERTEX
  5
5028
  8
0
 10
167.5800537976734006
 20
110.0692528886525992
 30
0.0
  0
VERTEX
  5
5029
  8
0
 10
167.560754871427207
 20
110.0744054626781008
 30
0.0
  0
VERTEX
  5
502A
  8
0
 10
167.5413862844183939
 20
110.0794582718285
 30
0.0
  0
VERTEX
  5
502B
  8
0
 10
167.5024354484160085
 20
110.0892627481325974
 30
0.0
  0
VERTEX
  5
502C
  8
0
 10
167.4631916036022972
 20
110.0986623249000047
 30
0.0
  0
VERTEX
  5
502D
  8
0
 10
167.4434566528923085
 20
110.1032088874685968
 30
0.0
  0
VERTEX
  5
502E
  8
0
 10
167.4236446275820072
 20
110.1076524882873997
 30
0.0
  0
VERTEX
  5
502F
  8
0
 10
167.3837841085203024
 20
110.1162281405438961
 30
0.0
  0
VERTEX
  5
5030
  8
0
 10
167.343600893865613
 20
110.1243832706371961
 30
0.0
  0
VERTEX
  5
5031
  8
0
 10
167.3233865990185052
 20
110.128300868521805
 30
0.0
  0
VERTEX
  5
5032
  8
0
 10
167.3030883601061021
 20
110.1321107883569965
 30
0.0
  0
VERTEX
  5
5033
  8
0
 10
167.2622324550341091
 20
110.1394043862427026
 30
0.0
  0
VERTEX
  5
5034
  8
0
 10
167.2210171391857045
 20
110.1462572023440032
 30
0.0
  0
VERTEX
  5
5035
  8
0
 10
167.1794251109625122
 20
110.1526615766192947
 30
0.0
  0
VERTEX
  5
5036
  8
0
 10
167.1374379943800079
 20
110.1586089301732017
 30
0.0
  0
VERTEX
  5
5037
  8
0
 10
167.0950365957164081
 20
110.1640896461923944
 30
0.0
  0
VERTEX
  5
5038
  8
0
 10
167.0736743978993104
 20
110.1666516983268025
 30
0.0
  0
VERTEX
  5
5039
  8
0
 10
167.0522012298737877
 20
110.1690929582550069
 30
0.0
  0
VERTEX
  5
503A
  8
0
 10
167.008912106178002
 20
110.1736068530725987
 30
0.0
  0
VERTEX
  5
503B
  8
0
 10
166.965149273636996
 20
110.177618035755799
 30
0.0
  0
VERTEX
  5
503C
  8
0
 10
166.9208915176679966
 20
110.1811119627947022
 30
0.0
  0
VERTEX
  5
503D
  8
0
 10
166.8761161778652138
 20
110.1840727302644041
 30
0.0
  0
VERTEX
  5
503E
  8
0
 10
166.8307994997840069
 20
110.1864829159053016
 30
0.0
  0
VERTEX
  5
503F
  8
0
 10
166.8079305426934127
 20
110.1874756456626017
 30
0.0
  0
VERTEX
  5
5040
  8
0
 10
166.784917071808195
 20
110.1883234378563969
 30
0.0
  0
VERTEX
  5
5041
  8
0
 10
166.7384443186151088
 20
110.1895734385960992
 30
0.0
  0
VERTEX
  5
5042
  8
0
 10
166.6913570191071869
 20
110.1902102001447048
 30
0.0
  0
VERTEX
  5
5043
  8
0
 10
166.667575567115108
 20
110.1902909949998985
 30
0.0
  0
SEQEND
  5
5044
  8
0
  0
POLYLINE
  5
456C
  8
0
 66
     1
 10
0.0
 20
0.0
 30
0.0
  0
VERTEX
  5
5045
  8
0
 10
169.9211086809700078
 20
107.9804546578931053
 30
0.0
  0
VERTEX
  5
5046
  8
0
 10
169.9138119369486049
 20
107.9987058493828016
 30
0.0
  0
VERTEX
  5
5047
  8
0
 10
169.9030929366520013
 20
108.0249922167816976
 30
0.0
  0
VERTEX
  5
5048
  8
0
 10
169.8977315831866122
 20
108.0379156132959935
 30
0.0
  0
VERTEX
  5
5049
  8
0
 10
169.8970680631998107
 20
108.0395049208590024
 30
0.0
  0
SEQEND
  5
504A
  8
0
  0
POLYLINE
  5
456D
  8
0
 66
     1
 10
0.0
 20
0.0
 30
0.0
  0
VERTEX
  5
504B
  8
0
 10
172.9696908995701961
 20
99.0522574036675394
 30
0.0
  0
VERTEX
  5
504C
  8
0
 10
172.9692324841803099
 20
99.0537663220862754
 30
0.0
  0
VERTEX
  5
504D
  8
0
 10
172.9655047011058002
 20
99.0660343863260948
 30
0.0
  0
VERTEX
  5
504E
  8
0
 10
172.9579197511397979
 20
99.0909837190892802
 30
0.0
  0
VERTEX
  5
504F
  8
0
 10
172.9526510792350109
 20
99.1083041432200105
 30
0.0
  0
VERTEX
  5
5050
  8
0
 10
172.946388137317598
 20
99.1288825963260649
 30
0.0
  0
VERTEX
  5
5051
  8
0
 10
172.9308647575741986
 20
99.1798391305045186
 30
0.0
  0
VERTEX
  5
5052
  8
0
 10
172.9113464357021996
 20
99.2438097799822287
 30
0.0
  0
VERTEX
  5
5053
  8
0
 10
172.887873854055897
 20
99.320594203040713
 30
0.0
  0
VERTEX
  5
5054
  8
0
 10
172.8605300417233934
 20
99.4098421993059844
 30
0.0
  0
VERTEX
  5
5055
  8
0
 10
172.8294195881277915
 20
99.5111239839321513
 30
0.0
  0
VERTEX
  5
5056
  8
0
 10
172.8124926669636068
 20
99.5661148483289651
 30
0.0
  0
VERTEX
  5
5057
  8
0
 10
172.794680889787287
 20
99.6238928168983051
 30
0.0
  0
VERTEX
  5
5058
  8
0
 10
172.7565076515901978
 20
99.7474188025264255
 30
0.0
  0
VERTEX
  5
5059
  8
0
 10
172.7151338532410136
 20
99.8808421557698409
 30
0.0
  0
VERTEX
  5
505A
  8
0
 10
172.6708297777375094
 20
100.0231903978506978
 30
0.0
  0
VERTEX
  5
505B
  8
0
 10
172.623908850052203
 20
100.1733609084430014
 30
0.0
  0
VERTEX
  5
505C
  8
0
 10
172.5747300083291975
 20
100.3301182564202065
 30
0.0
  0
VERTEX
  5
505D
  8
0
 10
172.5494150387787045
 20
100.4105567655217044
 30
0.0
  0
VERTEX
  5
505E
  8
0
 10
172.5234161111687001
 20
100.492991050713897
 30
0.0
  0
VERTEX
  5
505F
  8
0
 10
172.4688960845751069
 20
100.6652772124188999
 30
0.0
  0
VERTEX
  5
5060
  8
0
 10
172.4111428057080957
 20
100.8469336868876951
 30
0.0
  0
VERTEX
  5
5061
  8
0
 10
172.381109636382206
 20
100.9410589482665017
 30
0.0
  0
SEQEND
  5
5062
  8
0
  0
LINE
  5
456E
  8
0
 10
147.8802497935785141
 20
98.9802909949998764
 30
0.0
 11
147.8802497935785141
 21
108.3802909949998963
 31
0.0
  0
LINE
  5
456F
  8
0
 10
172.3802497935785141
 20
100.9433561087557933
 30
0.0
 11
172.3802497935785141
 21
107.9802909949999048
 31
0.0
  0
LINE
  5
4570
  8
0
 10
148.1802497935784118
 20
98.6802909949999218
 30
0.0
 11
148.1802497935784118
 21
108.6802909949998934
 31
0.0
  0
LINE
  5
4571
  8
2
 10
119.9802497935784942
 20
191.4802909949999048
 30
0.0
 11
119.9802497935784942
 21
210.8802909949999105
 31
0.0
  0
LINE
  5
4572
  8
1
 10
106.0802497935785027
 20
213.1802909950000071
 30
0.0
 11
106.0802497935785027
 21
189.1802909950000071
 31
0.0
  0
LINE
  5
4573
  8
1
 10
140.0802497935785027
 20
213.1802909950000071
 30
0.0
 11
140.0802497935785027
 21
189.1802909950000071
 31
0.0
  0
LINE
  5
4574
  8
0
 10
178.7472912125942912
 20
197.8162388571612098
 30
0.0
 11
178.7472912125942912
 21
204.5443431328388897
 31
0.0
  0
LINE
  5
4575
  8
0
 10
176.8050346705610991
 20
205.2652263169825915
 30
0.0
 11
174.3340205210380987
 21
205.2652263169825915
 31
0.0
  0
LINE
  5
4576
  8
0
 10
162.3802497935782014
 20
194.1802909950000924
 30
0.0
 11
171.4744559959196977
 21
194.1802909950000924
 31
0.0
  0
LINE
  5
4577
  8
0
 10
171.4744559959196977
 20
208.1802909950000924
 30
0.0
 11
162.3802497935782014
 21
208.1802909950000924
 31
0.0
  0
LINE
  5
4578
  8
0
 10
174.3340205210384113
 20
197.0953556730175933
 30
0.0
 11
176.8050346705610991
 21
197.0953556730175933
 31
0.0
  0
LINE
  5
4579
  8
0
 10
162.3802497935782014
 20
207.6802909950000924
 30
0.0
 11
151.8802497935782867
 21
207.6802909950000924
 31
0.0
  0
LINE
  5
457A
  8
0
 10
151.8802497935782867
 20
194.6802909950000924
 30
0.0
 11
162.3802497935782014
 21
194.6802909950000924
 31
0.0
  0
LINE
  5
457B
  8
0
 10
147.8802497935782867
 20
196.4802909949999901
 30
0.0
 11
148.1802497935784118
 21
196.1802909950000924
 31
0.0
  0
LINE
  5
457C
  8
0
 10
148.1802497935784118
 20
206.1802909950000924
 30
0.0
 11
147.8802497935782867
 21
205.8802909950001947
 31
0.0
  0
LINE
  5
457D
  8
0
 10
171.0631408244400973
 20
196.8802909950001094
 30
0.0
 11
172.3802497935782867
 21
196.8802909950001094
 31
0.0
  0
LINE
  5
457E
  8
0
 10
172.3802497935782867
 20
205.4802909950001037
 30
0.0
 11
171.0631391791409897
 21
205.4802909950001037
 31
0.0
  0
LINE
  5
457F
  8
0
 10
148.1802497935784118
 20
196.1802909950000924
 30
0.0
 11
151.8802497935782867
 21
196.1802909950000924
 31
0.0
  0
LINE
  5
4580
  8
0
 10
151.8802497935782867
 20
206.1802909950000924
 30
0.0
 11
148.1802497935784118
 21
206.1802909950000924
 31
0.0
  0
POLYLINE
  5
4581
  8
0
 66
     1
 10
0.0
 20
0.0
 30
0.0
  0
VERTEX
  5
5063
  8
0
 10
176.6547288208369082
 20
205.1959498424135973
 30
0.0
  0
VERTEX
  5
5064
  8
0
 10
176.5000791219596863
 20
205.0689698259477041
 30
0.0
  0
VERTEX
  5
5065
  8
0
 10
176.1731298347542065
 20
204.8839617928215944
 30
0.0
  0
VERTEX
  5
5066
  8
0
 10
175.8243472541454935
 20
204.7917410187777136
 30
0.0
  0
VERTEX
  5
5067
  8
0
 10
175.6425649765384946
 20
204.7802909950000867
 30
0.0
  0
SEQEND
  5
5068
  8
0
  0
POLYLINE
  5
4582
  8
0
 66
     1
 10
0.0
 20
0.0
 30
0.0
  0
VERTEX
  5
5069
  8
0
 10
175.6425649765384946
 20
204.7802909950000867
 30
0.0
  0
VERTEX
  5
506A
  8
0
 10
175.5737040320125004
 20
204.7818696802393958
 30
0.0
  0
VERTEX
  5
506B
  8
0
 10
175.4342434566731015
 20
204.7944389886544911
 30
0.0
  0
VERTEX
  5
506C
  8
0
 10
175.2926240832130134
 20
204.819402971437512
 30
0.0
  0
VERTEX
  5
506D
  8
0
 10
175.2210670669996944
 20
204.8364657457080114
 30
0.0
  0
VERTEX
  5
506E
  8
0
 10
175.1490462057302011
 20
204.8565416885145112
 30
0.0
  0
VERTEX
  5
506F
  8
0
 10
175.0037202044048001
 20
204.905596574372197
 30
0.0
  0
VERTEX
  5
5070
  8
0
 10
174.8568687218260038
 20
204.9662700460872031
 30
0.0
  0
VERTEX
  5
5071
  8
0
 10
174.7087267324733943
 20
205.0382250345460875
 30
0.0
  0
VERTEX
  5
5072
  8
0
 10
174.5595403414806128
 20
205.1210850970911963
 30
0.0
  0
VERTEX
  5
5073
  8
0
 10
174.4095654912005102
 20
205.2144349313882969
 30
0.0
  0
VERTEX
  5
5074
  8
0
 10
174.3343647314812017
 20
205.2649033156060909
 30
0.0
  0
VERTEX
  5
5075
  8
0
 10
174.2590665973438888
 20
205.3178212597310903
 30
0.0
  0
VERTEX
  5
5076
  8
0
 10
174.1082646213369003
 20
205.4307934249825109
 30
0.0
  0
VERTEX
  5
5077
  8
0
 10
173.9552175308047026
 20
205.5546966883626112
 30
0.0
  0
VERTEX
  5
5078
  8
0
 10
173.7989222858562073
 20
205.6905188590966986
 30
0.0
  0
VERTEX
  5
5079
  8
0
 10
173.639537577342395
 20
205.8383849097589859
 30
0.0
  0
VERTEX
  5
507A
  8
0
 10
173.4772325148063885
 20
205.9983842442414925
 30
0.0
  0
VERTEX
  5
507B
  8
0
 10
173.3950403208957027
 20
206.0829522974547956
 30
0.0
  0
VERTEX
  5
507C
  8
0
 10
173.3121857027410897
 20
206.1705715038623907
 30
0.0
  0
VERTEX
  5
507D
  8
0
 10
173.1445842254215108
 20
206.3549677034563956
 30
0.0
  0
VERTEX
  5
507E
  8
0
 10
172.97462253505131
 20
206.5515617042196084
 30
0.0
  0
VERTEX
  5
507F
  8
0
 10
172.8888190948538863
 20
206.6544210477069043
 30
0.0
  0
SEQEND
  5
5080
  8
0
  0
POLYLINE
  5
4583
  8
0
 66
     1
 10
0.0
 20
0.0
 30
0.0
  0
VERTEX
  5
5081
  8
0
 10
176.8378421348081133
 20
197.098777963872493
 30
0.0
  0
VERTEX
  5
5082
  8
0
 10
177.2720100535914014
 20
197.1950922793735117
 30
0.0
  0
VERTEX
  5
5083
  8
0
 10
177.9913169132557869
 20
197.3885517218546113
 30
0.0
  0
VERTEX
  5
5084
  8
0
 10
178.511078880299209
 20
197.5828848586787956
 30
0.0
  0
VERTEX
  5
5085
  8
0
 10
178.6958835405656885
 20
197.6802909950000924
 30
0.0
  0
SEQEND
  5
5086
  8
0
  0
POLYLINE
  5
4584
  8
0
 66
     1
 10
0.0
 20
0.0
 30
0.0
  0
VERTEX
  5
5087
  8
0
 10
178.6958835405656885
 20
197.6802909950000924
 30
0.0
  0
VERTEX
  5
5088
  8
0
 10
178.6972417108061109
 20
197.6803627828797119
 30
0.0
  0
VERTEX
  5
5089
  8
0
 10
178.6999560693024875
 20
197.680940004170111
 30
0.0
  0
VERTEX
  5
508A
  8
0
 10
178.7026668118840007
 20
197.682101638318187
 30
0.0
  0
VERTEX
  5
508B
  8
0
 10
178.7040204649977113
 20
197.6829038215732055
 30
0.0
  0
VERTEX
  5
508C
  8
0
 10
178.7053727811741908
 20
197.6838546968448895
 30
0.0
  0
VERTEX
  5
508D
  8
0
 10
178.7080728340552014
 20
197.6862056715443998
 30
0.0
  0
VERTEX
  5
508E
  8
0
 10
178.7107658440137925
 20
197.6891605317061078
 30
0.0
  0
VERTEX
  5
508F
  8
0
 10
178.7134507033904072
 20
197.6927247234226002
 30
0.0
  0
VERTEX
  5
5090
  8
0
 10
178.7161263255219978
 20
197.6969031709749061
 30
0.0
  0
VERTEX
  5
5091
  8
0
 10
178.7187916467960065
 20
197.7017002803015941
 30
0.0
  0
VERTEX
  5
5092
  8
0
 10
178.7201201190179916
 20
197.7043320695769921
 30
0.0
  0
VERTEX
  5
5093
  8
0
 10
178.721445628604414
 20
197.7071199445597074
 30
0.0
  0
VERTEX
  5
5094
  8
0
 10
178.7240872592109895
 20
197.7131655518037974
 30
0.0
  0
VERTEX
  5
5095
  8
0
 10
178.7267155555265958
 20
197.7198399948071028
 30
0.0
  0
VERTEX
  5
5096
  8
0
 10
178.7293295647976095
 20
197.7271456830640943
 30
0.0
  0
VERTEX
  5
5097
  8
0
 10
178.7319283662068017
 20
197.7350845570130105
 30
0.0
  0
VERTEX
  5
5098
  8
0
 10
178.7345110723873916
 20
197.7436581045259913
 30
0.0
  0
VERTEX
  5
5099
  8
0
 10
178.7357961226882992
 20
197.7481832292585011
 30
0.0
  0
VERTEX
  5
509A
  8
0
 10
178.7370768346582111
 20
197.752867393907195
 30
0.0
  0
VERTEX
  5
509B
  8
0
 10
178.7396248264687983
 20
197.7627130287181103
 30
0.0
  0
VERTEX
  5
509C
  8
0
 10
178.7421542272147974
 20
197.7731950769421019
 30
0.0
  0
VERTEX
  5
509D
  8
0
 10
178.7434117066140971
 20
197.7786746490272947
 30
0.0
  0
SEQEND
  5
509E
  8
0
  0
POLYLINE
  5
4585
  8
0
 66
     1
 10
0.0
 20
0.0
 30
0.0
  0
VERTEX
  5
509F
  8
0
 10
178.7434117066140971
 20
197.7786746490272947
 30
0.0
  0
VERTEX
  5
50A0
  8
0
 10
178.7446005336815062
 20
197.7845096141273871
 30
0.0
  0
VERTEX
  5
50A1
  8
0
 10
178.7463253118042132
 20
197.7966931041127054
 30
0.0
  0
VERTEX
  5
50A2
  8
0
 10
178.7471842362058112
 20
197.8095555815752959
 30
0.0
  0
VERTEX
  5
50A3
  8
0
 10
178.7472912125942912
 20
197.8162388571684005
 30
0.0
  0
SEQEND
  5
50A4
  8
0
  0
POLYLINE
  5
4586
  8
0
 66
     1
 10
0.0
 20
0.0
 30
0.0
  0
VERTEX
  5
50A5
  8
0
 10
178.7472912125942912
 20
204.5443431328318127
 30
0.0
  0
VERTEX
  5
50A6
  8
0
 10
178.7471842362058112
 20
204.5510264084248888
 30
0.0
  0
VERTEX
  5
50A7
  8
0
 10
178.7463253118042132
 20
204.5638888858873941
 30
0.0
  0
VERTEX
  5
50A8
  8
0
 10
178.7446005336815062
 20
204.5760723758727977
 30
0.0
  0
VERTEX
  5
50A9
  8
0
 10
178.7434117066140971
 20
204.5819073409728901
 30
0.0
  0
SEQEND
  5
50AA
  8
0
  0
POLYLINE
  5
4587
  8
0
 66
     1
 10
0.0
 20
0.0
 30
0.0
  0
VERTEX
  5
50AB
  8
0
 10
178.7434117066140971
 20
204.5819073409728901
 30
0.0
  0
VERTEX
  5
50AC
  8
0
 10
178.7421542370996121
 20
204.5873868706921996
 30
0.0
  0
VERTEX
  5
50AD
  8
0
 10
178.7396248558513889
 20
204.5978688436526056
 30
0.0
  0
VERTEX
  5
50AE
  8
0
 10
178.7370768829183874
 20
204.6077144162750017
 30
0.0
  0
VERTEX
  5
50AF
  8
0
 10
178.7357961800545922
 20
204.6123985548389896
 30
0.0
  0
VERTEX
  5
50B0
  8
0
 10
178.7345111385652103
 20
204.6169236569116094
 30
0.0
  0
VERTEX
  5
50B1
  8
0
 10
178.7319284489232984
 20
204.6254971694071116
 30
0.0
  0
VERTEX
  5
50B2
  8
0
 10
178.7293296624094978
 20
204.6334360215026891
 30
0.0
  0
VERTEX
  5
50B3
  8
0
 10
178.7267156660757053
 20
204.6407417004135993
 30
0.0
  0
VERTEX
  5
50B4
  8
0
 10
178.7240873804095997
 20
204.6474161456964964
 30
0.0
  0
VERTEX
  5
50B5
  8
0
 10
178.7214457578182021
 20
204.6534617657289061
 30
0.0
  0
VERTEX
  5
50B6
  8
0
 10
178.7201202511388942
 20
204.6562496506311959
 30
0.0
  0
VERTEX
  5
50B7
  8
0
 10
178.7187917810292106
 20
204.6588814519234063
 30
0.0
  0
VERTEX
  5
50B8
  8
0
 10
178.7161264614053096
 20
204.6636785907201102
 30
0.0
  0
VERTEX
  5
50B9
  8
0
 10
178.7134508371661923
 20
204.6678570734034111
 30
0.0
  0
VERTEX
  5
50BA
  8
0
 10
178.7107659715263139
 20
204.6714213037741956
 30
0.0
  0
VERTEX
  5
50BB
  8
0
 10
178.7080729507376873
 20
204.674376203708789
 30
0.0
  0
VERTEX
  5
50BC
  8
0
 10
178.7053728820411891
 20
204.6767272166248972
 30
0.0
  0
VERTEX
  5
50BD
  8
0
 10
178.7040205559532922
 20
204.6776781095111915
 30
0.0
  0
VERTEX
  5
50BE
  8
0
 10
178.7026668915206926
 20
204.6784803088658009
 30
0.0
  0
VERTEX
  5
50BF
  8
0
 10
178.6999561218597137
 20
204.6796419690091113
 30
0.0
  0
VERTEX
  5
50C0
  8
0
 10
178.6972417299909921
 20
204.6802192050897133
 30
0.0
  0
VERTEX
  5
50C1
  8
0
 10
178.6958835405656885
 20
204.6802909950000924
 30
0.0
  0
SEQEND
  5
50C2
  8
0
  0
POLYLINE
  5
4588
  8
0
 66
     1
 10
0.0
 20
0.0
 30
0.0
  0
VERTEX
  5
50C3
  8
0
 10
178.6958835405656885
 20
204.6802909950000924
 30
0.0
  0
VERTEX
  5
50C4
  8
0
 10
178.511078880299209
 20
204.7776971313213892
 30
0.0
  0
VERTEX
  5
50C5
  8
0
 10
177.9913169132557869
 20
204.9720302681456019
 30
0.0
  0
VERTEX
  5
50C6
  8
0
 10
177.2720100535914014
 20
205.1654897106267015
 30
0.0
  0
VERTEX
  5
50C7
  8
0
 10
176.8378421348081133
 20
205.2618040261276064
 30
0.0
  0
SEQEND
  5
50C8
  8
0
  0
POLYLINE
  5
4589
  8
0
 66
     1
 10
0.0
 20
0.0
 30
0.0
  0
VERTEX
  5
50C9
  8
0
 10
176.8378421348081133
 20
205.2618040261276064
 30
0.0
  0
VERTEX
  5
50CA
  8
0
 10
176.8323651570688071
 20
205.262854685657004
 30
0.0
  0
VERTEX
  5
50CB
  8
0
 10
176.8214205740862042
 20
205.2643761888110134
 30
0.0
  0
VERTEX
  5
50CC
  8
0
 10
176.8104918347546004
 20
205.2651322779740042
 30
0.0
  0
VERTEX
  5
50CD
  8
0
 10
176.8050346705610991
 20
205.2652263169825915
 30
0.0
  0
SEQEND
  5
50CE
  8
0
  0
POLYLINE
  5
458A
  8
0
 66
     1
 10
0.0
 20
0.0
 30
0.0
  0
VERTEX
  5
50CF
  8
0
 10
176.8050346705610991
 20
205.2652263169825915
 30
0.0
  0
VERTEX
  5
50D0
  8
0
 10
176.7807060646954938
 20
205.2633701874268013
 30
0.0
  0
VERTEX
  5
50D1
  8
0
 10
176.7310687107521971
 20
205.248242454337003
 30
0.0
  0
VERTEX
  5
50D2
  8
0
 10
176.6803751432177876
 20
205.2173978338508107
 30
0.0
  0
VERTEX
  5
50D3
  8
0
 10
176.6547288208369082
 20
205.1959498424135973
 30
0.0
  0
SEQEND
  5
50D4
  8
0
  0
LINE
  5
458B
  8
0
 10
162.3802497935782014
 20
198.6073743620715959
 30
0.0
 11
166.667575567115108
 21
198.6073743620715959
 31
0.0
  0
POLYLINE
  5
458C
  8
0
 66
     1
 10
0.0
 20
0.0
 30
0.0
  0
VERTEX
  5
50D5
  8
0
 10
169.9398812668488858
 20
195.6195020014818908
 30
0.0
  0
VERTEX
  5
50D6
  8
0
 10
169.9772559721774883
 20
195.5454777709365999
 30
0.0
  0
VERTEX
  5
50D7
  8
0
 10
170.0525937513380086
 20
195.4037843892361082
 30
0.0
  0
VERTEX
  5
50D8
  8
0
 10
170.1300899548386951
 20
195.2679682293650103
 30
0.0
  0
VERTEX
  5
50D9
  8
0
 10
170.1696648922259101
 20
195.2023071186858942
 30
0.0
  0
VERTEX
  5
50DA
  8
0
 10
170.2097575666415992
 20
195.1382412227162888
 30
0.0
  0
VERTEX
  5
50DB
  8
0
 10
170.2913920239508911
 20
195.0151675887555029
 30
0.0
  0
VERTEX
  5
50DC
  8
0
 10
170.3747809598231981
 20
194.8992585054942026
 30
0.0
  0
VERTEX
  5
50DD
  8
0
 10
170.459708080645413
 20
194.7909692753923139
 30
0.0
  0
VERTEX
  5
50DE
  8
0
 10
170.5459546096737995
 20
194.6907007944593033
 30
0.0
  0
VERTEX
  5
50DF
  8
0
 10
170.6332952636792015
 20
194.5988063892029913
 30
0.0
  0
VERTEX
  5
50E0
  8
0
 10
170.6773038628076904
 20
194.5560966619520968
 30
0.0
  0
VERTEX
  5
50E1
  8
0
 10
170.7214991594530034
 20
194.5155906833655024
 30
0.0
  0
VERTEX
  5
50E2
  8
0
 10
170.8103332104134893
 20
194.4413062855844032
 30
0.0
  0
VERTEX
  5
50E3
  8
0
 10
170.8995686235973039
 20
194.37614974107629
 30
0.0
  0
VERTEX
  5
50E4
  8
0
 10
170.9890075620681102
 20
194.3202492269547861
 30
0.0
  0
VERTEX
  5
50E5
  8
0
 10
171.0784280041137038
 20
194.2737064541773861
 30
0.0
  0
VERTEX
  5
50E6
  8
0
 10
171.1675984308864997
 20
194.2365779054792085
 30
0.0
  0
VERTEX
  5
50E7
  8
0
 10
171.2120179253581114
 20
194.2215467915264924
 30
0.0
  0
VERTEX
  5
50E8
  8
0
 10
171.256289055220094
 20
194.2088656644631897
 30
0.0
  0
VERTEX
  5
50E9
  8
0
 10
171.3442749952544091
 20
194.1905159309386875
 30
0.0
  0
VERTEX
  5
50EA
  8
0
 10
171.431338036952809
 20
194.1814190357156065
 30
0.0
  0
VERTEX
  5
50EB
  8
0
 10
171.4744559959196977
 20
194.1802909950000924
 30
0.0
  0
SEQEND
  5
50EC
  8
0
  0
POLYLINE
  5
458D
  8
0
 66
     1
 10
0.0
 20
0.0
 30
0.0
  0
VERTEX
  5
50ED
  8
0
 10
171.4744559959196977
 20
194.1802909950000924
 30
0.0
  0
VERTEX
  5
50EE
  8
0
 10
171.5182845139129029
 20
194.1814639117071977
 30
0.0
  0
VERTEX
  5
50EF
  8
0
 10
171.6048468627556929
 20
194.1907451783278873
 30
0.0
  0
VERTEX
  5
50F0
  8
0
 10
171.689762675257299
 20
194.2090121661753983
 30
0.0
  0
VERTEX
  5
50F1
  8
0
 10
171.7315350136138932
 20
194.2214015987354969
 30
0.0
  0
VERTEX
  5
50F2
  8
0
 10
171.7729051063990937
 20
194.2359267369029112
 30
0.0
  0
VERTEX
  5
50F3
  8
0
 10
171.8558013352227931
 20
194.2719289680090071
 30
0.0
  0
VERTEX
  5
50F4
  8
0
 10
171.9388497288321105
 20
194.3174948104658029
 30
0.0
  0
VERTEX
  5
50F5
  8
0
 10
172.0217672963464963
 20
194.3728429075864028
 30
0.0
  0
VERTEX
  5
50F6
  8
0
 10
172.104280916669893
 20
194.438121579434096
 30
0.0
  0
VERTEX
  5
50F7
  8
0
 10
172.1861309680502927
 20
194.5134124346546969
 30
0.0
  0
VERTEX
  5
50F8
  8
0
 10
172.2267302249385921
 20
194.5548207456685077
 30
0.0
  0
VERTEX
  5
50F9
  8
0
 10
172.2670725927953015
 20
194.5987338724910956
 30
0.0
  0
VERTEX
  5
50FA
  8
0
 10
172.3468704450208122
 20
194.6940372466715132
 30
0.0
  0
VERTEX
  5
50FB
  8
0
 10
172.425298608672108
 20
194.7992055751745966
 30
0.0
  0
VERTEX
  5
50FC
  8
0
 10
172.5021439169279063
 20
194.9140569269989101
 30
0.0
  0
VERTEX
  5
50FD
  8
0
 10
172.5772140517977107
 20
195.0383587188813124
 30
0.0
  0
VERTEX
  5
50FE
  8
0
 10
172.6503568925110983
 20
195.1718716140939875
 30
0.0
  0
VERTEX
  5
50FF
  8
0
 10
172.6861527374223897
 20
195.2419790964800086
 30
0.0
  0
VERTEX
  5
5100
  8
0
 10
172.7214036063689946
 20
195.3142555416139885
 30
0.0
  0
VERTEX
  5
5101
  8
0
 10
172.7901915573795009
 20
195.4650962978035977
 30
0.0
  0
VERTEX
  5
5102
  8
0
 10
172.8565726911292018
 20
195.6239192237682119
 30
0.0
  0
VERTEX
  5
5103
  8
0
 10
172.8888190948538863
 20
195.7061609422931951
 30
0.0
  0
SEQEND
  5
5104
  8
0
  0
LINE
  5
458E
  8
0
 10
162.3802497935782014
 20
194.1802909950000924
 30
0.0
 11
162.3802497935782014
 21
208.1802909950000924
 31
0.0
  0
POLYLINE
  5
458F
  8
0
 66
     1
 10
0.0
 20
0.0
 30
0.0
  0
VERTEX
  5
5105
  8
0
 10
172.8888190948538863
 20
206.6544210477069043
 30
0.0
  0
VERTEX
  5
5106
  8
0
 10
172.8565726911284912
 20
206.7366627662339909
 30
0.0
  0
VERTEX
  5
5107
  8
0
 10
172.7901915573787903
 20
206.895485692198406
 30
0.0
  0
VERTEX
  5
5108
  8
0
 10
172.7214036063685114
 20
207.0463264483877879
 30
0.0
  0
VERTEX
  5
5109
  8
0
 10
172.6861527374219065
 20
207.1186028935215973
 30
0.0
  0
VERTEX
  5
510A
  8
0
 10
172.6503568925101888
 20
207.1887103759075046
 30
0.0
  0
VERTEX
  5
510B
  8
0
 10
172.5772140517968012
 20
207.3222232711200945
 30
0.0
  0
VERTEX
  5
510C
  8
0
 10
172.5021439169275084
 20
207.4465250630022126
 30
0.0
  0
VERTEX
  5
510D
  8
0
 10
172.4252986086715111
 20
207.5613764148264977
 30
0.0
  0
VERTEX
  5
510E
  8
0
 10
172.3468704450203859
 20
207.6665447433294105
 30
0.0
  0
VERTEX
  5
510F
  8
0
 10
172.2670725927947899
 20
207.7618481175096008
 30
0.0
  0
VERTEX
  5
5110
  8
0
 10
172.2267302249381089
 20
207.8057612443321887
 30
0.0
  0
VERTEX
  5
5111
  8
0
 10
172.1861309680498096
 20
207.8471695553459142
 30
0.0
  0
VERTEX
  5
5112
  8
0
 10
172.1042809166694951
 20
207.9224604105664014
 30
0.0
  0
VERTEX
  5
5113
  8
0
 10
172.0217672963460984
 20
207.9877390824142083
 30
0.0
  0
VERTEX
  5
5114
  8
0
 10
171.9388497288315989
 20
208.0430871795346093
 30
0.0
  0
VERTEX
  5
5115
  8
0
 10
171.8558013352225942
 20
208.0886530219912913
 30
0.0
  0
VERTEX
  5
5116
  8
0
 10
171.7729051063988095
 20
208.1246552530973872
 30
0.0
  0
VERTEX
  5
5117
  8
0
 10
171.7315350136138932
 20
208.1391803912646878
 30
0.0
  0
VERTEX
  5
5118
  8
0
 10
171.689762675257299
 20
208.1515698238247865
 30
0.0
  0
VERTEX
  5
5119
  8
0
 10
171.6048468627556929
 20
208.1698368116722122
 30
0.0
  0
VERTEX
  5
511A
  8
0
 10
171.5182845139127039
 20
208.1791180782929871
 30
0.0
  0
VERTEX
  5
511B
  8
0
 10
171.4744559959196977
 20
208.1802909950000924
 30
0.0
  0
SEQEND
  5
511C
  8
0
  0
POLYLINE
  5
4590
  8
0
 66
     1
 10
0.0
 20
0.0
 30
0.0
  0
VERTEX
  5
511D
  8
0
 10
171.4744559959196977
 20
208.1802909950000924
 30
0.0
  0
VERTEX
  5
511E
  8
0
 10
171.431338036952809
 20
208.179162954284493
 30
0.0
  0
VERTEX
  5
511F
  8
0
 10
171.3442749952544091
 20
208.1700660590614973
 30
0.0
  0
VERTEX
  5
5120
  8
0
 10
171.256289055220094
 20
208.1517163255369098
 30
0.0
  0
VERTEX
  5
5121
  8
0
 10
171.2120179253581114
 20
208.1390351984736071
 30
0.0
  0
VERTEX
  5
5122
  8
0
 10
171.1675984308864997
 20
208.1240040845210046
 30
0.0
  0
VERTEX
  5
5123
  8
0
 10
171.0784280041137038
 20
208.0868755358227986
 30
0.0
  0
VERTEX
  5
5124
  8
0
 10
170.9890075620681102
 20
208.0403327630453134
 30
0.0
  0
VERTEX
  5
5125
  8
0
 10
170.8995686235973039
 20
207.9844322489238095
 30
0.0
  0
VERTEX
  5
5126
  8
0
 10
170.8103332104134893
 20
207.91927570441581
 30
0.0
  0
VERTEX
  5
5127
  8
0
 10
170.7214991594530034
 20
207.8449913066345971
 30
0.0
  0
VERTEX
  5
5128
  8
0
 10
170.6773038628076904
 20
207.8044853280480879
 30
0.0
  0
VERTEX
  5
5129
  8
0
 10
170.6332952636792015
 20
207.7617756007971934
 30
0.0
  0
VERTEX
  5
512A
  8
0
 10
170.5459546096737995
 20
207.6698811955409099
 30
0.0
  0
VERTEX
  5
512B
  8
0
 10
170.459708080645413
 20
207.5696127146078993
 30
0.0
  0
VERTEX
  5
512C
  8
0
 10
170.3747809598231981
 20
207.4613234845058969
 30
0.0
  0
VERTEX
  5
512D
  8
0
 10
170.2913920239508911
 20
207.3454144012447102
 30
0.0
  0
VERTEX
  5
512E
  8
0
 10
170.2097575666415992
 20
207.222340767283896
 30
0.0
  0
VERTEX
  5
512F
  8
0
 10
170.1696648922259101
 20
207.1582748713142905
 30
0.0
  0
VERTEX
  5
5130
  8
0
 10
170.1300899548386951
 20
207.0926137606352029
 30
0.0
  0
VERTEX
  5
5131
  8
0
 10
170.0525937513380086
 20
206.956797600764105
 30
0.0
  0
VERTEX
  5
5132
  8
0
 10
169.9772559721774883
 20
206.8151042190636133
 30
0.0
  0
VERTEX
  5
5133
  8
0
 10
169.9398812668488858
 20
206.7410799885182087
 30
0.0
  0
SEQEND
  5
5134
  8
0
  0
LINE
  5
4591
  8
0
 10
166.667575567115108
 20
203.7532076279285889
 30
0.0
 11
162.3802497935782014
 21
203.7532076279285889
 31
0.0
  0
POLYLINE
  5
4592
  8
0
 66
     1
 10
0.0
 20
0.0
 30
0.0
  0
VERTEX
  5
5135
  8
0
 10
176.6547288208369082
 20
197.1646321475865022
 30
0.0
  0
VERTEX
  5
5136
  8
0
 10
176.6803751432177876
 20
197.1431841561494025
 30
0.0
  0
VERTEX
  5
5137
  8
0
 10
176.7310687107521971
 20
197.1123395356632102
 30
0.0
  0
VERTEX
  5
5138
  8
0
 10
176.7807060646954938
 20
197.0972118025734119
 30
0.0
  0
VERTEX
  5
5139
  8
0
 10
176.8050346705610991
 20
197.0953556730175933
 30
0.0
  0
SEQEND
  5
513A
  8
0
  0
POLYLINE
  5
4593
  8
0
 66
     1
 10
0.0
 20
0.0
 30
0.0
  0
VERTEX
  5
513B
  8
0
 10
176.8050346705610991
 20
197.0953556730175933
 30
0.0
  0
VERTEX
  5
513C
  8
0
 10
176.8104918347546004
 20
197.095449712026209
 30
0.0
  0
VERTEX
  5
513D
  8
0
 10
176.8214205740862042
 20
197.0962058011891997
 30
0.0
  0
VERTEX
  5
513E
  8
0
 10
176.8323651570688071
 20
197.0977273043432092
 30
0.0
  0
VERTEX
  5
513F
  8
0
 10
176.8378421348081133
 20
197.098777963872493
 30
0.0
  0
SEQEND
  5
5140
  8
0
  0
POLYLINE
  5
4594
  8
0
 66
     1
 10
0.0
 20
0.0
 30
0.0
  0
VERTEX
  5
5141
  8
0
 10
172.8888190948538863
 20
195.7061609422931951
 30
0.0
  0
VERTEX
  5
5142
  8
0
 10
172.974622535057506
 20
195.8090202857881081
 30
0.0
  0
VERTEX
  5
5143
  8
0
 10
173.1445842254277068
 20
196.0056142865502977
 30
0.0
  0
VERTEX
  5
5144
  8
0
 10
173.3121857027464898
 20
196.1900104861435921
 30
0.0
  0
VERTEX
  5
5145
  8
0
 10
173.3950403209011881
 20
196.2776296925507893
 30
0.0
  0
VERTEX
  5
5146
  8
0
 10
173.4772325148117034
 20
196.3621977457636092
 30
0.0
  0
VERTEX
  5
5147
  8
0
 10
173.6395375773471983
 20
196.5221970802456042
 30
0.0
  0
VERTEX
  5
5148
  8
0
 10
173.7989222858601863
 20
196.6700631309072094
 30
0.0
  0
VERTEX
  5
5149
  8
0
 10
173.9552175308085964
 20
196.8058853016406999
 30
0.0
  0
VERTEX
  5
514A
  8
0
 10
174.1082646213401119
 20
196.9297885650202886
 30
0.0
  0
VERTEX
  5
514B
  8
0
 10
174.2590665973467878
 20
197.0427607302711976
 30
0.0
  0
VERTEX
  5
514C
  8
0
 10
174.3343647314839018
 20
197.0956786743961118
 30
0.0
  0
VERTEX
  5
514D
  8
0
 10
174.4095654912032103
 20
197.1461470586137068
 30
0.0
  0
VERTEX
  5
514E
  8
0
 10
174.5595403414831139
 20
197.2394968929102959
 30
0.0
  0
VERTEX
  5
514F
  8
0
 10
174.7087267324752986
 20
197.322356955455092
 30
0.0
  0
VERTEX
  5
5150
  8
0
 10
174.8568687218277944
 20
197.3943119439138059
 30
0.0
  0
VERTEX
  5
5151
  8
0
 10
175.0037202044061075
 20
197.4549854156284141
 30
0.0
  0
VERTEX
  5
5152
  8
0
 10
175.1490462057311106
 20
197.504040301485901
 30
0.0
  0
VERTEX
  5
5153
  8
0
 10
175.2210670670006039
 20
197.5241162442924008
 30
0.0
  0
VERTEX
  5
5154
  8
0
 10
175.2926240832136955
 20
197.5411790185629002
 30
0.0
  0
VERTEX
  5
5155
  8
0
 10
175.4342434566734994
 20
197.5661430013456936
 30
0.0
  0
VERTEX
  5
5156
  8
0
 10
175.5737040320125004
 20
197.5787123097607036
 30
0.0
  0
VERTEX
  5
5157
  8
0
 10
175.6425649765384946
 20
197.5802909950000981
 30
0.0
  0
SEQEND
  5
5158
  8
0
  0
POLYLINE
  5
4595
  8
0
 66
     1
 10
0.0
 20
0.0
 30
0.0
  0
VERTEX
  5
5159
  8
0
 10
175.6425649765384946
 20
197.5802909950000981
 30
0.0
  0
VERTEX
  5
515A
  8
0
 10
175.8243472541454935
 20
197.5688409712224995
 30
0.0
  0
VERTEX
  5
515B
  8
0
 10
176.1731298347542065
 20
197.4766201971785904
 30
0.0
  0
VERTEX
  5
515C
  8
0
 10
176.5000791219596863
 20
197.2916121640525091
 30
0.0
  0
VERTEX
  5
515D
  8
0
 10
176.6547288208369082
 20
197.1646321475865022
 30
0.0
  0
SEQEND
  5
515E
  8
0
  0
LINE
  5
4596
  8
0
 10
151.8802497935782867
 20
194.6802909950000924
 30
0.0
 11
151.8802497935782867
 21
207.6802909950000924
 31
0.0
  0
LINE
  5
4597
  8
0
 10
169.9398812668488858
 20
195.6195020014818908
 30
0.0
 11
169.9398812668488858
 21
200.2016231937228099
 31
0.0
  0
POLYLINE
  5
4598
  8
0
 66
     1
 10
0.0
 20
0.0
 30
0.0
  0
VERTEX
  5
515F
  8
0
 10
166.667575567115108
 20
198.6073743620715959
 30
0.0
  0
VERTEX
  5
5160
  8
0
 10
166.691357019106988
 20
198.6071699441191072
 30
0.0
  0
VERTEX
  5
5161
  8
0
 10
166.7384443186151088
 20
198.6055595391993904
 30
0.0
  0
VERTEX
  5
5162
  8
0
 10
166.7849170718079961
 20
198.6024016019640897
 30
0.0
  0
VERTEX
  5
5163
  8
0
 10
166.8079305426934127
 20
198.6002623280701016
 30
0.0
  0
VERTEX
  5
5164
  8
0
 10
166.830799499783808
 20
198.5977599325836991
 30
0.0
  0
VERTEX
  5
5165
  8
0
 10
166.8761161778649864
 20
198.591696175403996
 30
0.0
  0
VERTEX
  5
5166
  8
0
 10
166.9208915176679966
 20
198.5842696652186987
 30
0.0
  0
VERTEX
  5
5167
  8
0
 10
166.965149273636797
 20
198.5755373933205021
 30
0.0
  0
VERTEX
  5
5168
  8
0
 10
167.008912106178002
 20
198.5655540737589035
 30
0.0
  0
VERTEX
  5
5169
  8
0
 10
167.0522012298737877
 20
198.5543722830713875
 30
0.0
  0
VERTEX
  5
516A
  8
0
 10
167.0736743978993104
 20
198.5483478295163877
 30
0.0
  0
VERTEX
  5
516B
  8
0
 10
167.0950365957162091
 20
198.5420425133756055
 30
0.0
  0
VERTEX
  5
516C
  8
0
 10
167.1374379943800079
 20
198.528612897867589
 30
0.0
  0
VERTEX
  5
516D
  8
0
 10
167.1794251109625122
 20
198.5141291367874032
 30
0.0
  0
VERTEX
  5
516E
  8
0
 10
167.2210171391855056
 20
198.4986346028640014
 30
0.0
  0
VERTEX
  5
516F
  8
0
 10
167.2622324550341091
 20
198.482170501199306
 30
0.0
  0
VERTEX
  5
5170
  8
0
 10
167.3030883601061021
 20
198.4647760615029881
 30
0.0
  0
VERTEX
  5
5171
  8
0
 10
167.3233865990185052
 20
198.4557417348536035
 30
0.0
  0
VERTEX
  5
5172
  8
0
 10
167.343600893865613
 20
198.4464887448233981
 30
0.0
  0
VERTEX
  5
5173
  8
0
 10
167.3837841085203024
 20
198.4273447444157057
 30
0.0
  0
VERTEX
  5
5174
  8
0
 10
167.4236446275820072
 20
198.4073820108096982
 30
0.0
  0
VERTEX
  5
5175
  8
0
 10
167.4434566528923085
 20
198.3971047370208112
 30
0.0
  0
VERTEX
  5
5176
  8
0
 10
167.4631916036020982
 20
198.3866357779918133
 30
0.0
  0
VERTEX
  5
5177
  8
0
 10
167.5024354484160085
 20
198.3651389444800941
 30
0.0
  0
VERTEX
  5
5178
  8
0
 10
167.5413862844181949
 20
198.3429228195307985
 30
0.0
  0
VERTEX
  5
5179
  8
0
 10
167.560754871427207
 20
198.3315544023631958
 30
0.0
  0
VERTEX
  5
517A
  8
0
 10
167.5800537976734006
 20
198.3200172456093924
 30
0.0
  0
VERTEX
  5
517B
  8
0
 10
167.618447121812693
 20
198.2964507256247089
 30
0.0
  0
VERTEX
  5
517C
  8
0
 10
167.6565747497826919
 20
198.2722505497918064
 30
0.0
  0
VERTEX
  5
517D
  8
0
 10
167.694444470267797
 20
198.247442918268888
 30
0.0
  0
VERTEX
  5
517E
  8
0
 10
167.7320633255812936
 20
198.2220530568079084
 30
0.0
  0
VERTEX
  5
517F
  8
0
 10
167.7694375879420932
 20
198.196105323566286
 30
0.0
  0
VERTEX
  5
5180
  8
0
 10
167.7880347439626973
 20
198.1829296537667062
 30
0.0
  0
VERTEX
  5
5181
  8
0
 10
167.8065727512538956
 20
198.1696233059518875
 30
0.0
  0
VERTEX
  5
5182
  8
0
 10
167.8434735357774912
 20
198.1426299069449044
 30
0.0
  0
VERTEX
  5
5183
  8
0
 10
167.880143903366104
 20
198.115147420766192
 30
0.0
  0
VERTEX
  5
5184
  8
0
 10
168.006709377429388
 20
198.0154223028455931
 30
0.0
  0
VERTEX
  5
5185
  8
0
 10
168.2168072152742013
 20
197.8341682641814998
 30
0.0
  0
VERTEX
  5
5186
  8
0
 10
168.4177178634716086
 20
197.6438750976961103
 30
0.0
  0
VERTEX
  5
5187
  8
0
 10
168.6087546955056951
 20
197.4485773186146957
 30
0.0
  0
VERTEX
  5
5188
  8
0
 10
168.7002933937573914
 20
197.3502082897408911
 30
0.0
  0
VERTEX
  5
5189
  8
0
 10
168.7890143090733091
 20
197.2519357730103877
 30
0.0
  0
VERTEX
  5
518A
  8
0
 10
168.9574864607139091
 20
197.0573073581975905
 30
0.0
  0
VERTEX
  5
518B
  8
0
 10
169.115673516826007
 20
196.8646359082499941
 30
0.0
  0
VERTEX
  5
518C
  8
0
 10
169.2682411398394891
 20
196.668916716997586
 30
0.0
  0
VERTEX
  5
518D
  8
0
 10
169.4137830408870116
 20
196.4719020955220117
 30
0.0
  0
VERTEX
  5
518E
  8
0
 10
169.550681038768289
 20
196.275566506434302
 30
0.0
  0
VERTEX
  5
518F
  8
0
 10
169.6153998029610079
 20
196.178238978250306
 30
0.0
  0
VERTEX
  5
5190
  8
0
 10
169.6773774946721005
 20
196.0817713004730933
 30
0.0
  0
VERTEX
  5
5191
  8
0
 10
169.7923717105402091
 20
195.8922711147590974
 30
0.0
  0
VERTEX
  5
5192
  8
0
 10
169.8942575520607079
 20
195.7086615632474889
 30
0.0
  0
VERTEX
  5
5193
  8
0
 10
169.9398812668488858
 20
195.6195020014818908
 30
0.0
  0
SEQEND
  5
5194
  8
0
  0
LINE
  5
4599
  8
0
 10
166.667575567115108
 20
198.6073743620715959
 30
0.0
 11
166.667575567115108
 21
203.7532076279285889
 31
0.0
  0
POLYLINE
  5
459A
  8
0
 66
     1
 10
0.0
 20
0.0
 30
0.0
  0
VERTEX
  5
5195
  8
0
 10
169.9398812668488858
 20
206.7410799885182087
 30
0.0
  0
VERTEX
  5
5196
  8
0
 10
169.8942575520607079
 20
206.6519204267526959
 30
0.0
  0
VERTEX
  5
5197
  8
0
 10
169.7923717105402091
 20
206.4683108752410874
 30
0.0
  0
VERTEX
  5
5198
  8
0
 10
169.6773774946721005
 20
206.2788106895270914
 30
0.0
  0
VERTEX
  5
5199
  8
0
 10
169.6153998029610079
 20
206.1823430117497935
 30
0.0
  0
VERTEX
  5
519A
  8
0
 10
169.550681038768289
 20
206.0850154835657975
 30
0.0
  0
VERTEX
  5
519B
  8
0
 10
169.4137830408870116
 20
205.8886798944782015
 30
0.0
  0
VERTEX
  5
519C
  8
0
 10
169.2682411398394891
 20
205.6916652730025135
 30
0.0
  0
VERTEX
  5
519D
  8
0
 10
169.115673516826007
 20
205.4959460817501906
 30
0.0
  0
VERTEX
  5
519E
  8
0
 10
168.9574864607139091
 20
205.3032746318025943
 30
0.0
  0
VERTEX
  5
519F
  8
0
 10
168.7890143090733091
 20
205.108646216989797
 30
0.0
  0
VERTEX
  5
51A0
  8
0
 10
168.7002933937573914
 20
205.0103737002592936
 30
0.0
  0
VERTEX
  5
51A1
  8
0
 10
168.6087546955056951
 20
204.9120046713854038
 30
0.0
  0
VERTEX
  5
51A2
  8
0
 10
168.4177178634716086
 20
204.7167068923041029
 30
0.0
  0
VERTEX
  5
51A3
  8
0
 10
168.2168072152742013
 20
204.5264137258187134
 30
0.0
  0
VERTEX
  5
51A4
  8
0
 10
168.006709377429388
 20
204.3451596871545064
 30
0.0
  0
VERTEX
  5
51A5
  8
0
 10
167.880143903366104
 20
204.2454345692339075
 30
0.0
  0
VERTEX
  5
51A6
  8
0
 10
167.8434735357774912
 20
204.2179520830553088
 30
0.0
  0
VERTEX
  5
51A7
  8
0
 10
167.8065727512538956
 20
204.1909586840482973
 30
0.0
  0
VERTEX
  5
51A8
  8
0
 10
167.7880347439626973
 20
204.177652336233507
 30
0.0
  0
VERTEX
  5
51A9
  8
0
 10
167.7694375879420932
 20
204.1644766664338988
 30
0.0
  0
VERTEX
  5
51AA
  8
0
 10
167.7320633255812936
 20
204.1385289331921911
 30
0.0
  0
VERTEX
  5
51AB
  8
0
 10
167.694444470267797
 20
204.1131390717312115
 30
0.0
  0
VERTEX
  5
51AC
  8
0
 10
167.6565747497826919
 20
204.0883314402082931
 30
0.0
  0
VERTEX
  5
51AD
  8
0
 10
167.618447121812693
 20
204.0641312643753906
 30
0.0
  0
VERTEX
  5
51AE
  8
0
 10
167.5800537976734006
 20
204.0405647443907924
 30
0.0
  0
VERTEX
  5
51AF
  8
0
 10
167.560754871427207
 20
204.0290275876371027
 30
0.0
  0
VERTEX
  5
51B0
  8
0
 10
167.5413862844181949
 20
204.017659170469301
 30
0.0
  0
VERTEX
  5
51B1
  8
0
 10
167.5024354484160085
 20
203.9954430455200054
 30
0.0
  0
VERTEX
  5
51B2
  8
0
 10
167.4631916036020982
 20
203.9739462120082862
 30
0.0
  0
VERTEX
  5
51B3
  8
0
 10
167.4434566528923085
 20
203.9634772529794873
 30
0.0
  0
VERTEX
  5
51B4
  8
0
 10
167.4236446275820072
 20
203.9531999791904866
 30
0.0
  0
VERTEX
  5
51B5
  8
0
 10
167.3837841085203024
 20
203.9332372455845075
 30
0.0
  0
VERTEX
  5
51B6
  8
0
 10
167.343600893865613
 20
203.9140932451767867
 30
0.0
  0
VERTEX
  5
51B7
  8
0
 10
167.3233865990185052
 20
203.904840255146496
 30
0.0
  0
VERTEX
  5
51B8
  8
0
 10
167.3030883601061021
 20
203.8958059284971966
 30
0.0
  0
VERTEX
  5
51B9
  8
0
 10
167.2622324550341091
 20
203.8784114888007934
 30
0.0
  0
VERTEX
  5
51BA
  8
0
 10
167.2210171391855056
 20
203.8619473871362118
 30
0.0
  0
VERTEX
  5
51BB
  8
0
 10
167.1794251109625122
 20
203.8464528532128099
 30
0.0
  0
VERTEX
  5
51BC
  8
0
 10
167.1374379943800079
 20
203.8319690921325957
 30
0.0
  0
VERTEX
  5
51BD
  8
0
 10
167.0950365957162091
 20
203.8185394766246077
 30
0.0
  0
VERTEX
  5
51BE
  8
0
 10
167.0736743978993104
 20
203.812234160483797
 30
0.0
  0
VERTEX
  5
51BF
  8
0
 10
167.0522012298737877
 20
203.806209706928712
 30
0.0
  0
VERTEX
  5
51C0
  8
0
 10
167.008912106178002
 20
203.7950279162413949
 30
0.0
  0
VERTEX
  5
51C1
  8
0
 10
166.965149273636797
 20
203.785044596679711
 30
0.0
  0
VERTEX
  5
51C2
  8
0
 10
166.9208915176679966
 20
203.776312324781486
 30
0.0
  0
VERTEX
  5
51C3
  8
0
 10
166.8761161778649864
 20
203.7688858145961888
 30
0.0
  0
VERTEX
  5
51C4
  8
0
 10
166.830799499783808
 20
203.7628220574164004
 30
0.0
  0
VERTEX
  5
51C5
  8
0
 10
166.8079305426934127
 20
203.7603196619299979
 30
0.0
  0
VERTEX
  5
51C6
  8
0
 10
166.7849170718079961
 20
203.7581803880360951
 30
0.0
  0
VERTEX
  5
51C7
  8
0
 10
166.7384443186151088
 20
203.7550224508007943
 30
0.0
  0
VERTEX
  5
51C8
  8
0
 10
166.691357019106988
 20
203.7534120458811913
 30
0.0
  0
VERTEX
  5
51C9
  8
0
 10
166.667575567115108
 20
203.7532076279285889
 30
0.0
  0
SEQEND
  5
51CA
  8
0
  0
LINE
  5
459B
  8
0
 10
169.9398812668488858
 20
202.1589587962774033
 30
0.0
 11
169.9398812668488858
 21
206.7410799885182087
 31
0.0
  0
POLYLINE
  5
459C
  8
0
 66
     1
 10
0.0
 20
0.0
 30
0.0
  0
VERTEX
  5
51CB
  8
0
 10
169.9398812668488858
 20
200.2016231937228099
 30
0.0
  0
VERTEX
  5
51CC
  8
0
 10
169.9353912356515934
 20
200.2560867447974999
 30
0.0
  0
VERTEX
  5
51CD
  8
0
 10
169.9270773046829959
 20
200.3652209471923129
 30
0.0
  0
VERTEX
  5
51CE
  8
0
 10
169.9197004853128874
 20
200.4745288483424019
 30
0.0
  0
VERTEX
  5
51CF
  8
0
 10
169.9163795662036023
 20
200.5292088889366937
 30
0.0
  0
VERTEX
  5
51D0
  8
0
 10
169.9133109709705138
 20
200.5838849154530976
 30
0.0
  0
VERTEX
  5
51D1
  8
0
 10
169.9079488511829084
 20
200.6931593106953073
 30
0.0
  0
VERTEX
  5
51D2
  8
0
 10
169.9036436318284871
 20
200.80221908663259
 30
0.0
  0
VERTEX
  5
51D3
  8
0
 10
169.9004139255445978
 20
200.9109294414641909
 30
0.0
  0
VERTEX
  5
51D4
  8
0
 10
169.8982673312499969
 20
201.0191550455786
 30
0.0
  0
VERTEX
  5
51D5
  8
0
 10
169.897200516403899
 20
201.1267614340380021
 30
0.0
  0
VERTEX
  5
51D6
  8
0
 10
169.8970680631998107
 20
201.1802909950000924
 30
0.0
  0
VERTEX
  5
51D7
  8
0
 10
169.897200516403899
 20
201.2338205559620974
 30
0.0
  0
VERTEX
  5
51D8
  8
0
 10
169.8982673312499969
 20
201.3414269444214995
 30
0.0
  0
VERTEX
  5
51D9
  8
0
 10
169.9004139255445978
 20
201.4496525485359086
 30
0.0
  0
VERTEX
  5
51DA
  8
0
 10
169.9036436318284871
 20
201.5583629033675948
 30
0.0
  0
VERTEX
  5
51DB
  8
0
 10
169.9079488511829084
 20
201.6674226793049058
 30
0.0
  0
VERTEX
  5
51DC
  8
0
 10
169.9133109709705138
 20
201.7766970745470871
 30
0.0
  0
VERTEX
  5
51DD
  8
0
 10
169.9163795662036023
 20
201.831373101063491
 30
0.0
  0
VERTEX
  5
51DE
  8
0
 10
169.9197004853128874
 20
201.8860531416576976
 30
0.0
  0
VERTEX
  5
51DF
  8
0
 10
169.9270773046829959
 20
201.9953610428079003
 30
0.0
  0
VERTEX
  5
51E0
  8
0
 10
169.9353912356515934
 20
202.1044952452027132
 30
0.0
  0
VERTEX
  5
51E1
  8
0
 10
169.9398812668488858
 20
202.1589587962774033
 30
0.0
  0
SEQEND
  5
51E2
  8
0
  0
POLYLINE
  5
459D
  8
0
 66
     1
 10
0.0
 20
0.0
 30
0.0
  0
VERTEX
  5
51E3
  8
0
 10
169.9398812668488858
 20
202.1589587962774033
 30
0.0
  0
VERTEX
  5
51E4
  8
0
 10
169.9422669217431121
 20
202.1867873825362096
 30
0.0
  0
VERTEX
  5
51E5
  8
0
 10
169.9472417172825942
 20
202.2423676102274044
 30
0.0
  0
VERTEX
  5
51E6
  8
0
 10
169.9524870586672023
 20
202.2978309582059069
 30
0.0
  0
VERTEX
  5
51E7
  8
0
 10
169.9552108455110897
 20
202.3255134431238957
 30
0.0
  0
VERTEX
  5
51E8
  8
0
 10
169.9580018358522011
 20
202.3531602796404059
 30
0.0
  0
VERTEX
  5
51E9
  8
0
 10
169.9637847257477006
 20
202.4083384596063127
 30
0.0
  0
VERTEX
  5
51EA
  8
0
 10
169.9698341948285076
 20
202.4633484532189982
 30
0.0
  0
VERTEX
  5
51EB
  8
0
 10
169.9761485025734942
 20
202.5181733227018128
 30
0.0
  0
VERTEX
  5
51EC
  8
0
 10
169.9827257057214922
 20
202.5727962734158893
 30
0.0
  0
VERTEX
  5
51ED
  8
0
 10
169.9895636633243043
 20
202.6272006888748933
 30
0.0
  0
VERTEX
  5
51EE
  8
0
 10
169.9930797033663907
 20
202.6543158103399094
 30
0.0
  0
VERTEX
  5
51EF
  8
0
 10
169.9966600425875072
 20
202.6813701647755863
 30
0.0
  0
VERTEX
  5
51F0
  8
0
 10
170.0040123254846094
 20
202.7352885420633015
 30
0.0
  0
VERTEX
  5
51F1
  8
0
 10
170.0116178161318032
 20
202.7889399390554956
 30
0.0
  0
VERTEX
  5
51F2
  8
0
 10
170.0194736489241052
 20
202.842308782643812
 30
0.0
  0
VERTEX
  5
51F3
  8
0
 10
170.0275770434375033
 20
202.8953814212707982
 30
0.0
  0
VERTEX
  5
51F4
  8
0
 10
170.0359263355406085
 20
202.9481522257412962
 30
0.0
  0
VERTEX
  5
51F5
  8
0
 10
170.0401922967614041
 20
202.9744203821092867
 30
0.0
  0
VERTEX
  5
51F6
  8
0
 10
170.0445185865889925
 20
203.0006079132824084
 30
0.0
  0
VERTEX
  5
51F7
  8
0
 10
170.0533504341985918
 20
203.0527337437733024
 30
0.0
  0
VERTEX
  5
51F8
  8
0
 10
170.0624183222143984
 20
203.1045150693954895
 30
0.0
  0
VERTEX
  5
51F9
  8
0
 10
170.0670396180746025
 20
203.1302719997208897
 30
0.0
  0
VERTEX
  5
51FA
  8
0
 10
170.0717185047604119
 20
203.1559373712597107
 30
0.0
  0
VERTEX
  5
51FB
  8
0
 10
170.081247050965203
 20
203.2069862945386944
 30
0.0
  0
VERTEX
  5
51FC
  8
0
 10
170.0909998503437066
 20
203.2576476821396909
 30
0.0
  0
VERTEX
  5
51FD
  8
0
 10
170.0959590127984029
 20
203.2828286880040878
 30
0.0
  0
VERTEX
  5
51FE
  8
0
 10
170.1009726188023876
 20
203.307907606960697
 30
0.0
  0
VERTEX
  5
51FF
  8
0
 10
170.1111609052605047
 20
203.3577524027693073
 30
0.0
  0
VERTEX
  5
5200
  8
0
 10
170.1215600988572874
 20
203.4071686937548975
 30
0.0
  0
VERTEX
  5
5201
  8
0
 10
170.1321654367409053
 20
203.4561434227973109
 30
0.0
  0
VERTEX
  5
5202
  8
0
 10
170.1429720124239964
 20
203.5046638785026119
 30
0.0
  0
VERTEX
  5
5203
  8
0
 10
170.1539747846956914
 20
203.5527177210520904
 30
0.0
  0
VERTEX
  5
5204
  8
0
 10
170.1595481346546137
 20
203.5765659139063928
 30
0.0
  0
VERTEX
  5
5205
  8
0
 10
170.1651685870918129
 20
203.6002930069130059
 30
0.0
  0
VERTEX
  5
5206
  8
0
 10
170.1765481379119933
 20
203.6473782124388094
 30
0.0
  0
VERTEX
  5
5207
  8
0
 10
170.1881080435603053
 20
203.6939622276676118
 30
0.0
  0
VERTEX
  5
5208
  8
0
 10
170.1998427611181057
 20
203.7400341933511925
 30
0.0
  0
VERTEX
  5
5209
  8
0
 10
170.2117465735325084
 20
203.785583410621399
 30
0.0
  0
VERTEX
  5
520A
  8
0
 10
170.223813593618388
 20
203.8305993713705107
 30
0.0
  0
VERTEX
  5
520B
  8
0
 10
170.2299064217529008
 20
203.852904157530304
 30
0.0
  0
VERTEX
  5
520C
  8
0
 10
170.236037770115189
 20
203.8750717930458904
 30
0.0
  0
VERTEX
  5
520D
  8
0
 10
170.2484128942269024
 20
203.9189906514837958
 30
0.0
  0
VERTEX
  5
520E
  8
0
 10
170.2609326066219069
 20
203.962346211837712
 30
0.0
  0
VERTEX
  5
520F
  8
0
 10
170.2735904048631994
 20
204.0051290576656982
 30
0.0
  0
VERTEX
  5
5210
  8
0
 10
170.2863796512463068
 20
204.0473301182429964
 30
0.0
  0
VERTEX
  5
5211
  8
0
 10
170.2992935810349877
 20
204.0889406941701054
 30
0.0
  0
VERTEX
  5
5212
  8
0
 10
170.3057951556031071
 20
204.1095219392948081
 30
0.0
  0
VERTEX
  5
5213
  8
0
 10
170.3123253110759094
 20
204.1299524813503012
 30
0.0
  0
VERTEX
  5
5214
  8
0
 10
170.3254678487921865
 20
204.1703575934103867
 30
0.0
  0
VERTEX
  5
5215
  8
0
 10
170.3387141015502948
 20
204.2101485826410965
 30
0.0
  0
VERTEX
  5
5216
  8
0
 10
170.3520568864061886
 20
204.249318459533697
 30
0.0
  0
VERTEX
  5
5217
  8
0
 10
170.3654889402367019
 20
204.2878607109894915
 30
0.0
  0
VERTEX
  5
5218
  8
0
 10
170.3790519328186122
 20
204.3259052277122123
 30
0.0
  0
VERTEX
  5
5219
  8
0
 10
170.3859079300993926
 20
204.3448122147580079
 30
0.0
  0
VERTEX
  5
521A
  8
0
 10
170.392813333726707
 20
204.3636403936619104
 30
0.0
  0
VERTEX
  5
521B
  8
0
 10
170.4067708889105859
 20
204.4010527327893101
 30
0.0
  0
VERTEX
  5
521C
  8
0
 10
170.4209215698751905
 20
204.4381272122089115
 30
0.0
  0
VERTEX
  5
521D
  8
0
 10
170.4352622152445917
 20
204.4748490622374959
 30
0.0
  0
VERTEX
  5
521E
  8
0
 10
170.4497895382984893
 20
204.5112037955858
 30
0.0
  0
VERTEX
  5
521F
  8
0
 10
170.4645001347278139
 20
204.5471772251297864
 30
0.0
  0
VERTEX
  5
5220
  8
0
 10
170.4719230664165934
 20
204.5650166036407995
 30
0.0
  0
VERTEX
  5
5221
  8
0
 10
170.4793904906100011
 20
204.5827554803200883
 30
0.0
  0
VERTEX
  5
5222
  8
0
 10
170.4944569906054141
 20
204.6179250222793939
 30
0.0
  0
VERTEX
  5
5223
  8
0
 10
170.5096959263711938
 20
204.6526726576335022
 30
0.0
  0
VERTEX
  5
5224
  8
0
 10
170.5173788755006967
 20
204.6698842350031953
 30
0.0
  0
VERTEX
  5
5225
  8
0
 10
170.5251035051967108
 20
204.6869855511112064
 30
0.0
  0
VERTEX
  5
5226
  8
0
 10
170.5406758588594016
 20
204.7208512369423943
 30
0.0
  0
VERTEX
  5
5227
  8
0
 10
170.5564090527034011
 20
204.7542576290788929
 30
0.0
  0
VERTEX
  5
5228
  8
0
 10
170.5643347192319084
 20
204.7707849192048002
 30
0.0
  0
VERTEX
  5
5229
  8
0
 10
170.572299094938586
 20
204.7871930302532917
 30
0.0
  0
VERTEX
  5
522A
  8
0
 10
170.5883419461621884
 20
204.8196461398869133
 30
0.0
  0
VERTEX
  5
522B
  8
0
 10
170.6045335291036906
 20
204.8516060608492921
 30
0.0
  0
VERTEX
  5
522C
  8
0
 10
170.620869736289194
 20
204.8830623006888061
 30
0.0
  0
VERTEX
  5
522D
  8
0
 10
170.6373464025934936
 20
204.9140047068426895
 30
0.0
  0
VERTEX
  5
522E
  8
0
 10
170.6539592659557911
 20
204.9444233893698026
 30
0.0
  0
VERTEX
  5
522F
  8
0
 10
170.6623154134005915
 20
204.959433316854188
 30
0.0
  0
VERTEX
  5
5230
  8
0
 10
170.6707039690830072
 20
204.9743087276553979
 30
0.0
  0
VERTEX
  5
5231
  8
0
 10
170.6875760667574013
 20
205.0036513867707129
 30
0.0
  0
VERTEX
  5
5232
  8
0
 10
170.7045710332247097
 20
205.0324423325151031
 30
0.0
  0
VERTEX
  5
5233
  8
0
 10
170.7216842696659
 20
205.06067284519699
 30
0.0
  0
VERTEX
  5
5234
  8
0
 10
170.7389111117549874
 20
205.0883345321981039
 30
0.0
  0
VERTEX
  5
5235
  8
0
 10
170.7562468373037063
 20
205.1154193393591072
 30
0.0
  0
VERTEX
  5
5236
  8
0
 10
170.7649540417708067
 20
205.1287429911654101
 30
0.0
  0
VERTEX
  5
5237
  8
0
 10
170.7736866739940069
 20
205.1419195612214139
 30
0.0
  0
VERTEX
  5
5238
  8
0
 10
170.7912258072022098
 20
205.1678278501555042
 30
0.0
  0
VERTEX
  5
5239
  8
0
 10
170.8088593879199095
 20
205.1931372243998055
 30
0.0
  0
VERTEX
  5
523A
  8
0
 10
170.8265825407754051
 20
205.2178410750296109
 30
0.0
  0
VERTEX
  5
523B
  8
0
 10
170.8443903721561128
 20
205.2419331718728017
 30
0.0
  0
VERTEX
  5
523C
  8
0
 10
170.862277978446599
 20
205.2654076683820961
 30
0.0
  0
VERTEX
  5
523D
  8
0
 10
170.8712501641199992
 20
205.2769115953275048
 30
0.0
  0
VERTEX
  5
523E
  8
0
 10
170.8802404543783098
 20
205.2882591054685122
 30
0.0
  0
VERTEX
  5
523F
  8
0
 10
170.8982736438813106
 20
205.3104833145490886
 30
0.0
  0
VERTEX
  5
5240
  8
0
 10
170.9163748182415929
 20
205.3320780593865038
 30
0.0
  0
VERTEX
  5
5241
  8
0
 10
170.9345391844665016
 20
205.353038793516788
 30
0.0
  0
VERTEX
  5
5242
  8
0
 10
170.9527617489364104
 20
205.373361102267495
 30
0.0
  0
VERTEX
  5
5243
  8
0
 10
170.9710374623271036
 20
205.3930408895284927
 30
0.0
  0
VERTEX
  5
5244
  8
0
 10
170.9801936585128885
 20
205.4026386479349071
 30
0.0
  0
VERTEX
  5
5245
  8
0
 10
170.989361226887894
 20
205.4120743909066107
 30
0.0
  0
VERTEX
  5
5246
  8
0
 10
171.0077279037419942
 20
205.430458185679214
 30
0.0
  0
VERTEX
  5
5247
  8
0
 10
171.0261323202036863
 20
205.4481892075766041
 30
0.0
  0
VERTEX
  5
5248
  8
0
 10
171.0907697622039905
 20
205.5050715673270076
 30
0.0
  0
VERTEX
  5
5249
  8
0
 10
171.1463206851883001
 20
205.5473788572143121
 30
0.0
  0
VERTEX
  5
524A
  8
0
 10
171.2018593069622057
 20
205.5837154446201112
 30
0.0
  0
VERTEX
  5
524B
  8
0
 10
171.3123417021612909
 20
205.6385725859294951
 30
0.0
  0
VERTEX
  5
524C
  8
0
 10
171.4210875778360048
 20
205.6701480928502122
 30
0.0
  0
VERTEX
  5
524D
  8
0
 10
171.4744559959196977
 20
205.6775084829548064
 30
0.0
  0
SEQEND
  5
524E
  8
0
  0
POLYLINE
  5
459E
  8
0
 66
     1
 10
0.0
 20
0.0
 30
0.0
  0
VERTEX
  5
524F
  8
0
 10
171.4744559959196977
 20
205.6775084829548064
 30
0.0
  0
VERTEX
  5
5250
  8
0
 10
171.4879402894902967
 20
205.6785158356364036
 30
0.0
  0
VERTEX
  5
5251
  8
0
 10
171.5150058551971028
 20
205.6794948621727031
 30
0.0
  0
VERTEX
  5
5252
  8
0
 10
171.5421851899569958
 20
205.6790706704115053
 30
0.0
  0
VERTEX
  5
5253
  8
0
 10
171.5558116786685048
 20
205.6783245157629949
 30
0.0
  0
VERTEX
  5
5254
  8
0
 10
171.5694595960983122
 20
205.6772184112766126
 30
0.0
  0
VERTEX
  5
5255
  8
0
 10
171.5968103701185896
 20
205.6739154556555036
 30
0.0
  0
VERTEX
  5
5256
  8
0
 10
171.6242188645566955
 20
205.6691414008456036
 30
0.0
  0
VERTEX
  5
5257
  8
0
 10
171.6516665487216926
 20
205.6628780622843919
 30
0.0
  0
VERTEX
  5
5258
  8
0
 10
171.6791350685014095
 20
205.6551094504270907
 30
0.0
  0
VERTEX
  5
5259
  8
0
 10
171.7066063054246001
 20
205.6458217324893951
 30
0.0
  0
VERTEX
  5
525A
  8
0
 10
171.7203373596209985
 20
205.6406044628199083
 30
0.0
  0
VERTEX
  5
525B
  8
0
 10
171.7340624351101894
 20
205.6350031786394936
 30
0.0
  0
VERTEX
  5
525C
  8
0
 10
171.7614859851817073
 20
205.6226440921057019
 30
0.0
  0
VERTEX
  5
525D
  8
0
 10
171.7888598889171021
 20
205.6087367245802966
 30
0.0
  0
VERTEX
  5
525E
  8
0
 10
171.8161674026779906
 20
205.5932752563151951
 30
0.0
  0
VERTEX
  5
525F
  8
0
 10
171.8433918631073993
 20
205.5762559122518951
 30
0.0
  0
VERTEX
  5
5260
  8
0
 10
171.8705166776292117
 20
205.5576770016548096
 30
0.0
  0
VERTEX
  5
5261
  8
0
 10
171.8840365661465057
 20
205.5478027499318898
 30
0.0
  0
VERTEX
  5
5262
  8
0
 10
171.8975253824096114
 20
205.5375389147143892
 30
0.0
  0
VERTEX
  5
5263
  8
0
 10
171.92440169861149
 20
205.5158441053040974
 30
0.0
  0
VERTEX
  5
5264
  8
0
 10
171.951129586812101
 20
205.4925970599267089
 30
0.0
  0
VERTEX
  5
5265
  8
0
 10
171.9644329365710007
 20
205.4803933957770141
 30
0.0
  0
SEQEND
  5
5266
  8
0
  0
POLYLINE
  5
459F
  8
0
 66
     1
 10
0.0
 20
0.0
 30
0.0
  0
VERTEX
  5
5267
  8
0
 10
172.3801244015774046
 20
204.8487262161355886
 30
0.0
  0
VERTEX
  5
5268
  8
0
 10
172.3902357879294129
 20
204.8260081277541929
 30
0.0
  0
VERTEX
  5
5269
  8
0
 10
172.4102085783563041
 20
204.7798341283159971
 30
0.0
  0
VERTEX
  5
526A
  8
0
 10
172.429841906445489
 20
204.7327038745528967
 30
0.0
  0
VERTEX
  5
526B
  8
0
 10
172.4395290305353114
 20
204.7087908267791079
 30
0.0
  0
VERTEX
  5
526C
  8
0
 10
172.449128637520289
 20
204.6846517108990042
 30
0.0
  0
VERTEX
  5
526D
  8
0
 10
172.4680619548944094
 20
204.6357134508093054
 30
0.0
  0
VERTEX
  5
526E
  8
0
 10
172.4866353956333
 20
204.5859263066330129
 30
0.0
  0
VERTEX
  5
526F
  8
0
 10
172.5048428841762131
 20
204.5353288092215962
 30
0.0
  0
VERTEX
  5
5270
  8
0
 10
172.5226787638968915
 20
204.4839607169760995
 30
0.0
  0
VERTEX
  5
5271
  8
0
 10
172.5401378266813026
 20
204.4318629139318944
 30
0.0
  0
VERTEX
  5
5272
  8
0
 10
172.5487245536725993
 20
204.4055534272557111
 30
0.0
  0
VERTEX
  5
5273
  8
0
 10
172.5572253747396019
 20
204.3790457320592111
 30
0.0
  0
VERTEX
  5
5274
  8
0
 10
172.5740752418830084
 20
204.3250987703858073
 30
0.0
  0
VERTEX
  5
5275
  8
0
 10
172.5907184560103076
 20
204.2698965444155874
 30
0.0
  0
VERTEX
  5
5276
  8
0
 10
172.6071397556181068
 20
204.2134572251096074
 30
0.0
  0
VERTEX
  5
5277
  8
0
 10
172.6233242983824141
 20
204.1558007942946062
 30
0.0
  0
VERTEX
  5
5278
  8
0
 10
172.6392576983753031
 20
204.0969489334752893
 30
0.0
  0
VERTEX
  5
5279
  8
0
 10
172.6471258573899092
 20
204.0670819272064875
 30
0.0
  0
VERTEX
  5
527A
  8
0
 10
172.6549260597664102
 20
204.0369249016511901
 30
0.0
  0
VERTEX
  5
527B
  8
0
 10
172.6703160071147067
 20
203.9757534015471947
 30
0.0
  0
VERTEX
  5
527C
  8
0
 10
172.6854147123113137
 20
203.9134604336805126
 30
0.0
  0
VERTEX
  5
527D
  8
0
 10
172.6928509958538029
 20
203.8819018405922066
 30
0.0
  0
VERTEX
  5
527E
  8
0
 10
172.7002099181669905
 20
203.8500731377245074
 30
0.0
  0
VERTEX
  5
527F
  8
0
 10
172.7146899585997915
 20
203.7856196206766128
 30
0.0
  0
VERTEX
  5
5280
  8
0
 10
172.7288437753084054
 20
203.7201287714283069
 30
0.0
  0
VERTEX
  5
5281
  8
0
 10
172.7357950614961908
 20
203.6870035497665015
 30
0.0
  0
VERTEX
  5
5282
  8
0
 10
172.7426609106479987
 20
203.6536301602785954
 30
0.0
  0
VERTEX
  5
5283
  8
0
 10
172.7561313742860136
 20
203.5861545741709051
 30
0.0
  0
VERTEX
  5
5284
  8
0
 10
172.7692455659604889
 20
203.5177344040606044
 30
0.0
  0
VERTEX
  5
5285
  8
0
 10
172.7819943048181983
 20
203.4484035478793089
 30
0.0
  0
VERTEX
  5
5286
  8
0
 10
172.7943688613194979
 20
203.3781972757568894
 30
0.0
  0
VERTEX
  5
5287
  8
0
 10
172.8063609852212892
 20
203.3071520872339022
 30
0.0
  0
VERTEX
  5
5288
  8
0
 10
172.812211193823714
 20
203.2713266045929004
 30
0.0
  0
VERTEX
  5
5289
  8
0
 10
172.8179629297210056
 20
203.2353055601934102
 30
0.0
  0
VERTEX
  5
528A
  8
0
 10
172.8291674718076933
 20
203.1626961912348861
 30
0.0
  0
VERTEX
  5
528B
  8
0
 10
172.8399679288347102
 20
203.0893632272060927
 30
0.0
  0
VERTEX
  5
528C
  8
0
 10
172.8503581712936921
 20
203.0153464876310068
 30
0.0
  0
VERTEX
  5
528D
  8
0
 10
172.8603326317308984
 20
202.940686177791406
 30
0.0
  0
VERTEX
  5
528E
  8
0
 10
172.8698875372031125
 20
202.865412764960098
 30
0.0
  0
VERTEX
  5
528F
  8
0
 10
172.8745068109365093
 20
202.8275536018205969
 30
0.0
  0
VERTEX
  5
5290
  8
0
 10
172.8790198582890127
 20
202.7895529981572054
 30
0.0
  0
VERTEX
  5
5291
  8
0
 10
172.8877250980166878
 20
202.7131486489701899
 30
0.0
  0
VERTEX
  5
5292
  8
0
 10
172.8959991842068007
 20
202.6362428162846072
 30
0.0
  0
VERTEX
  5
5293
  8
0
 10
172.9038385117646897
 20
202.5588796713894055
 30
0.0
  0
VERTEX
  5
5294
  8
0
 10
172.9112399678965062
 20
202.481104295655598
 30
0.0
  0
VERTEX
  5
5295
  8
0
 10
172.9182009531039057
 20
202.4029625126667042
 30
0.0
  0
VERTEX
  5
5296
  8
0
 10
172.9215156013455896
 20
202.363768698687096
 30
0.0
  0
VERTEX
  5
5297
  8
0
 10
172.9247193980006045
 20
202.3245007147019976
 30
0.0
  0
VERTEX
  5
5298
  8
0
 10
172.9307937759778895
 20
202.2457656834145894
 30
0.0
  0
VERTEX
  5
5299
  8
0
 10
172.9364231117195061
 20
202.1668044045185866
 30
0.0
  0
VERTEX
  5
529A
  8
0
 10
172.9416069855217017
 20
202.0876638762557889
 30
0.0
  0
VERTEX
  5
529B
  8
0
 10
172.9463455326055907
 20
202.0083909247777001
 30
0.0
  0
VERTEX
  5
529C
  8
0
 10
172.9506394144079024
 20
201.9290324830417092
 30
0.0
  0
VERTEX
  5
529D
  8
0
 10
172.9526199445546979
 20
201.8893361198018965
 30
0.0
  0
VERTEX
  5
529E
  8
0
 10
172.9544897765069891
 20
201.8496364116882944
 30
0.0
  0
VERTEX
  5
529F
  8
0
 10
172.9578982669088134
 20
201.7702515388648123
 30
0.0
  0
VERTEX
  5
52A0
  8
0
 10
172.9608670646140922
 20
201.6909274723676049
 30
0.0
  0
VERTEX
  5
52A1
  8
0
 10
172.9633989031887893
 20
201.6117144091575994
 30
0.0
  0
VERTEX
  5
52A2
  8
0
 10
172.9654970893982124
 20
201.5326629433012045
 30
0.0
  0
VERTEX
  5
52A3
  8
0
 10
172.9671655169991027
 20
201.4538238723515917
 30
0.0
  0
VERTEX
  5
52A4
  8
0
 10
172.9678399509400037
 20
201.4144998668193978
 30
0.0
  0
VERTEX
  5
52A5
  8
0
 10
172.9684086757494867
 20
201.3752480020488065
 30
0.0
  0
VERTEX
  5
52A6
  8
0
 10
172.9692316556781861
 20
201.2969859490787883
 30
0.0
  0
VERTEX
  5
52A7
  8
0
 10
172.9696401466052862
 20
201.2190879415057907
 30
0.0
  0
VERTEX
  5
52A8
  8
0
 10
172.9696908995699118
 20
201.1802909950069989
 30
0.0
  0
VERTEX
  5
52A9
  8
0
 10
172.9696401466052862
 20
201.141494048508207
 30
0.0
  0
VERTEX
  5
52AA
  8
0
 10
172.9692316556786125
 20
201.0635960409352094
 30
0.0
  0
VERTEX
  5
52AB
  8
0
 10
172.9684086757494867
 20
200.9853339879653049
 30
0.0
  0
VERTEX
  5
52AC
  8
0
 10
172.9678399509404869
 20
200.9460821231949126
 30
0.0
  0
VERTEX
  5
52AD
  8
0
 10
172.9671655169993016
 20
200.9067581176626049
 30
0.0
  0
VERTEX
  5
52AE
  8
0
 10
172.9654970893986956
 20
200.8279190467131059
 30
0.0
  0
VERTEX
  5
52AF
  8
0
 10
172.9633989031889882
 20
200.7488675808567109
 30
0.0
  0
VERTEX
  5
52B0
  8
0
 10
172.9608670646146038
 20
200.6696545176467055
 30
0.0
  0
VERTEX
  5
52B1
  8
0
 10
172.9578982669092966
 20
200.590330451149498
 30
0.0
  0
VERTEX
  5
52B2
  8
0
 10
172.954489776507387
 20
200.5109455783259875
 30
0.0
  0
VERTEX
  5
52B3
  8
0
 10
172.9526199445550958
 20
200.4712458702124991
 30
0.0
  0
VERTEX
  5
52B4
  8
0
 10
172.950639414408414
 20
200.4315495069726012
 30
0.0
  0
VERTEX
  5
52B5
  8
0
 10
172.9463455326061023
 20
200.3521910652366103
 30
0.0
  0
VERTEX
  5
52B6
  8
0
 10
172.9416069855226112
 20
200.2729181137586068
 30
0.0
  0
VERTEX
  5
52B7
  8
0
 10
172.9364231117203872
 20
200.1937775854956953
 30
0.0
  0
VERTEX
  5
52B8
  8
0
 10
172.930793775978799
 20
200.1148163065996926
 30
0.0
  0
VERTEX
  5
52B9
  8
0
 10
172.9247193980015993
 20
200.0360812753121991
 30
0.0
  0
VERTEX
  5
52BA
  8
0
 10
172.9215156013466981
 20
199.9968132913269869
 30
0.0
  0
VERTEX
  5
52BB
  8
0
 10
172.9182009531052984
 20
199.9576194773472935
 30
0.0
  0
VERTEX
  5
52BC
  8
0
 10
172.9112399678976999
 20
199.8794776943585987
 30
0.0
  0
VERTEX
  5
52BD
  8
0
 10
172.9038385117657981
 20
199.8017023186245922
 30
0.0
  0
VERTEX
  5
52BE
  8
0
 10
172.8959991842081934
 20
199.7243391737293052
 30
0.0
  0
VERTEX
  5
52BF
  8
0
 10
172.8877250980183078
 20
199.6474333410436941
 30
0.0
  0
VERTEX
  5
52C0
  8
0
 10
172.8790198582908033
 20
199.5710289918565934
 30
0.0
  0
VERTEX
  5
52C1
  8
0
 10
172.8745068109381009
 20
199.5330283881930882
 30
0.0
  0
VERTEX
  5
52C2
  8
0
 10
172.8698875372049031
 20
199.4951692250535871
 30
0.0
  0
VERTEX
  5
52C3
  8
0
 10
172.8603326317326889
 20
199.4198958122221939
 30
0.0
  0
VERTEX
  5
52C4
  8
0
 10
172.8503581712955111
 20
199.3452355023825078
 30
0.0
  0
VERTEX
  5
52C5
  8
0
 10
172.839967928836586
 20
199.2712187628071945
 30
0.0
  0
VERTEX
  5
52C6
  8
0
 10
172.8291674718095123
 20
199.1978857987782874
 30
0.0
  0
VERTEX
  5
52C7
  8
0
 10
172.8179629297231088
 20
199.1252764298195075
 30
0.0
  0
VERTEX
  5
52C8
  8
0
 10
172.8122111938257035
 20
199.0892553854201026
 30
0.0
  0
VERTEX
  5
52C9
  8
0
 10
172.8063609852235913
 20
199.0534299027791008
 30
0.0
  0
VERTEX
  5
52CA
  8
0
 10
172.7943688613216011
 20
198.9823847142558861
 30
0.0
  0
VERTEX
  5
52CB
  8
0
 10
172.7819943048205005
 20
198.9121784421334098
 30
0.0
  0
VERTEX
  5
52CC
  8
0
 10
172.769245565962791
 20
198.8428475859518869
 30
0.0
  0
VERTEX
  5
52CD
  8
0
 10
172.7561313742882874
 20
198.7744274158413873
 30
0.0
  0
VERTEX
  5
52CE
  8
0
 10
172.7426609106506987
 20
198.706951829733498
 30
0.0
  0
VERTEX
  5
52CF
  8
0
 10
172.7357950614986919
 20
198.673578440245592
 30
0.0
  0
VERTEX
  5
52D0
  8
0
 10
172.7288437753111054
 20
198.6404532185837013
 30
0.0
  0
VERTEX
  5
52D1
  8
0
 10
172.7146899586022926
 20
198.5749623693351111
 30
0.0
  0
VERTEX
  5
52D2
  8
0
 10
172.7002099181698043
 20
198.5105088522869892
 30
0.0
  0
VERTEX
  5
52D3
  8
0
 10
172.6928509958563041
 20
198.4786801494194037
 30
0.0
  0
VERTEX
  5
52D4
  8
0
 10
172.6854147123137864
 20
198.4471215563308988
 30
0.0
  0
VERTEX
  5
52D5
  8
0
 10
172.6703160071174068
 20
198.3848285884639893
 30
0.0
  0
VERTEX
  5
52D6
  8
0
 10
172.6549260597691955
 20
198.3236570883597096
 30
0.0
  0
VERTEX
  5
52D7
  8
0
 10
172.6471258573926093
 20
198.2935000628044122
 30
0.0
  0
VERTEX
  5
52D8
  8
0
 10
172.6392576983782874
 20
198.2636330565354967
 30
0.0
  0
VERTEX
  5
52D9
  8
0
 10
172.6233242983851142
 20
198.2047811957158956
 30
0.0
  0
VERTEX
  5
52DA
  8
0
 10
172.6071397556208922
 20
198.1471247649008092
 30
0.0
  0
VERTEX
  5
52DB
  8
0
 10
172.5907184560130077
 20
198.0906854455946018
 30
0.0
  0
VERTEX
  5
52DC
  8
0
 10
172.5740752418861916
 20
198.0354832196240125
 30
0.0
  0
VERTEX
  5
52DD
  8
0
 10
172.5572253747425009
 20
197.9815362579506086
 30
0.0
  0
VERTEX
  5
52DE
  8
0
 10
172.548724553675612
 20
197.9550285627539097
 30
0.0
  0
VERTEX
  5
52DF
  8
0
 10
172.5401378266840027
 20
197.928719076077499
 30
0.0
  0
VERTEX
  5
52E0
  8
0
 10
172.5226787639001031
 20
197.8766212730332938
 30
0.0
  0
VERTEX
  5
52E1
  8
0
 10
172.5048428841795953
 20
197.8252531807875982
 30
0.0
  0
VERTEX
  5
52E2
  8
0
 10
172.4866353956367107
 20
197.7746556833762099
 30
0.0
  0
VERTEX
  5
52E3
  8
0
 10
172.4680619548977916
 20
197.7248685391996901
 30
0.0
  0
VERTEX
  5
52E4
  8
0
 10
172.4491286375236996
 20
197.6759302791097923
 30
0.0
  0
VERTEX
  5
52E5
  8
0
 10
172.4395290305384947
 20
197.6517911632294897
 30
0.0
  0
VERTEX
  5
52E6
  8
0
 10
172.4298419064490986
 20
197.6278781154557862
 30
0.0
  0
VERTEX
  5
52E7
  8
0
 10
172.4102085783596863
 20
197.5807478616924016
 30
0.0
  0
VERTEX
  5
52E8
  8
0
 10
172.3902357879331078
 20
197.5345738622540921
 30
0.0
  0
VERTEX
  5
52E9
  8
0
 10
172.3801244015810141
 20
197.5118557738726111
 30
0.0
  0
SEQEND
  5
52EA
  8
0
  0
POLYLINE
  5
45A0
  8
0
 66
     1
 10
0.0
 20
0.0
 30
0.0
  0
VERTEX
  5
52EB
  8
0
 10
171.9644329365702902
 20
196.8801885942226022
 30
0.0
  0
VERTEX
  5
52EC
  8
0
 10
171.9511295868194054
 20
196.8679849300797002
 30
0.0
  0
VERTEX
  5
52ED
  8
0
 10
171.9244016986338011
 20
196.8447378847149878
 30
0.0
  0
VERTEX
  5
52EE
  8
0
 10
171.8975253824478102
 20
196.823043075315411
 30
0.0
  0
VERTEX
  5
52EF
  8
0
 10
171.8840365661924068
 20
196.8127792401025999
 30
0.0
  0
VERTEX
  5
52F0
  8
0
 10
171.8705166776827866
 20
196.8029049883840003
 30
0.0
  0
VERTEX
  5
52F1
  8
0
 10
171.843391863177203
 20
196.7843260777939918
 30
0.0
  0
VERTEX
  5
52F2
  8
0
 10
171.8161674027639947
 20
196.7673067337360067
 30
0.0
  0
VERTEX
  5
52F3
  8
0
 10
171.788859889018795
 20
196.7518452654746
 30
0.0
  0
VERTEX
  5
52F4
  8
0
 10
171.7614859852994869
 20
196.7379378979508999
 30
0.0
  0
VERTEX
  5
52F5
  8
0
 10
171.7340624352439136
 20
196.7255788114171082
 30
0.0
  0
VERTEX
  5
52F6
  8
0
 10
171.7203373597625955
 20
196.7199775272360966
 30
0.0
  0
VERTEX
  5
52F7
  8
0
 10
171.7066063055742973
 20
196.7147602575655867
 30
0.0
  0
VERTEX
  5
52F8
  8
0
 10
171.6791350686669091
 20
196.705472539624509
 30
0.0
  0
VERTEX
  5
52F9
  8
0
 10
171.6516665489031936
 20
196.6977039277622055
 30
0.0
  0
VERTEX
  5
52FA
  8
0
 10
171.6242188647536011
 20
196.6914405891942863
 30
0.0
  0
VERTEX
  5
52FB
  8
0
 10
171.5968103703310135
 20
196.6866665343760019
 30
0.0
  0
VERTEX
  5
52FC
  8
0
 10
171.5694595963259133
 20
196.6833635787450021
 30
0.0
  0
VERTEX
  5
52FD
  8
0
 10
171.5558116789036092
 20
196.682257474253106
 30
0.0
  0
VERTEX
  5
52FE
  8
0
 10
171.5421851901994046
 20
196.6815113195987976
 30
0.0
  0
VERTEX
  5
52FF
  8
0
 10
171.5150058554542909
 20
196.6810871278248953
 30
0.0
  0
VERTEX
  5
5300
  8
0
 10
171.4879402897620082
 20
196.6820661543468987
 30
0.0
  0
VERTEX
  5
5301
  8
0
 10
171.474455996198401
 20
196.6830735070209073
 30
0.0
  0
SEQEND
  5
5302
  8
0
  0
POLYLINE
  5
45A1
  8
0
 66
     1
 10
0.0
 20
0.0
 30
0.0
  0
VERTEX
  5
5303
  8
0
 10
171.474455996198401
 20
196.6830735070209073
 30
0.0
  0
VERTEX
  5
5304
  8
0
 10
171.421089354800813
 20
196.6904335626703926
 30
0.0
  0
VERTEX
  5
5305
  8
0
 10
171.3123927311939951
 20
196.7219893817355114
 30
0.0
  0
VERTEX
  5
5306
  8
0
 10
171.202001866091706
 20
196.7767808687223976
 30
0.0
  0
VERTEX
  5
5307
  8
0
 10
171.1465181347045927
 20
196.8130634485048915
 30
0.0
  0
VERTEX
  5
5308
  8
0
 10
171.0910245253633093
 20
196.8553026286035106
 30
0.0
  0
VERTEX
  5
5309
  8
0
 10
171.0264531419055913
 20
196.9120897912337966
 30
0.0
  0
VERTEX
  5
530A
  8
0
 10
171.0080668649351878
 20
196.9297910167906878
 30
0.0
  0
VERTEX
  5
530B
  8
0
 10
170.9897178242655968
 20
196.9481440748758985
 30
0.0
  0
VERTEX
  5
530C
  8
0
 10
170.9805588565529888
 20
196.9575641384363109
 30
0.0
  0
VERTEX
  5
530D
  8
0
 10
170.9714111012094975
 20
196.9671460334807023
 30
0.0
  0
VERTEX
  5
530E
  8
0
 10
170.9531517468226127
 20
196.9867936160337933
 30
0.0
  0
VERTEX
  5
530F
  8
0
 10
170.9349447748566035
 20
197.0070832114930965
 30
0.0
  0
VERTEX
  5
5310
  8
0
 10
170.9167951547362918
 20
197.0280108855482979
 30
0.0
  0
VERTEX
  5
5311
  8
0
 10
170.8987078045608996
 20
197.0495723929591065
 30
0.0
  0
VERTEX
  5
5312
  8
0
 10
170.880687584126207
 20
197.0717631910636101
 30
0.0
  0
VERTEX
  5
5313
  8
0
 10
170.8717039989377895
 20
197.0830932670513107
 30
0.0
  0
VERTEX
  5
5314
  8
0
 10
170.8627382826277881
 20
197.0945797525625949
 30
0.0
  0
VERTEX
  5
5315
  8
0
 10
170.8448626955930081
 20
197.1180196724388907
 30
0.0
  0
VERTEX
  5
5316
  8
0
 10
170.8270655731309944
 20
197.1420778218733858
 30
0.0
  0
VERTEX
  5
5317
  8
0
 10
170.8093517212934955
 20
197.1667486305535988
 30
0.0
  0
VERTEX
  5
5318
  8
0
 10
170.7917259405637083
 20
197.192026156727394
 30
0.0
  0
VERTEX
  5
5319
  8
0
 10
170.7741930178628991
 20
197.2179040914276982
 30
0.0
  0
VERTEX
  5
531A
  8
0
 10
170.7654628685357068
 20
197.2310661412778927
 30
0.0
  0
VERTEX
  5
531B
  8
0
 10
170.7567577186665915
 20
197.2443757636968087
 30
0.0
  0
VERTEX
  5
531C
  8
0
 10
170.7394247792221904
 20
197.2714341468164889
 30
0.0
  0
VERTEX
  5
531D
  8
0
 10
170.7221988988679016
 20
197.2990718655601086
 30
0.0
  0
VERTEX
  5
531E
  8
0
 10
170.7050847324445897
 20
197.327281204475895
 30
0.0
  0
VERTEX
  5
531F
  8
0
 10
170.6880868828015991
 20
197.3560541172292915
 30
0.0
  0
VERTEX
  5
5320
  8
0
 10
170.6712098933892037
 20
197.3853822370244018
 30
0.0
  0
VERTEX
  5
5321
  8
0
 10
170.6628181230537109
 20
197.4002518001273927
 30
0.0
  0
VERTEX
  5
5322
  8
0
 10
170.6544582409426027
 20
197.4152568881360139
 30
0.0
  0
VERTEX
  5
5323
  8
0
 10
170.6378363282481132
 20
197.4456690985855118
 30
0.0
  0
VERTEX
  5
5324
  8
0
 10
170.621348476999799
 20
197.4766096139985052
 30
0.0
  0
VERTEX
  5
5325
  8
0
 10
170.6049989207411102
 20
197.5080689126858999
 30
0.0
  0
VERTEX
  5
5326
  8
0
 10
170.5887917979264046
 20
197.5400372219338863
 30
0.0
  0
VERTEX
  5
5327
  8
0
 10
170.5727311575780902
 20
197.572504510023208
 30
0.0
  0
VERTEX
  5
5328
  8
0
 10
170.5647570209418973
 20
197.5889220414885017
 30
0.0
  0
VERTEX
  5
5329
  8
0
 10
170.556821004577813
 20
197.6054603929430016
 30
0.0
  0
VERTEX
  5
532A
  8
0
 10
170.5410653133764924
 20
197.6388940944837032
 30
0.0
  0
VERTEX
  5
532B
  8
0
 10
170.5254680189291037
 20
197.6727944509721056
 30
0.0
  0
VERTEX
  5
532C
  8
0
 10
170.5177299870503873
 20
197.6899160318907889
 30
0.0
  0
VERTEX
  5
532D
  8
0
 10
170.5100330073196062
 20
197.7071499181255945
 30
0.0
  0
VERTEX
  5
532E
  8
0
 10
170.4947641066002859
 20
197.7419485790175884
 30
0.0
  0
VERTEX
  5
532F
  8
0
 10
170.4796650778415881
 20
197.7771781531581894
 30
0.0
  0
VERTEX
  5
5330
  8
0
 10
170.4721804203115028
 20
197.7949505981204084
 30
0.0
  0
VERTEX
  5
5331
  8
0
 10
170.4647396063930955
 20
197.8128260067016129
 30
0.0
  0
VERTEX
  5
5332
  8
0
 10
170.4499912933588064
 20
197.8488791637963118
 30
0.0
  0
VERTEX
  5
5333
  8
0
 10
170.4354236472856883
 20
197.8853243191020965
 30
0.0
  0
VERTEX
  5
5334
  8
0
 10
170.4210400760636901
 20
197.9221478515015065
 30
0.0
  0
VERTEX
  5
5335
  8
0
 10
170.4068438790411051
 20
197.95933583904241
 30
0.0
  0
VERTEX
  5
5336
  8
0
 10
170.3928382393548873
 20
197.9968740751525047
 30
0.0
  0
VERTEX
  5
5337
  8
0
 10
170.3859078396268956
 20
198.015770023328912
 30
0.0
  0
VERTEX
  5
5338
  8
0
 10
170.3790262164741023
 20
198.0347480861755116
 30
0.0
  0
VERTEX
  5
5339
  8
0
 10
170.3654107389668013
 20
198.0729431502830096
 30
0.0
  0
VERTEX
  5
533A
  8
0
 10
170.3519936496363982
 20
198.1114470689913105
 30
0.0
  0
VERTEX
  5
533B
  8
0
 10
170.3387061230309882
 20
198.1504570996816028
 30
0.0
  0
VERTEX
  5
533C
  8
0
 10
170.3255096715955972
 20
198.1900973085051874
 30
0.0
  0
VERTEX
  5
533D
  8
0
 10
170.3124117074625872
 20
198.2303608030111093
 30
0.0
  0
VERTEX
  5
533E
  8
0
 10
170.3059019510729115
 20
198.2507239948583901
 30
0.0
  0
VERTEX
  5
533F
  8
0
 10
170.2994195563044002
 20
198.2712402038690982
 30
0.0
  0
VERTEX
  5
5340
  8
0
 10
170.286540446887301
 20
198.3127276640279035
 30
0.0
  0
VERTEX
  5
5341
  8
0
 10
170.2737815010297879
 20
198.3548148892629968
 30
0.0
  0
VERTEX
  5
5342
  8
0
 10
170.2611497239606138
 20
198.3974931601981098
 30
0.0
  0
VERTEX
  5
5343
  8
0
 10
170.2486519950718957
 20
198.4407533558822081
 30
0.0
  0
VERTEX
  5
5344
  8
0
 10
170.2362950590687944
 20
198.4845859790056863
 30
0.0
  0
VERTEX
  5
5345
  8
0
 10
170.2301714572045057
 20
198.5067138866301093
 30
0.0
  0
VERTEX
  5
5346
  8
0
 10
170.2240855175242871
 20
198.5289811828378959
 30
0.0
  0
VERTEX
  5
5347
  8
0
 10
170.2120298208508018
 20
198.573928799961692
 30
0.0
  0
VERTEX
  5
5348
  8
0
 10
170.2001342607078982
 20
198.6194183728844109
 30
0.0
  0
VERTEX
  5
5349
  8
0
 10
170.1884049628662865
 20
198.6654391865968989
 30
0.0
  0
VERTEX
  5
534A
  8
0
 10
170.1768478805591087
 20
198.7119803031465892
 30
0.0
  0
VERTEX
  5
534B
  8
0
 10
170.1654687883485053
 20
198.7590305982859888
 30
0.0
  0
VERTEX
  5
534C
  8
0
 10
170.1598477432486902
 20
198.7827431683317059
 30
0.0
  0
VERTEX
  5
534D
  8
0
 10
170.1542732814006911
 20
198.8065787793877064
 30
0.0
  0
VERTEX
  5
534E
  8
0
 10
170.1432668118069955
 20
198.8546132407554978
 30
0.0
  0
VERTEX
  5
534F
  8
0
 10
170.1324547147295903
 20
198.903121939004194
 30
0.0
  0
VERTEX
  5
5350
  8
0
 10
170.1218422002563955
 20
198.9520924064804888
 30
0.0
  0
VERTEX
  5
5351
  8
0
 10
170.1114343432184057
 20
199.0015117764714034
 30
0.0
  0
VERTEX
  5
5352
  8
0
 10
170.1012360735932987
 20
199.0513668095551907
 30
0.0
  0
VERTEX
  5
5353
  8
0
 10
170.0962170328419063
 20
199.0764534672782986
 30
0.0
  0
VERTEX
  5
5354
  8
0
 10
170.0912521674997038
 20
199.1016439211462909
 30
0.0
  0
VERTEX
  5
5355
  8
0
 10
170.0814872387840921
 20
199.1523292102885137
 30
0.0
  0
VERTEX
  5
5356
  8
0
 10
170.0719457312077054
 20
199.2034084897468915
 30
0.0
  0
VERTEX
  5
5357
  8
0
 10
170.0672601007310902
 20
199.2290913717648948
 30
0.0
  0
VERTEX
  5
5358
  8
0
 10
170.0626319112523106
 20
199.2548673174551936
 30
0.0
  0
VERTEX
  5
5359
  8
0
 10
170.0535498615556946
 20
199.3066910293674141
 30
0.0
  0
VERTEX
  5
535A
  8
0
 10
170.0447034749938098
 20
199.3588647737647932
 30
0.0
  0
VERTEX
  5
535B
  8
0
 10
170.0403698187199097
 20
199.3850782244481081
 30
0.0
  0
VERTEX
  5
535C
  8
0
 10
170.0360964494385883
 20
199.4113735470675124
 30
0.0
  0
VERTEX
  5
535D
  8
0
 10
170.0277322832102982
 20
199.4642022311915923
 30
0.0
  0
VERTEX
  5
535E
  8
0
 10
170.0196142710495053
 20
199.5173356338744952
 30
0.0
  0
VERTEX
  5
535F
  8
0
 10
170.0117445872992903
 20
199.5707648503095015
 30
0.0
  0
VERTEX
  5
5360
  8
0
 10
170.0041254221958127
 20
199.6244803551549865
 30
0.0
  0
VERTEX
  5
5361
  8
0
 10
169.996759732809295
 20
199.6784662746117931
 30
0.0
  0
VERTEX
  5
5362
  8
0
 10
169.9931728181780102
 20
199.7055555889122047
 30
0.0
  0
VERTEX
  5
5363
  8
0
 10
169.9896503019189993
 20
199.7327064076910972
 30
0.0
  0
VERTEX
  5
5364
  8
0
 10
169.9827997293903081
 20
199.7871842585985007
 30
0.0
  0
VERTEX
  5
5365
  8
0
 10
169.9762104243444867
 20
199.8418830700545925
 30
0.0
  0
VERTEX
  5
5366
  8
0
 10
169.9698845981313013
 20
199.8967858575767025
 30
0.0
  0
VERTEX
  5
5367
  8
0
 10
169.963824258106996
 20
199.9518754447445872
 30
0.0
  0
VERTEX
  5
5368
  8
0
 10
169.9580312022364978
 20
200.0071344994804861
 30
0.0
  0
VERTEX
  5
5369
  8
0
 10
169.9552354093268036
 20
200.0348221275125979
 30
0.0
  0
VERTEX
  5
536A
  8
0
 10
169.9525070145280097
 20
200.0625455713723113
 30
0.0
  0
VERTEX
  5
536B
  8
0
 10
169.9472530613172978
 20
200.1180911300712069
 30
0.0
  0
VERTEX
  5
536C
  8
0
 10
169.9422704884167956
 20
200.1737536047963886
 30
0.0
  0
VERTEX
  5
536D
  8
0
 10
169.9398812668488858
 20
200.2016231937228099
 30
0.0
  0
SEQEND
  5
536E
  8
0
  0
LINE
  5
45A2
  8
0
 10
147.8802497935782867
 20
205.8802909950001947
 30
0.0
 11
147.8802497935782867
 21
196.4802909949999901
 31
0.0
  0
LINE
  5
45A3
  8
0
 10
172.3802497935782867
 20
205.4802909950001037
 30
0.0
 11
172.3802497935782867
 21
196.8802909950001094
 31
0.0
  0
LINE
  5
45A4
  8
0
 10
148.1802497935784118
 20
206.1802909950000924
 30
0.0
 11
148.1802497935784118
 21
196.1802909950000924
 31
0.0
  0
LINE
  5
45A5
  8
1
 10
181.7472912125944902
 20
201.1802909950000924
 30
0.0
 11
104.5802497935783038
 21
201.1802909950000924
 31
0.0
  0
LINE
  5
466F
  8
0
 10
29.6802497935786995
 20
93.782922618398203
 30
0.0
 11
49.0802497935785595
 21
93.782922618398203
 31
0.0
  0
TEXT
  5
46D9
  8
0
 62
     3
 10
0.0
 20
0.0
 30
0.0
 40
10.0
  1
SKPZN09-12
  7
STANDARD1
  0
CIRCLE
  5
46FE
  8
0
 10
123.0802497935785027
 20
149.1802909950000071
 30
0.0
 40
3.1000000000000001
  0
ENDSEC
  0
EOF
