  0
SECTION
  2
HEADER
  9
$ACADVER
  1
AC1009
  9
$INSBASE
 10
0.0
 20
0.0
 30
0.0
  9
$EXTMIN
 10
0.0
 20
-2.960436562073669
 30
0.0
  9
$EXTMAX
 10
204.8384068065720953
 20
219.2639018242441011
 30
0.0
  9
$LIMMIN
 10
0.0
 20
0.0
  9
$LIMMAX
 10
375.0
 20
270.0
  9
$ORTHOMODE
 70
     1
  9
$REGENMODE
 70
     1
  9
$FILLMODE
 70
     1
  9
$QTEXTMODE
 70
     0
  9
$MIRRTEXT
 70
     0
  9
$DRAGMODE
 70
     2
  9
$LTSCALE
 40
10.0
  9
$OSMODE
 70
    37
  9
$ATTMODE
 70
     1
  9
$TEXTSIZE
 40
4.000000000000048
  9
$TRACEWID
 40
0.05
  9
$TEXTSTYLE
  7
STANDARD
  9
$CLAYER
  8
0
  9
$CELTYPE
  6
BYLAYER
  9
$CECOLOR
 62
   256
  9
$DIMSCALE
 40
1.0
  9
$DIMASZ
 40
3.0
  9
$DIMEXO
 40
2.0
  9
$DIMDLI
 40
0.38
  9
$DIMRND
 40
0.0
  9
$DIMDLE
 40
0.0
  9
$DIMEXE
 40
2.0
  9
$DIMTP
 40
0.0
  9
$DIMTM
 40
0.0
  9
$DIMTXT
 40
3.2000000000000002
  9
$DIMCEN
 40
0.0
  9
$DIMTSZ
 40
0.0
  9
$DIMTOL
 70
     0
  9
$DIMLIM
 70
     0
  9
$DIMTIH
 70
     0
  9
$DIMTOH
 70
     0
  9
$DIMSE1
 70
     0
  9
$DIMSE2
 70
     0
  9
$DIMTAD
 70
     1
  9
$DIMZIN
 70
     0
  9
$DIMBLK
  1

  9
$DIMASO
 70
     0
  9
$DIMSHO
 70
     0
  9
$DIMPOST
  1

  9
$DIMAPOST
  1

  9
$DIMALT
 70
     0
  9
$DIMALTD
 70
     2
  9
$DIMALTF
 40
25.3999999999999986
  9
$DIMLFAC
 40
1.0
  9
$DIMTOFL
 70
     0
  9
$DIMTVP
 40
1.6000000000000001
  9
$DIMTIX
 70
     1
  9
$DIMSOXD
 70
     0
  9
$DIMSAH
 70
     0
  9
$DIMBLK1
  1

  9
$DIMBLK2
  1

  9
$DIMSTYLE
  2
STANDARD
  9
$DIMCLRD
 70
     4
  9
$DIMCLRE
 70
     4
  9
$DIMCLRT
 70
     4
  9
$DIMTFAC
 40
1.0
  9
$DIMGAP
 40
0.09
  9
$LUNITS
 70
     2
  9
$LUPREC
 70
     1
  9
$SKETCHINC
 40
0.1
  9
$FILLETRAD
 40
22.0
  9
$AUNITS
 70
     0
  9
$AUPREC
 70
     0
  9
$MENU
  1
E:\r13\win\SUPPORT\ACAD
  9
$ELEVATION
 40
0.0
  9
$PELEVATION
 40
0.0
  9
$THICKNESS
 40
0.0
  9
$LIMCHECK
 70
     0
  9
$BLIPMODE
 70
     0
  9
$CHAMFERA
 40
1.1999999999999991
  9
$CHAMFERB
 40
1.1999999999999991
  9
$SKPOLY
 70
     0
  9
$TDCREATE
 40
2449954.6020138887688518
  9
$TDUPDATE
 40
2460812.3757870369590819
  9
$TDINDWG
 40
0.6770471644
  9
$TDUSRTIMER
 40
0.6770471644
  9
$USRTIMER
 70
     1
  9
$ANGBASE
 50
0.0
  9
$ANGDIR
 70
     0
  9
$PDMODE
 70
     0
  9
$PDSIZE
 40
0.0
  9
$PLINEWID
 40
0.0
  9
$COORDS
 70
     1
  9
$SPLFRAME
 70
     0
  9
$SPLINETYPE
 70
     6
  9
$SPLINESEGS
 70
     8
  9
$ATTDIA
 70
     1
  9
$ATTREQ
 70
     1
  9
$HANDLING
 70
     1
  9
$HANDSEED
  5
423E
  9
$SURFTAB1
 70
     6
  9
$SURFTAB2
 70
     6
  9
$SURFTYPE
 70
     6
  9
$SURFU
 70
     6
  9
$SURFV
 70
     6
  9
$UCSNAME
  2

  9
$UCSORG
 10
0.0
 20
0.0
 30
0.0
  9
$UCSXDIR
 10
1.0
 20
0.0
 30
0.0
  9
$UCSYDIR
 10
0.0
 20
1.0
 30
0.0
  9
$PUCSNAME
  2

  9
$PUCSORG
 10
0.0
 20
0.0
 30
0.0
  9
$PUCSXDIR
 10
1.0
 20
0.0
 30
0.0
  9
$PUCSYDIR
 10
0.0
 20
1.0
 30
0.0
  9
$USERI1
 70
     0
  9
$USERI2
 70
     1
  9
$USERI3
 70
     0
  9
$USERI4
 70
     0
  9
$USERI5
 70
     0
  9
$USERR1
 40
0.0
  9
$USERR2
 40
0.0
  9
$USERR3
 40
0.0
  9
$USERR4
 40
0.0
  9
$USERR5
 40
0.0
  9
$WORLDVIEW
 70
     1
  9
$SHADEDGE
 70
     3
  9
$SHADEDIF
 70
    70
  9
$TILEMODE
 70
     1
  9
$MAXACTVP
 70
    16
  9
$PLIMCHECK
 70
     0
  9
$PEXTMIN
 10
1.0000000000000000E+20
 20
1.0000000000000000E+20
 30
1.0000000000000000E+20
  9
$PEXTMAX
 10
-1.0000000000000000E+20
 20
-1.0000000000000000E+20
 30
-1.0000000000000000E+20
  9
$PLIMMIN
 10
0.0
 20
0.0
  9
$PLIMMAX
 10
12.0
 20
9.0
  9
$UNITMODE
 70
     0
  9
$VISRETAIN
 70
     0
  9
$PLINEGEN
 70
     0
  9
$PSLTSCALE
 70
     0
  0
ENDSEC
  0
SECTION
  2
TABLES
  0
TABLE
  2
VPORT
 70
     1
  0
VPORT
  2
*ACTIVE
 70
     0
 10
0.0
 20
0.0
 11
1.0
 21
1.0
 12
428.1021897810218775
 22
182.2857777148346941
 13
0.0
 23
0.0
 14
10.0
 24
10.0
 15
10.0
 25
10.0
 16
0.0
 26
0.0
 36
1.0
 17
0.0
 27
0.0
 37
0.0
 40
364.5715554296695018
 41
2.3485221674876842
 42
50.0
 43
0.0
 44
0.0
 50
0.0
 51
0.0
 71
     0
 72
   500
 73
     1
 74
     0
 75
     0
 76
     0
 77
     0
 78
     2
  0
ENDTAB
  0
TABLE
  2
LTYPE
 70
     3
  0
LTYPE
  2
CONTINUOUS
 70
     0
  3
Solid Line
 72
    65
 73
     0
 40
0.0
  0
LTYPE
  2
CENTER
 70
     0
  3
____ _ ____ _ ____ _ ____ _ ____ _ ____ _ ____
 72
    65
 73
     4
 40
2.0
 49
1.25
 49
-0.25
 49
0.25
 49
-0.25
  0
LTYPE
  2
HIDDEN
 70
     0
  3
_ _ _ _ _ _ _ _ _ _ _ _ _ _ _ _ _ _ _ _ _ _ _
 72
    65
 73
     2
 40
0.375
 49
0.25
 49
-0.125
  0
ENDTAB
  0
TABLE
  2
LAYER
 70
     5
  0
LAYER
  2
0
 70
     0
 62
     7
  6
CONTINUOUS
  0
LAYER
  2
1
 70
     0
 62
     1
  6
CENTER
  0
LAYER
  2
3
 70
     0
 62
     3
  6
CONTINUOUS
  0
LAYER
  2
2
 70
     0
 62
     2
  6
HIDDEN
  0
LAYER
  2
DEFPOINTS
 70
     0
 62
     7
  6
CONTINUOUS
  0
ENDTAB
  0
TABLE
  2
STYLE
 70
     2
  0
STYLE
  2
STANDARD
 70
     0
 40
0.0
 41
1.0
 50
0.0
 71
     0
 42
4.000000000000048
  3
SIMPLEX
  4
BIGFONT
  0
STYLE
  2
STANDARD1
 70
     0
 40
0.0
 41
1.0
 50
0.0
 71
     0
 42
3.0
  3
txt
  4

  0
ENDTAB
  0
TABLE
  2
VIEW
 70
     1
  0
VIEW
  2
ALL
 70
     0
 40
270.0
 10
220.785953177257511
 20
135.0
 41
441.571906354515022
 11
0.0
 21
0.0
 31
1.0
 12
0.0
 22
0.0
 32
0.0
 42
50.0
 43
0.0
 44
0.0
 50
0.0
 71
     0
  0
ENDTAB
  0
TABLE
  2
UCS
 70
     0
  0
ENDTAB
  0
TABLE
  2
APPID
 70
     4
  0
APPID
  2
ACAD
 70
     0
  0
APPID
  2
ACAD_EXEMPT_FROM_CAD_STANDARDS
 70
     0
  0
APPID
  2
ACAD_MLEADERVER
 70
     0
  0
APPID
  2
ACAD_NAV_VCDISPLAY
 70
     0
  0
ENDTAB
  0
TABLE
  2
DIMSTYLE
 70
     1
  0
DIMSTYLE
  2
STANDARD
 70
     0
  3

  4

  5

  6

  7

 40
1.0
 41
0.18
 42
0.0625
 43
0.38
 44
0.18
 45
0.0
 46
0.0
 47
0.0
 48
0.0
140
0.18
141
0.09
142
0.0
143
25.3999999999999986
144
1.0
145
0.0
146
1.0
147
0.09
 71
     0
 72
     0
 73
     1
 74
     1
 75
     0
 76
     0
 77
     0
 78
     0
170
     0
171
     2
172
     0
173
     0
174
     0
175
     0
176
     0
177
     0
178
     0
  0
ENDTAB
  0
ENDSEC
  0
SECTION
  2
BLOCKS
  0
BLOCK
  8
0
  2
$MODEL_SPACE
 70
     0
 10
0.0
 20
0.0
 30
0.0
  3
$MODEL_SPACE
  1

  0
ENDBLK
  5
F3C
  8
0
  0
BLOCK
 67
     1
  8
0
  2
$PAPER_SPACE
 70
     0
 10
0.0
 20
0.0
 30
0.0
  3
$PAPER_SPACE
  1

  0
ENDBLK
  5
F3A
 67
     1
  8
0
  0
ENDSEC
  0
SECTION
  2
ENTITIES
  0
LINE
  5
2E06
  8
0
 10
113.7227730595847959
 20
120.5639018242440983
 30
0.0
 11
114.522773059584793
 21
120.5639018242440983
 31
0.0
  0
LINE
  5
2E07
  8
0
 10
114.522773059584793
 20
129.5639018242441125
 30
0.0
 11
113.7227730595847959
 21
129.5639018242441125
 31
0.0
  0
LINE
  5
2E08
  8
0
 10
97.2227730595848243
 20
127.0639018242440983
 30
0.0
 11
95.2227730595752746
 21
127.0639018242440983
 31
0.0
  0
LINE
  5
2E09
  8
0
 10
95.2227730595752746
 20
123.0639018242440983
 30
0.0
 11
97.2227730595848243
 21
123.0639018242440983
 31
0.0
  0
CIRCLE
  5
2E0A
  8
0
 10
86.7227730595848243
 20
159.5639018242441125
 30
0.0
 40
4.0000000000000284
  0
CIRCLE
  5
2E0B
  8
0
 10
86.7227730595848243
 20
159.5639018242441125
 30
0.0
 40
5.5000000000000284
  0
CIRCLE
  5
2E0C
  8
0
 10
107.7227730595847959
 20
159.5639018242441125
 30
0.0
 40
4.0
  0
CIRCLE
  5
2E0D
  8
0
 10
107.7227730595847959
 20
159.5639018242441125
 30
0.0
 40
5.5
  0
LINE
  5
2E12
  8
0
 10
83.2227730595848243
 20
119.0639018242440983
 30
0.0
 11
93.7227730595848243
 21
119.0639018242440983
 31
0.0
  0
ARC
  5
2E13
  8
0
 10
83.2227730595848243
 20
121.5639018242440983
 30
0.0
 40
2.5
 50
179.9999999999984084
 51
270.0
  0
LINE
  5
2E14
  8
0
 10
80.7227730595848243
 20
162.1996452584195936
 30
0.0
 11
80.7227730595848243
 21
121.5639018242440983
 31
0.0
  0
ARC
  5
2E15
  8
0
 10
97.2227730595848243
 20
110.5639018242440983
 30
0.0
 40
55.9999999999999929
 50
74.8300960681026339
 51
105.169903931897295
  0
ARC
  5
2E16
  8
0
 10
111.2227730595847959
 20
162.1996452584195936
 30
0.0
 40
2.5
 50
0.0
 51
74.8300960681026339
  0
LINE
  5
2E17
  8
0
 10
113.7227730595847959
 20
121.5639018242440983
 30
0.0
 11
113.7227730595847959
 21
162.1996452584195936
 31
0.0
  0
ARC
  5
2E18
  8
0
 10
111.2227730595847959
 20
121.5639018242440983
 30
0.0
 40
2.5
 50
270.0
 51
0.0
  0
LINE
  5
2E19
  8
0
 10
98.7227730595848243
 20
119.0639018242440983
 30
0.0
 11
111.2227730595847959
 21
119.0639018242440983
 31
0.0
  0
ARC
  5
2E1A
  8
0
 10
98.7227730595848243
 20
120.5639018242440983
 30
0.0
 40
1.5
 50
179.9999999999984084
 51
270.0
  0
LINE
  5
2E1B
  8
0
 10
97.2227730595848243
 20
129.0639018242441125
 30
0.0
 11
97.2227730595848243
 21
120.5639018242440983
 31
0.0
  0
ARC
  5
2E1C
  8
0
 10
93.7227730595848243
 20
120.5639018242440983
 30
0.0
 40
1.5
 50
270.0
 51
0.0
  0
LINE
  5
2E1D
  8
0
 10
95.2227730595848243
 20
120.5639018242440983
 30
0.0
 11
95.2227730595848243
 21
129.3556978917447111
 31
0.0
  0
ARC
  5
2E1F
  8
0
 10
83.2227730595848243
 20
162.1996452584195936
 30
0.0
 40
2.4999999999999849
 50
105.169903931897295
 51
180.0
  0
LINE
  5
2E21
  8
0
 10
113.7227730595847959
 20
121.5639018242440983
 30
0.0
 11
113.7227730595847959
 21
120.5639018242440983
 31
0.0
  0
CIRCLE
  5
2E22
  8
0
 10
107.7227730595847959
 20
159.5639018242441125
 30
0.0
 40
2.2499999999999711
  0
CIRCLE
  5
2E23
  8
0
 10
86.7227730595848243
 20
159.5639018242441125
 30
0.0
 40
2.25
  0
LINE
  5
2E24
  8
0
 10
81.2227730595848243
 20
216.5639018242441125
 30
0.0
 11
81.2227730595848243
 21
216.2639018242441011
 31
0.0
  0
LINE
  5
2E25
  8
0
 10
92.2227730595848243
 20
216.2639018242441011
 30
0.0
 11
92.2227730595848243
 21
216.5639018242441125
 31
0.0
  0
LINE
  5
2E26
  8
0
 10
102.2227730595847959
 20
216.5639018242441125
 30
0.0
 11
102.2227730595847959
 21
216.2639018242441011
 31
0.0
  0
LINE
  5
2E27
  8
0
 10
113.2227730595847959
 20
216.2639018242441011
 30
0.0
 11
113.2227730595847959
 21
216.5639018242441125
 31
0.0
  0
LINE
  5
2E28
  8
0
 10
92.2227730595848243
 20
201.5639018242441125
 30
0.0
 11
92.2227730595848243
 21
201.8639018242440955
 31
0.0
  0
LINE
  5
2E29
  8
0
 10
81.2227730595848243
 20
201.8639018242440955
 30
0.0
 11
81.2227730595848243
 21
201.5639018242441125
 31
0.0
  0
LINE
  5
2E2A
  8
0
 10
113.2227730595847959
 20
201.5639018242441125
 30
0.0
 11
113.2227730595847959
 21
201.8639018242440955
 31
0.0
  0
LINE
  5
2E2B
  8
0
 10
102.2227730595847959
 20
201.8639018242440955
 30
0.0
 11
102.2227730595847959
 21
201.5639018242441125
 31
0.0
  0
LINE
  5
2E2C
  8
0
 10
113.7227730595847959
 20
204.5639018242441978
 30
0.0
 11
114.522773059584793
 21
204.5639018242441978
 31
0.0
  0
LINE
  5
2E2D
  8
0
 10
114.522773059584793
 20
213.5639018242441978
 30
0.0
 11
113.7227730595847959
 21
213.5639018242441978
 31
0.0
  0
LINE
  5
2E2E
  8
0
 10
92.2227730595848243
 20
216.5639018242441125
 30
0.0
 11
81.2227730595848243
 21
216.5639018242441125
 31
0.0
  0
LINE
  5
2E2F
  8
0
 10
113.2227730595847959
 20
216.5639018242441125
 30
0.0
 11
102.2227730595847959
 21
216.5639018242441125
 31
0.0
  0
LINE
  5
2E30
  8
0
 10
81.2227730595848243
 20
201.5639018242441125
 30
0.0
 11
92.2227730595848243
 21
201.5639018242441125
 31
0.0
  0
LINE
  5
2E31
  8
0
 10
102.2227730595847959
 20
201.5639018242441125
 30
0.0
 11
113.2227730595847959
 21
201.5639018242441125
 31
0.0
  0
LINE
  5
2E32
  8
0
 10
80.7227730595848243
 20
216.2639018242441011
 30
0.0
 11
80.7227730595848243
 21
201.8639018242440955
 31
0.0
  0
LINE
  5
2E33
  8
0
 10
113.7227730595847959
 20
201.8639018242440955
 30
0.0
 11
113.7227730595847959
 21
216.2639018242441011
 31
0.0
  0
LINE
  5
2E34
  8
0
 10
80.7227730595848243
 20
201.8639018242440955
 30
0.0
 11
113.7227730595847959
 21
201.8639018242440955
 31
0.0
  0
LINE
  5
2E35
  8
0
 10
80.7227730595848243
 20
216.2639018242441011
 30
0.0
 11
113.7227730595847959
 21
216.2639018242441011
 31
0.0
  0
LINE
  5
2E36
  8
2
 10
103.7227730595847959
 20
211.6639018242441068
 30
0.0
 11
111.7227730595847959
 21
211.6639018242441068
 31
0.0
  0
LINE
  5
2E37
  8
2
 10
82.7227730595848243
 20
211.6639018242441068
 30
0.0
 11
90.7227730595848243
 21
211.6639018242441068
 31
0.0
  0
LINE
  5
2E38
  8
2
 10
111.7227730595847959
 20
206.4639018242440898
 30
0.0
 11
103.7227730595847959
 21
206.4639018242440898
 31
0.0
  0
LINE
  5
2E39
  8
2
 10
90.7227730595848243
 20
206.4639018242440898
 30
0.0
 11
82.7227730595848243
 21
206.4639018242440898
 31
0.0
  0
LINE
  5
2E3B
  8
2
 10
103.7227730595847959
 20
216.5639018242441125
 30
0.0
 11
103.7227730595847959
 21
211.6639018242441068
 31
0.0
  0
LINE
  5
2E3C
  8
2
 10
111.7227730595847959
 20
211.6639018242441068
 30
0.0
 11
111.7227730595847959
 21
216.5639018242441125
 31
0.0
  0
LINE
  5
2E3D
  8
2
 10
82.7227730595848243
 20
216.5639018242441125
 30
0.0
 11
82.7227730595848243
 21
211.6639018242441068
 31
0.0
  0
LINE
  5
2E3E
  8
2
 10
90.7227730595848243
 20
211.6639018242441068
 30
0.0
 11
90.7227730595848243
 21
216.5639018242441125
 31
0.0
  0
LINE
  5
2E3F
  8
2
 10
111.7227730595847959
 20
201.5639018242441125
 30
0.0
 11
111.7227730595847959
 21
206.4639018242440898
 31
0.0
  0
LINE
  5
2E40
  8
2
 10
103.7227730595847959
 20
206.4639018242440898
 30
0.0
 11
103.7227730595847959
 21
201.5639018242441125
 31
0.0
  0
LINE
  5
2E41
  8
2
 10
90.7227730595848243
 20
201.5639018242441125
 30
0.0
 11
90.7227730595848243
 21
206.4639018242440898
 31
0.0
  0
LINE
  5
2E42
  8
2
 10
82.7227730595848243
 20
206.4639018242440898
 30
0.0
 11
82.7227730595848243
 21
201.5639018242441125
 31
0.0
  0
LINE
  5
2E43
  8
2
 10
105.4727730595847959
 20
211.6639018242441068
 30
0.0
 11
105.4727730595847959
 21
206.4639018242440898
 31
0.0
  0
LINE
  5
2E44
  8
2
 10
109.9727730595847959
 20
206.4639018242440898
 30
0.0
 11
109.9727730595847959
 21
211.6639018242441068
 31
0.0
  0
LINE
  5
2E45
  8
2
 10
84.4727730595848243
 20
211.6639018242441068
 30
0.0
 11
84.4727730595848243
 21
206.4639018242440898
 31
0.0
  0
LINE
  5
2E46
  8
2
 10
88.9727730595848243
 20
206.4639018242440898
 30
0.0
 11
88.9727730595848243
 21
211.6639018242441068
 31
0.0
  0
LINE
  5
2E47
  8
2
 10
94.1227730595848158
 20
216.2639018242441011
 30
0.0
 11
94.1227730595848158
 21
201.8639018242440955
 31
0.0
  0
LINE
  5
2E48
  8
2
 10
100.3227730595848044
 20
201.8639018242440955
 30
0.0
 11
100.3227730595848044
 21
216.2639018242441011
 31
0.0
  0
LINE
  5
2E4A
  8
0
 10
23.2227730595846005
 20
154.0639018242441125
 30
0.0
 11
23.5227730595847788
 21
154.0639018242441125
 31
0.0
  0
LINE
  5
2E4B
  8
0
 10
23.5227730595847788
 20
165.0639018242441125
 30
0.0
 11
23.2227730595846005
 21
165.0639018242441125
 31
0.0
  0
LINE
  5
2E4C
  8
0
 10
38.2227730595845969
 20
165.0639018242441125
 30
0.0
 11
37.9227730595846424
 21
165.0639018242441125
 31
0.0
  0
LINE
  5
2E4D
  8
0
 10
37.9227730595846424
 20
154.0639018242441125
 30
0.0
 11
38.2227730595845969
 21
154.0639018242441125
 31
0.0
  0
LINE
  5
2E4E
  8
0
 10
37.9227730595846424
 20
166.5639018242441125
 30
0.0
 11
23.5227730595847788
 21
166.5639018242441125
 31
0.0
  0
LINE
  5
2E4F
  8
0
 10
23.5227730595847788
 20
162.1996452584195936
 30
0.0
 11
37.9227730595846424
 21
162.1996452584195936
 31
0.0
  0
LINE
  5
2E50
  8
0
 10
23.5227730595847788
 20
164.6125304656241042
 30
0.0
 11
37.9227730595846424
 21
164.6125304656241042
 31
0.0
  0
LINE
  5
2E51
  8
0
 10
23.5227730595847788
 20
119.0639018242440983
 30
0.0
 11
37.9227730595846424
 21
119.0639018242440983
 31
0.0
  0
LINE
  5
2E52
  8
0
 10
23.2227730595848314
 20
165.0639018242441978
 30
0.0
 11
23.2227730595846005
 21
154.0639018242441125
 31
0.0
  0
LINE
  5
2E53
  8
0
 10
38.2227730595845969
 20
154.0639018242441125
 30
0.0
 11
38.2227730595845969
 21
165.0639018242441125
 31
0.0
  0
LINE
  5
2E54
  8
0
 10
37.9227730595860066
 20
119.0639018242440983
 30
0.0
 11
37.9227730595846424
 21
166.5639018242441125
 31
0.0
  0
LINE
  5
2E55
  8
0
 10
23.5227730595861395
 20
119.0639018242440983
 30
0.0
 11
23.5227730595847788
 21
166.5639018242441125
 31
0.0
  0
LINE
  5
2E56
  8
0
 10
202.8384068065720953
 20
165.0639018242441125
 30
0.0
 11
202.5384068065721124
 21
165.0639018242441125
 31
0.0
  0
LINE
  5
2E57
  8
0
 10
202.5384068065721124
 20
154.0639018242441125
 30
0.0
 11
202.8384068065720953
 21
154.0639018242441125
 31
0.0
  0
LINE
  5
2E58
  8
0
 10
187.8384068065720101
 20
154.0639018242441125
 30
0.0
 11
188.138406806572192
 21
154.0639018242441125
 31
0.0
  0
LINE
  5
2E59
  8
0
 10
188.138406806572192
 20
165.0639018242441125
 30
0.0
 11
187.8384068065720101
 21
165.0639018242441125
 31
0.0
  0
LINE
  5
2E5A
  8
0
 10
202.5384068065721124
 20
166.5639018242441125
 30
0.0
 11
188.138406806572192
 21
166.5639018242441125
 31
0.0
  0
LINE
  5
2E5B
  8
0
 10
202.5384068065721124
 20
164.6125304656241042
 30
0.0
 11
188.138406806572192
 21
164.6125304656241042
 31
0.0
  0
LINE
  5
2E5C
  8
0
 10
188.138406806572192
 20
162.1996452584195936
 30
0.0
 11
202.5384068065721124
 21
162.1996452584195936
 31
0.0
  0
LINE
  5
2E5D
  8
0
 10
188.138406806572192
 20
119.0639018242440983
 30
0.0
 11
190.4155237105591993
 21
119.0639018242440983
 31
0.0
  0
LINE
  5
2E5E
  8
0
 10
200.2612899025847923
 20
119.0639018242440983
 30
0.0
 11
202.5384068065721124
 21
119.0639018242440983
 31
0.0
  0
LINE
  5
2E5F
  8
0
 10
188.138406806572192
 20
166.5639018242441125
 30
0.0
 11
188.138406806572192
 21
119.0639018242440983
 31
0.0
  0
LINE
  5
2E60
  8
0
 10
202.5384068065721124
 20
166.5639018242441125
 30
0.0
 11
202.5384068065721124
 21
119.0639018242440983
 31
0.0
  0
LINE
  5
2E61
  8
0
 10
202.8384068065720953
 20
154.0639018242441125
 30
0.0
 11
202.8384068065720953
 21
165.0639018242441125
 31
0.0
  0
LINE
  5
2E62
  8
0
 10
187.8384068065720101
 20
165.0639018242441125
 30
0.0
 11
187.8384068065720101
 21
154.0639018242441125
 31
0.0
  0
LINE
  5
2E64
  8
0
 10
113.7227730595847959
 20
38.0639018242441907
 30
0.0
 11
114.522773059584793
 21
38.0639018242441907
 31
0.0
  0
LINE
  5
2E65
  8
0
 10
114.522773059584793
 20
47.0639018242441765
 30
0.0
 11
113.7227730595847959
 21
47.0639018242441765
 31
0.0
  0
LINE
  5
2E66
  8
0
 10
97.2227730595848243
 20
44.5639018242441978
 30
0.0
 11
95.2227730595752746
 21
44.5639018242441978
 31
0.0
  0
LINE
  5
2E67
  8
0
 10
95.2227730595752746
 20
40.5639018242441765
 30
0.0
 11
97.2227730595848243
 21
40.5639018242441765
 31
0.0
  0
LINE
  5
2E68
  8
0
 10
92.2227730595848243
 20
35.0639018242440699
 30
0.0
 11
92.2227730595848243
 21
35.363901824244067
 31
0.0
  0
LINE
  5
2E69
  8
0
 10
81.2227730595848243
 20
35.363901824244067
 30
0.0
 11
81.2227730595848243
 21
35.0639018242440699
 31
0.0
  0
LINE
  5
2E6A
  8
0
 10
113.2227730595847959
 20
35.0639018242440699
 30
0.0
 11
113.2227730595847959
 21
35.363901824244067
 31
0.0
  0
LINE
  5
2E6B
  8
0
 10
102.2227730595847959
 20
35.363901824244067
 30
0.0
 11
102.2227730595847959
 21
35.0639018242440699
 31
0.0
  0
LINE
  5
2E6C
  8
0
 10
81.2227730595848243
 20
50.063901824244077
 30
0.0
 11
81.2227730595848243
 21
49.7639018242440727
 31
0.0
  0
LINE
  5
2E6D
  8
0
 10
92.2227730595848243
 20
49.7639018242440727
 30
0.0
 11
92.2227730595848243
 21
50.063901824244077
 31
0.0
  0
LINE
  5
2E6E
  8
0
 10
102.2227730595847959
 20
50.063901824244077
 30
0.0
 11
102.2227730595847959
 21
49.7639018242440727
 31
0.0
  0
LINE
  5
2E6F
  8
0
 10
113.2227730595847959
 20
49.7639018242440727
 30
0.0
 11
113.2227730595847959
 21
50.063901824244077
 31
0.0
  0
LINE
  5
2E70
  8
0
 10
80.7227730595848243
 20
49.7639018242442077
 30
0.0
 11
80.7227730595848243
 21
35.3639018242442091
 31
0.0
  0
LINE
  5
2E71
  8
0
 10
113.7227730595847959
 20
35.3639018242442091
 30
0.0
 11
80.7227730595848243
 21
35.3639018242442091
 31
0.0
  0
LINE
  5
2E72
  8
0
 10
113.7227730595847959
 20
49.7639018242442077
 30
0.0
 11
80.7227730595848243
 21
49.7639018242442077
 31
0.0
  0
LINE
  5
2E73
  8
0
 10
113.7227730595847959
 20
35.3639018242442091
 30
0.0
 11
113.7227730595847959
 21
49.7639018242442077
 31
0.0
  0
LINE
  5
2E74
  8
0
 10
97.2227730595848243
 20
49.7639018242442077
 30
0.0
 11
97.2227730595848243
 21
35.3639018242442091
 31
0.0
  0
LINE
  5
2E75
  8
0
 10
95.2227730595848243
 20
35.3639018242442091
 30
0.0
 11
95.2227730595848243
 21
49.7639018242442077
 31
0.0
  0
LINE
  5
2E76
  8
0
 10
81.2227730595848243
 20
35.0639018242440699
 30
0.0
 11
92.2227730595848243
 21
35.0639018242440699
 31
0.0
  0
LINE
  5
2E77
  8
0
 10
102.2227730595847959
 20
35.0639018242440699
 30
0.0
 11
113.2227730595847959
 21
35.0639018242440699
 31
0.0
  0
LINE
  5
2E78
  8
0
 10
92.2227730595848243
 20
50.063901824244077
 30
0.0
 11
81.2227730595848243
 21
50.063901824244077
 31
0.0
  0
LINE
  5
2E79
  8
0
 10
113.2227730595847959
 20
50.063901824244077
 30
0.0
 11
102.2227730595847959
 21
50.063901824244077
 31
0.0
  0
LINE
  5
2E7A
  8
1
 10
21.2227730595846005
 20
159.5639018242441125
 30
0.0
 11
40.2227730595845969
 21
159.5639018242441125
 31
0.0
  0
LINE
  5
2E7B
  8
1
 10
80.7227730595845969
 20
159.5639018242441125
 30
0.0
 11
92.7227730595848243
 21
159.5639018242441125
 31
0.0
  0
LINE
  5
2E7C
  8
1
 10
101.7227730595847959
 20
159.5639018242441125
 30
0.0
 11
113.7227730595847959
 21
159.5639018242441125
 31
0.0
  0
LINE
  5
2E7D
  8
1
 10
185.8384068065720101
 20
159.5639018242441125
 30
0.0
 11
204.8384068065720953
 21
159.5639018242441125
 31
0.0
  0
LINE
  5
2E7E
  8
1
 10
21.2227730595846005
 20
158.0639018242441125
 30
0.0
 11
40.2227730595845969
 21
158.0639018242441125
 31
0.0
  0
LINE
  5
2E7F
  8
1
 10
92.2227730595848243
 20
158.0639018242441125
 30
0.0
 11
102.2227730595847959
 21
158.0639018242441125
 31
0.0
  0
LINE
  5
2E80
  8
1
 10
185.8384068065720101
 20
158.0639018242441125
 30
0.0
 11
204.8384068065720953
 21
158.0639018242441125
 31
0.0
  0
LINE
  5
2E81
  8
1
 10
21.5227730595847788
 20
136.0639018242441125
 30
0.0
 11
39.9227730595846424
 21
136.0639018242441125
 31
0.0
  0
LINE
  5
2E83
  8
1
 10
186.138406806572192
 20
136.0639018242441125
 30
0.0
 11
204.5384068065721124
 21
136.0639018242441125
 31
0.0
  0
LINE
  5
2E84
  8
1
 10
21.5227730595847788
 20
125.0639018242440983
 30
0.0
 11
39.9227730595846424
 21
125.0639018242440983
 31
0.0
  0
LINE
  5
2E85
  8
1
 10
84.2227730595850517
 20
125.0639018242440983
 30
0.0
 11
142.0227730595846936
 21
125.0639018242440983
 31
0.0
  0
LINE
  5
2E86
  8
1
 10
186.138406806572192
 20
125.0639018242440983
 30
0.0
 11
204.5384068065721124
 21
125.0639018242440983
 31
0.0
  0
LINE
  5
2E87
  8
1
 10
30.7227730595846005
 20
134.5739018242441034
 30
0.0
 11
30.7227730595846005
 21
82.0634772573646245
 31
0.0
  0
POLYLINE
  5
2E88
  8
0
 66
     1
 10
0.0
 20
0.0
 30
0.0
  0
VERTEX
  5
3610
  8
0
 10
34.2227730595845969
 20
88.5639018242441409
 30
0.0
  0
VERTEX
  5
3611
  8
0
 10
34.228565137403173
 20
88.7203688771940335
 30
0.0
  0
VERTEX
  5
3612
  8
0
 10
34.2403612223854523
 20
89.0390280373967755
 30
0.0
  0
VERTEX
  5
3613
  8
0
 10
34.2524088910067803
 20
89.3644834720626449
 30
0.0
  0
VERTEX
  5
3614
  8
0
 10
34.2585152630012999
 20
89.5294408604388821
 30
0.0
  0
SEQEND
  5
3615
  8
0
  0
LINE
  5
2E89
  8
0
 10
34.2585152630012999
 20
89.5294408604388821
 30
0.0
 11
34.629569713870751
 21
99.55309700415458
 31
0.0
  0
POLYLINE
  5
2E8A
  8
0
 66
     1
 10
0.0
 20
0.0
 30
0.0
  0
VERTEX
  5
3616
  8
0
 10
34.629569713870751
 20
99.55309700415458
 30
0.0
  0
VERTEX
  5
3617
  8
0
 10
34.6320416183023099
 20
99.6198729718943667
 30
0.0
  0
VERTEX
  5
3618
  8
0
 10
34.6370009035010824
 20
99.7538429847426471
 30
0.0
  0
VERTEX
  5
3619
  8
0
 10
34.6419798533547691
 20
99.8883442181153498
 30
0.0
  0
VERTEX
  5
361A
  8
0
 10
34.6444763375232014
 20
99.9557841822889088
 30
0.0
  0
VERTEX
  5
361B
  8
0
 10
34.6469772992977596
 20
100.0233451044048962
 30
0.0
  0
VERTEX
  5
361C
  8
0
 10
34.6519920684231693
 20
100.1588139587343989
 30
0.0
  0
VERTEX
  5
361D
  8
0
 10
34.657022983758452
 20
100.294718986394102
 30
0.0
  0
VERTEX
  5
361E
  8
0
 10
34.6620688645411974
 20
100.4310282903040985
 30
0.0
  0
VERTEX
  5
361F
  8
0
 10
34.6671285264974429
 20
100.5677098785000965
 30
0.0
  0
VERTEX
  5
3620
  8
0
 10
34.6722007821178977
 20
100.7047316716425058
 30
0.0
  0
VERTEX
  5
3621
  8
0
 10
34.674741260639621
 20
100.7733600982355995
 30
0.0
  0
VERTEX
  5
3622
  8
0
 10
34.6772844409376901
 20
100.842061510544994
 30
0.0
  0
VERTEX
  5
3623
  8
0
 10
34.6823783098159311
 20
100.9796671637224961
 30
0.0
  0
VERTEX
  5
3624
  8
0
 10
34.687481193215028
 20
101.1175163349562069
 30
0.0
  0
VERTEX
  5
3625
  8
0
 10
34.6925918934821311
 20
101.2555766708730971
 30
0.0
  0
VERTEX
  5
3626
  8
0
 10
34.6977092111292222
 20
101.3938157685395964
 30
0.0
  0
VERTEX
  5
3627
  8
0
 10
34.7028319451155767
 20
101.5322011830666042
 30
0.0
  0
VERTEX
  5
3628
  8
0
 10
34.7053949675555486
 20
101.6014386105264009
 30
0.0
  0
VERTEX
  5
3629
  8
0
 10
34.7079588931292164
 20
101.6707004352240062
 30
0.0
  0
VERTEX
  5
362A
  8
0
 10
34.7130888518690881
 20
101.8092810190643007
 30
0.0
  0
VERTEX
  5
362B
  8
0
 10
34.7182206173270131
 20
101.9479104095509996
 30
0.0
  0
VERTEX
  5
362C
  8
0
 10
34.7207868011992105
 20
102.0172332398717998
 30
0.0
  0
SEQEND
  5
362D
  8
0
  0
LINE
  5
2E8B
  8
0
 10
34.7207868011992105
 20
102.0172332398717998
 30
0.0
 11
34.8042860907121394
 21
104.2728810682710048
 31
0.0
  0
POLYLINE
  5
2E8C
  8
0
 66
     1
 10
0.0
 20
0.0
 30
0.0
  0
VERTEX
  5
362E
  8
0
 10
27.2227730595846005
 20
88.5639018242441409
 30
0.0
  0
VERTEX
  5
362F
  8
0
 10
27.2228890330284301
 20
88.5354097085345586
 30
0.0
  0
VERTEX
  5
3630
  8
0
 10
27.2238140462996014
 20
88.4785447896698827
 30
0.0
  0
VERTEX
  5
3631
  8
0
 10
27.225656786559739
 20
88.4218533362390247
 30
0.0
  0
VERTEX
  5
3632
  8
0
 10
27.2269198285257517
 20
88.3935780534582562
 30
0.0
  0
VERTEX
  5
3633
  8
0
 10
27.2284092823210813
 20
88.3653526057885443
 30
0.0
  0
VERTEX
  5
3634
  8
0
 10
27.2320631684542604
 20
88.3090598026624605
 30
0.0
  0
VERTEX
  5
3635
  8
0
 10
27.2366096820096608
 20
88.2529920224452837
 30
0.0
  0
VERTEX
  5
3636
  8
0
 10
27.2420396625261709
 20
88.1971661993018472
 30
0.0
  0
VERTEX
  5
3637
  8
0
 10
27.2483435564463505
 20
88.1415990564077276
 30
0.0
  0
VERTEX
  5
3638
  8
0
 10
27.25551142526934
 20
88.0863070596113005
 30
0.0
  0
VERTEX
  5
3639
  8
0
 10
27.2594161420022409
 20
88.058769305557604
 30
0.0
  0
VERTEX
  5
363A
  8
0
 10
27.2635329570743998
 20
88.031306374409283
 30
0.0
  0
VERTEX
  5
363B
  8
0
 10
27.2723974810619509
 20
87.9766128262754421
 30
0.0
  0
VERTEX
  5
363C
  8
0
 10
27.2820939847724695
 20
87.9222418643351347
 30
0.0
  0
VERTEX
  5
363D
  8
0
 10
27.2926111336626001
 20
87.8682085283476511
 30
0.0
  0
VERTEX
  5
363E
  8
0
 10
27.3039372927400983
 20
87.8145274189274829
 30
0.0
  0
VERTEX
  5
363F
  8
0
 10
27.3160605499770099
 20
87.761212670908904
 30
0.0
  0
VERTEX
  5
3640
  8
0
 10
27.3224172982363598
 20
87.7346969664043144
 30
0.0
  0
VERTEX
  5
3641
  8
0
 10
27.3289687395733907
 20
87.7082779363862954
 30
0.0
  0
VERTEX
  5
3642
  8
0
 10
27.3426494281457089
 20
87.6557365109948989
 30
0.0
  0
VERTEX
  5
3643
  8
0
 10
27.3570898684781696
 20
87.6036015289701169
 30
0.0
  0
VERTEX
  5
3644
  8
0
 10
27.3645909249821706
 20
87.5776905127917331
 30
0.0
  0
VERTEX
  5
3645
  8
0
 10
27.3722769954786216
 20
87.5518859526244171
 30
0.0
  0
VERTEX
  5
3646
  8
0
 10
27.3881974322075585
 20
87.500602531804617
 30
0.0
  0
VERTEX
  5
3647
  8
0
 10
27.4048374982705809
 20
87.4497637668348631
 30
0.0
  0
VERTEX
  5
3648
  8
0
 10
27.4134230367440104
 20
87.424514960038465
 30
0.0
  0
VERTEX
  5
3649
  8
0
 10
27.4221832202974802
 20
87.3993818747398166
 30
0.0
  0
VERTEX
  5
364A
  8
0
 10
27.4402203442182291
 20
87.349468758636263
 30
0.0
  0
VERTEX
  5
364B
  8
0
 10
27.4589343490845295
 20
87.3000359801606294
 30
0.0
  0
VERTEX
  5
364C
  8
0
 10
27.4783104621956191
 20
87.2510947347809918
 30
0.0
  0
VERTEX
  5
364D
  8
0
 10
27.4983336753346101
 20
87.2026558298342849
 30
0.0
  0
VERTEX
  5
364E
  8
0
 10
27.5189887619214915
 20
87.154729665121323
 30
0.0
  0
VERTEX
  5
364F
  8
0
 10
27.5295484441408007
 20
87.1309619946200939
 30
0.0
  0
VERTEX
  5
3650
  8
0
 10
27.5402602949375286
 20
87.1073262158876389
 30
0.0
  0
VERTEX
  5
3651
  8
0
 10
27.5621326654786607
 20
87.0604550180202352
 30
0.0
  0
VERTEX
  5
3652
  8
0
 10
27.5845901018262794
 20
87.0141251552899035
 30
0.0
  0
VERTEX
  5
3653
  8
0
 10
27.607618031785929
 20
86.9683426267276047
 30
0.0
  0
VERTEX
  5
3654
  8
0
 10
27.6312028001164016
 20
86.9231113651143517
 30
0.0
  0
VERTEX
  5
3655
  8
0
 10
27.6553284497279108
 20
86.8784394053629114
 30
0.0
  0
VERTEX
  5
3656
  8
0
 10
27.667589044083801
 20
86.8563156239519145
 30
0.0
  0
VERTEX
  5
3657
  8
0
 10
27.679978757522349
 20
86.8343345849215495
 30
0.0
  0
VERTEX
  5
3658
  8
0
 10
27.7051372788218906
 20
86.7908044510969887
 30
0.0
  0
VERTEX
  5
3659
  8
0
 10
27.7307873589802512
 20
86.7478562390842001
 30
0.0
  0
VERTEX
  5
365A
  8
0
 10
27.8241887280246409
 20
86.602216611770956
 30
0.0
  0
VERTEX
  5
365B
  8
0
 10
27.9956908365902599
 20
86.3700416306520822
 30
0.0
  0
VERTEX
  5
365C
  8
0
 10
28.1782414706090094
 20
86.1607041643117384
 30
0.0
  0
VERTEX
  5
365D
  8
0
 10
28.2724110201536405
 20
86.064756795296077
 30
0.0
  0
VERTEX
  5
365E
  8
0
 10
28.3678243210324617
 20
85.9746516550268609
 30
0.0
  0
VERTEX
  5
365F
  8
0
 10
28.5620849028032318
 20
85.8104627584311004
 30
0.0
  0
VERTEX
  5
3660
  8
0
 10
28.7642320368145192
 20
85.6631920727992622
 30
0.0
  0
VERTEX
  5
3661
  8
0
 10
28.9718300578670096
 20
85.5333575489140969
 30
0.0
  0
VERTEX
  5
3662
  8
0
 10
29.1816453919038885
 20
85.4214624036811045
 30
0.0
  0
VERTEX
  5
3663
  8
0
 10
29.3903513573354687
 20
85.3274450568247147
 30
0.0
  0
VERTEX
  5
3664
  8
0
 10
29.4932228622976709
 20
85.2869815761527263
 30
0.0
  0
VERTEX
  5
3665
  8
0
 10
29.5945334606551604
 20
85.2507348487647647
 30
0.0
  0
VERTEX
  5
3666
  8
0
 10
29.791604119691101
 20
85.1900428459556736
 30
0.0
  0
VERTEX
  5
3667
  8
0
 10
29.9811417448340798
 20
85.1433780349713345
 30
0.0
  0
VERTEX
  5
3668
  8
0
 10
30.0719938719357813
 20
85.1249359260528138
 30
0.0
  0
SEQEND
  5
3669
  8
0
  0
POLYLINE
  5
2E8D
  8
0
 66
     1
 10
0.0
 20
0.0
 30
0.0
  0
VERTEX
  5
366A
  8
0
 10
30.0719938719357813
 20
85.1249359260528138
 30
0.0
  0
VERTEX
  5
366B
  8
0
 10
30.1077602283798988
 20
85.1183598904616758
 30
0.0
  0
VERTEX
  5
366C
  8
0
 10
30.1794882581723414
 20
85.1063244029050168
 30
0.0
  0
VERTEX
  5
366D
  8
0
 10
30.2214399393687891
 20
85.0999928903120377
 30
0.0
  0
VERTEX
  5
366E
  8
0
 10
30.2334399344506402
 20
85.0982773361256761
 30
0.0
  0
VERTEX
  5
366F
  8
0
 10
30.2454457992534991
 20
85.0966033533096748
 30
0.0
  0
VERTEX
  5
3670
  8
0
 10
30.2514508877982315
 20
85.0957819574600052
 30
0.0
  0
VERTEX
  5
3671
  8
0
 10
30.2574573897625214
 20
85.0949709619440284
 30
0.0
  0
VERTEX
  5
3672
  8
0
 10
30.2694745618948708
 20
85.0933801816100157
 30
0.0
  0
VERTEX
  5
3673
  8
0
 10
30.2814971715001811
 20
85.0918310313893755
 30
0.0
  0
VERTEX
  5
3674
  8
0
 10
30.2875104702904991
 20
85.0910720733981236
 30
0.0
  0
VERTEX
  5
3675
  8
0
 10
30.2935250743632913
 20
85.0903235298648326
 30
0.0
  0
VERTEX
  5
3676
  8
0
 10
30.3055581262051383
 20
85.0888576951192874
 30
0.0
  0
VERTEX
  5
3677
  8
0
 10
30.3175961826850688
 20
85.0874335447359869
 30
0.0
  0
VERTEX
  5
3678
  8
0
 10
30.3236170425416312
 20
85.0867371065383225
 30
0.0
  0
VERTEX
  5
3679
  8
0
 10
30.3296390994025913
 20
85.0860510957982257
 30
0.0
  0
VERTEX
  5
367A
  8
0
 10
30.3416867318985588
 20
85.084710364888835
 30
0.0
  0
VERTEX
  5
367B
  8
0
 10
30.3537389356574714
 20
85.0834113680903386
 30
0.0
  0
VERTEX
  5
367C
  8
0
 10
30.3657955661092309
 20
85.0821541209848249
 30
0.0
  0
VERTEX
  5
367D
  8
0
 10
30.3778564786298411
 20
85.0809386386530662
 30
0.0
  0
VERTEX
  5
367E
  8
0
 10
30.3899215285446189
 20
85.079764935675513
 30
0.0
  0
VERTEX
  5
367F
  8
0
 10
30.3959555598005409
 20
85.0791937558638267
 30
0.0
  0
VERTEX
  5
3680
  8
0
 10
30.4019905711293212
 20
85.0786330261310155
 30
0.0
  0
VERTEX
  5
3681
  8
0
 10
30.4140634616117111
 20
85.0775429235973348
 30
0.0
  0
VERTEX
  5
3682
  8
0
 10
30.4261400551727093
 20
85.0764946411503757
 30
0.0
  0
VERTEX
  5
3683
  8
0
 10
30.4382202069500707
 20
85.0754881913649257
 30
0.0
  0
VERTEX
  5
3684
  8
0
 10
30.4503037720373904
 20
85.0745235863135179
 30
0.0
  0
VERTEX
  5
3685
  8
0
 10
30.4623906054889595
 20
85.0736008375670565
 30
0.0
  0
VERTEX
  5
3686
  8
0
 10
30.4684352025442386
 20
85.0731551627866622
 30
0.0
  0
VERTEX
  5
3687
  8
0
 10
30.4744805623181492
 20
85.0727199561941063
 30
0.0
  0
VERTEX
  5
3688
  8
0
 10
30.4865734975023805
 20
85.0718809527612905
 30
0.0
  0
VERTEX
  5
3689
  8
0
 10
30.4986692659824712
 20
85.0710838373325089
 30
0.0
  0
VERTEX
  5
368A
  8
0
 10
30.5107677226653813
 20
85.0703286194697341
 30
0.0
  0
VERTEX
  5
368B
  8
0
 10
30.5228687224262103
 20
85.0696153082318745
 30
0.0
  0
VERTEX
  5
368C
  8
0
 10
30.5349721201087085
 20
85.0689439121753281
 30
0.0
  0
VERTEX
  5
368D
  8
0
 10
30.5410246728017682
 20
85.0686239348765554
 30
0.0
  0
VERTEX
  5
368E
  8
0
 10
30.5470777705290892
 20
85.068314439353955
 30
0.0
  0
VERTEX
  5
368F
  8
0
 10
30.559185528475151
 20
85.067726897318181
 30
0.0
  0
VERTEX
  5
3690
  8
0
 10
30.5712952487108396
 20
85.067181293115965
 30
0.0
  0
VERTEX
  5
3691
  8
0
 10
30.5834067859755088
 20
85.0666776332921302
 30
0.0
  0
VERTEX
  5
3692
  8
0
 10
30.5955199949869403
 20
85.0662159238879951
 30
0.0
  0
VERTEX
  5
3693
  8
0
 10
30.6076347304431309
 20
85.0657961704420416
 30
0.0
  0
VERTEX
  5
3694
  8
0
 10
30.6136926251760997
 20
85.0656020287964481
 30
0.0
  0
VERTEX
  5
3695
  8
0
 10
30.6197508470236315
 20
85.0654183779893458
 30
0.0
  0
VERTEX
  5
3696
  8
0
 10
30.6318681993914197
 20
85.0650825510616926
 30
0.0
  0
VERTEX
  5
3697
  8
0
 10
30.6439866421947116
 20
85.0647886936873334
 30
0.0
  0
VERTEX
  5
3698
  8
0
 10
30.6561060300682584
 20
85.0645368093913987
 30
0.0
  0
VERTEX
  5
3699
  8
0
 10
30.6682262176359508
 20
85.0643269011951872
 30
0.0
  0
VERTEX
  5
369A
  8
0
 10
30.6803470595120906
 20
85.0641589716165356
 30
0.0
  0
VERTEX
  5
369B
  8
0
 10
30.6864076803803982
 20
85.0640907494580745
 30
0.0
  0
VERTEX
  5
369C
  8
0
 10
30.6924684103028085
 20
85.0640330226699746
 30
0.0
  0
VERTEX
  5
369D
  8
0
 10
30.7045901246083304
 20
85.0639490558662885
 30
0.0
  0
VERTEX
  5
369E
  8
0
 10
30.7167120570245515
 20
85.0639070722126149
 30
0.0
  0
VERTEX
  5
369F
  8
0
 10
30.7227730595846005
 20
85.0639018242441409
 30
0.0
  0
VERTEX
  5
36A0
  8
0
 10
30.7288340621446388
 20
85.0639070722126149
 30
0.0
  0
VERTEX
  5
36A1
  8
0
 10
30.7409559945608599
 20
85.0639490558662885
 30
0.0
  0
VERTEX
  5
36A2
  8
0
 10
30.7530777088663783
 20
85.0640330226699746
 30
0.0
  0
VERTEX
  5
36A3
  8
0
 10
30.7591384387887992
 20
85.0640907494580745
 30
0.0
  0
VERTEX
  5
36A4
  8
0
 10
30.7651990596571103
 20
85.0641589716165356
 30
0.0
  0
VERTEX
  5
36A5
  8
0
 10
30.7773199015332501
 20
85.0643269011951872
 30
0.0
  0
VERTEX
  5
36A6
  8
0
 10
30.789440089100939
 20
85.0645368093913987
 30
0.0
  0
VERTEX
  5
36A7
  8
0
 10
30.8015594769747203
 20
85.0647886936873334
 30
0.0
  0
VERTEX
  5
36A8
  8
0
 10
30.8136779197777813
 20
85.0650825510616926
 30
0.0
  0
VERTEX
  5
36A9
  8
0
 10
30.8257952721455695
 20
85.0654183779893458
 30
0.0
  0
VERTEX
  5
36AA
  8
0
 10
30.8318534939931013
 20
85.0656020287964481
 30
0.0
  0
VERTEX
  5
36AB
  8
0
 10
30.8379113887260701
 20
85.0657961704420416
 30
0.0
  0
VERTEX
  5
36AC
  8
0
 10
30.85002612418225
 20
85.0662159238879951
 30
0.0
  0
VERTEX
  5
36AD
  8
0
 10
30.8621393331936815
 20
85.0666776332921302
 30
0.0
  0
VERTEX
  5
36AE
  8
0
 10
30.8742508704583507
 20
85.0671812931160645
 30
0.0
  0
VERTEX
  5
36AF
  8
0
 10
30.8863605906940393
 20
85.067726897318181
 30
0.0
  0
VERTEX
  5
36B0
  8
0
 10
30.8984683486401117
 20
85.068314439353955
 30
0.0
  0
VERTEX
  5
36B1
  8
0
 10
30.9045214463674291
 20
85.0686239348765554
 30
0.0
  0
VERTEX
  5
36B2
  8
0
 10
30.9105739990604889
 20
85.0689439121753281
 30
0.0
  0
VERTEX
  5
36B3
  8
0
 10
30.9226773967432109
 20
85.0696153082318745
 30
0.0
  0
VERTEX
  5
36B4
  8
0
 10
30.9347783965038197
 20
85.0703286194697341
 30
0.0
  0
VERTEX
  5
36B5
  8
0
 10
30.9468768531867191
 20
85.0710838373325089
 30
0.0
  0
VERTEX
  5
36B6
  8
0
 10
30.9589726216668204
 20
85.0718809527612905
 30
0.0
  0
VERTEX
  5
36B7
  8
0
 10
30.9710655568510482
 20
85.0727199561941063
 30
0.0
  0
VERTEX
  5
36B8
  8
0
 10
30.9771109166249516
 20
85.0731551627866622
 30
0.0
  0
VERTEX
  5
36B9
  8
0
 10
30.9831555136804617
 20
85.0736008375670565
 30
0.0
  0
VERTEX
  5
36BA
  8
0
 10
30.9952423471318106
 20
85.0745235863135179
 30
0.0
  0
VERTEX
  5
36BB
  8
0
 10
31.0073259122193612
 20
85.0754881913649257
 30
0.0
  0
VERTEX
  5
36BC
  8
0
 10
31.0194060639964917
 20
85.0764946411503757
 30
0.0
  0
VERTEX
  5
36BD
  8
0
 10
31.0314826575577207
 20
85.0775429235973348
 30
0.0
  0
VERTEX
  5
36BE
  8
0
 10
31.0435555480398797
 20
85.0786330261310155
 30
0.0
  0
VERTEX
  5
36BF
  8
0
 10
31.0495905593688803
 20
85.0791937558638267
 30
0.0
  0
VERTEX
  5
36C0
  8
0
 10
31.0556245906245785
 20
85.079764935675513
 30
0.0
  0
VERTEX
  5
36C1
  8
0
 10
31.0676896405393599
 20
85.0809386386530662
 30
0.0
  0
VERTEX
  5
36C2
  8
0
 10
31.0797505530601903
 20
85.0821541209848249
 30
0.0
  0
VERTEX
  5
36C3
  8
0
 10
31.0918071835117189
 20
85.0834113680903386
 30
0.0
  0
VERTEX
  5
36C4
  8
0
 10
31.1038593872706315
 20
85.084710364888835
 30
0.0
  0
VERTEX
  5
36C5
  8
0
 10
31.1159070197666097
 20
85.0860510957982257
 30
0.0
  0
VERTEX
  5
36C6
  8
0
 10
31.1219290766277901
 20
85.0867371065383225
 30
0.0
  0
VERTEX
  5
36C7
  8
0
 10
31.1279499364841286
 20
85.0874335447359869
 30
0.0
  0
VERTEX
  5
36C8
  8
0
 10
31.1399879929640484
 20
85.0888576951192874
 30
0.0
  0
VERTEX
  5
36C9
  8
0
 10
31.1520210448059096
 20
85.0903235298648326
 30
0.0
  0
VERTEX
  5
36CA
  8
0
 10
31.1580356488786911
 20
85.0910720733981236
 30
0.0
  0
VERTEX
  5
36CB
  8
0
 10
31.1640489476690199
 20
85.0918310313893755
 30
0.0
  0
VERTEX
  5
36CC
  8
0
 10
31.1760715572745504
 20
85.0933801816100157
 30
0.0
  0
VERTEX
  5
36CD
  8
0
 10
31.1880887294068998
 20
85.0949709619440284
 30
0.0
  0
VERTEX
  5
36CE
  8
0
 10
31.1940952313709694
 20
85.0957819574600052
 30
0.0
  0
VERTEX
  5
36CF
  8
0
 10
31.2001003199159186
 20
85.0966033533096748
 30
0.0
  0
VERTEX
  5
36D0
  8
0
 10
31.2121061847185501
 20
85.0982773361256761
 30
0.0
  0
VERTEX
  5
36D1
  8
0
 10
31.2241061798004012
 20
85.0999928903120377
 30
0.0
  0
VERTEX
  5
36D2
  8
0
 10
31.2660578609968489
 20
85.1063244029050168
 30
0.0
  0
VERTEX
  5
36D3
  8
0
 10
31.3377858907892914
 20
85.1183598904616758
 30
0.0
  0
VERTEX
  5
36D4
  8
0
 10
31.3735522472334196
 20
85.1249359260528138
 30
0.0
  0
SEQEND
  5
36D5
  8
0
  0
POLYLINE
  5
2E8E
  8
0
 66
     1
 10
0.0
 20
0.0
 30
0.0
  0
VERTEX
  5
36D6
  8
0
 10
31.3735522472334196
 20
85.1249359260528138
 30
0.0
  0
VERTEX
  5
36D7
  8
0
 10
31.4644043743351212
 20
85.1433780349713345
 30
0.0
  0
VERTEX
  5
36D8
  8
0
 10
31.6539419994783202
 20
85.1900428459556736
 30
0.0
  0
VERTEX
  5
36D9
  8
0
 10
31.8510126585140405
 20
85.2507348487647647
 30
0.0
  0
VERTEX
  5
36DA
  8
0
 10
31.9523232568717503
 20
85.2869815761527263
 30
0.0
  0
VERTEX
  5
36DB
  8
0
 10
32.0551947618339526
 20
85.3274450568247147
 30
0.0
  0
VERTEX
  5
36DC
  8
0
 10
32.2639007272653089
 20
85.4214624036811045
 30
0.0
  0
VERTEX
  5
36DD
  8
0
 10
32.4737160613021913
 20
85.5333575489140969
 30
0.0
  0
VERTEX
  5
36DE
  8
0
 10
32.6813140823546675
 20
85.6631920727992622
 30
0.0
  0
VERTEX
  5
36DF
  8
0
 10
32.8834612163659585
 20
85.8104627584311004
 30
0.0
  0
VERTEX
  5
36E0
  8
0
 10
33.0777217981367428
 20
85.9746516550268609
 30
0.0
  0
VERTEX
  5
36E1
  8
0
 10
33.1731350990155605
 20
86.064756795296077
 30
0.0
  0
VERTEX
  5
36E2
  8
0
 10
33.2673046485604118
 20
86.1607041643117384
 30
0.0
  0
VERTEX
  5
36E3
  8
0
 10
33.4498552825789375
 20
86.3700416306520822
 30
0.0
  0
VERTEX
  5
36E4
  8
0
 10
33.6213573911445565
 20
86.602216611770956
 30
0.0
  0
VERTEX
  5
36E5
  8
0
 10
33.7147587601889427
 20
86.7478562390842001
 30
0.0
  0
VERTEX
  5
36E6
  8
0
 10
33.7404088403472997
 20
86.7908044510969887
 30
0.0
  0
VERTEX
  5
36E7
  8
0
 10
33.7655673616468519
 20
86.8343345849215495
 30
0.0
  0
VERTEX
  5
36E8
  8
0
 10
33.7779570750854035
 20
86.8563156239519145
 30
0.0
  0
VERTEX
  5
36E9
  8
0
 10
33.7902176694412901
 20
86.8784394053629114
 30
0.0
  0
VERTEX
  5
36EA
  8
0
 10
33.8143433190530232
 20
86.9231113651143517
 30
0.0
  0
VERTEX
  5
36EB
  8
0
 10
33.8379280873834887
 20
86.9683426267276047
 30
0.0
  0
VERTEX
  5
36EC
  8
0
 10
33.8609560173431419
 20
87.0141251552899035
 30
0.0
  0
VERTEX
  5
36ED
  8
0
 10
33.883413453690757
 20
87.0604550180202352
 30
0.0
  0
VERTEX
  5
36EE
  8
0
 10
33.9052858242316688
 20
87.1073262158876389
 30
0.0
  0
VERTEX
  5
36EF
  8
0
 10
33.9159976750283931
 20
87.1309619946200939
 30
0.0
  0
VERTEX
  5
36F0
  8
0
 10
33.9265573572479298
 20
87.154729665121323
 30
0.0
  0
VERTEX
  5
36F1
  8
0
 10
33.9472124438348075
 20
87.2026558298342849
 30
0.0
  0
VERTEX
  5
36F2
  8
0
 10
33.9672356569735712
 20
87.2510947347809918
 30
0.0
  0
VERTEX
  5
36F3
  8
0
 10
33.9866117700848918
 20
87.3000359801606294
 30
0.0
  0
VERTEX
  5
36F4
  8
0
 10
34.0053257749509612
 20
87.349468758636263
 30
0.0
  0
VERTEX
  5
36F5
  8
0
 10
34.0233628988719374
 20
87.3993818747398166
 30
0.0
  0
VERTEX
  5
36F6
  8
0
 10
34.032123082425187
 20
87.424514960038465
 30
0.0
  0
VERTEX
  5
36F7
  8
0
 10
34.04070862089862
 20
87.4497637668348631
 30
0.0
  0
VERTEX
  5
36F8
  8
0
 10
34.0573486869616318
 20
87.500602531804617
 30
0.0
  0
VERTEX
  5
36F9
  8
0
 10
34.0732691236905794
 20
87.5518859526244171
 30
0.0
  0
VERTEX
  5
36FA
  8
0
 10
34.0809551941870268
 20
87.577690512791861
 30
0.0
  0
VERTEX
  5
36FB
  8
0
 10
34.0884562506912516
 20
87.6036015289701169
 30
0.0
  0
VERTEX
  5
36FC
  8
0
 10
34.1028966910234885
 20
87.6557365109948989
 30
0.0
  0
VERTEX
  5
36FD
  8
0
 10
34.1165773795958103
 20
87.7082779363862954
 30
0.0
  0
VERTEX
  5
36FE
  8
0
 10
34.1231288209328412
 20
87.7346969664043144
 30
0.0
  0
VERTEX
  5
36FF
  8
0
 10
34.1294855691924113
 20
87.761212670908904
 30
0.0
  0
VERTEX
  5
3700
  8
0
 10
34.1416088264293194
 20
87.8145274189274829
 30
0.0
  0
VERTEX
  5
3701
  8
0
 10
34.1529349855065902
 20
87.8682085283476511
 30
0.0
  0
VERTEX
  5
3702
  8
0
 10
34.1634521343967208
 20
87.9222418643351347
 30
0.0
  0
VERTEX
  5
3703
  8
0
 10
34.17314863810725
 20
87.9766128262754421
 30
0.0
  0
VERTEX
  5
3704
  8
0
 10
34.1820131620947905
 20
88.031306374409283
 30
0.0
  0
VERTEX
  5
3705
  8
0
 10
34.1861299771669565
 20
88.058769305557604
 30
0.0
  0
VERTEX
  5
3706
  8
0
 10
34.1900346939000883
 20
88.0863070596111868
 30
0.0
  0
VERTEX
  5
3707
  8
0
 10
34.1972025627228504
 20
88.1415990564077276
 30
0.0
  0
VERTEX
  5
3708
  8
0
 10
34.2035064566430265
 20
88.1971661993018472
 30
0.0
  0
VERTEX
  5
3709
  8
0
 10
34.2089364371595366
 20
88.2529920224452837
 30
0.0
  0
VERTEX
  5
370A
  8
0
 10
34.2134829507151608
 20
88.3090598026624605
 30
0.0
  0
VERTEX
  5
370B
  8
0
 10
34.2171368368481126
 20
88.3653526057885443
 30
0.0
  0
VERTEX
  5
370C
  8
0
 10
34.2186262906434493
 20
88.3935780534582562
 30
0.0
  0
VERTEX
  5
370D
  8
0
 10
34.219889332609462
 20
88.4218533362390247
 30
0.0
  0
VERTEX
  5
370E
  8
0
 10
34.2217320728695995
 20
88.4785447896698827
 30
0.0
  0
VERTEX
  5
370F
  8
0
 10
34.2226570861407708
 20
88.5354097085345586
 30
0.0
  0
VERTEX
  5
3710
  8
0
 10
34.2227730595845969
 20
88.5639018242441409
 30
0.0
  0
SEQEND
  5
3711
  8
0
  0
LINE
  5
2E8F
  8
0
 10
26.6412600284570509
 20
104.2728810682710048
 30
0.0
 11
26.7247593179699905
 21
102.0172332398717998
 31
0.0
  0
POLYLINE
  5
2E90
  8
0
 66
     1
 10
0.0
 20
0.0
 30
0.0
  0
VERTEX
  5
3712
  8
0
 10
26.7247593179699905
 20
102.0172332398717998
 30
0.0
  0
VERTEX
  5
3713
  8
0
 10
26.7273255018421914
 20
101.9479104095509996
 30
0.0
  0
VERTEX
  5
3714
  8
0
 10
26.7324572673003402
 20
101.8092810190643007
 30
0.0
  0
VERTEX
  5
3715
  8
0
 10
26.7375872260399809
 20
101.6707004352240062
 30
0.0
  0
VERTEX
  5
3716
  8
0
 10
26.7401511516136488
 20
101.6014386105264009
 30
0.0
  0
VERTEX
  5
3717
  8
0
 10
26.7427141740536207
 20
101.5322011830666042
 30
0.0
  0
VERTEX
  5
3718
  8
0
 10
26.7478369080399716
 20
101.3938157685395964
 30
0.0
  0
VERTEX
  5
3719
  8
0
 10
26.7529542256870592
 20
101.2555766708730971
 30
0.0
  0
VERTEX
  5
371A
  8
0
 10
26.7580649259543897
 20
101.1175163349562069
 30
0.0
  0
VERTEX
  5
371B
  8
0
 10
26.7631678093534902
 20
100.9796671637224961
 30
0.0
  0
VERTEX
  5
371C
  8
0
 10
26.7682616782317417
 20
100.842061510544994
 30
0.0
  0
VERTEX
  5
371D
  8
0
 10
26.7708048585295693
 20
100.7733600982355995
 30
0.0
  0
VERTEX
  5
371E
  8
0
 10
26.7733453370515306
 20
100.7047316716425058
 30
0.0
  0
VERTEX
  5
371F
  8
0
 10
26.7784175926717616
 20
100.5677098785000965
 30
0.0
  0
VERTEX
  5
3720
  8
0
 10
26.783477254628
 20
100.4310282903040985
 30
0.0
  0
VERTEX
  5
3721
  8
0
 10
26.7885231354109692
 20
100.294718986394102
 30
0.0
  0
VERTEX
  5
3722
  8
0
 10
26.7935540507462484
 20
100.1588139587343989
 30
0.0
  0
VERTEX
  5
3723
  8
0
 10
26.7985688198716616
 20
100.0233451044048962
 30
0.0
  0
VERTEX
  5
3724
  8
0
 10
26.8010697816462198
 20
99.9557841822889088
 30
0.0
  0
VERTEX
  5
3725
  8
0
 10
26.8035662658146592
 20
99.8883442181153498
 30
0.0
  0
VERTEX
  5
3726
  8
0
 10
26.8085452156683495
 20
99.7538429847426471
 30
0.0
  0
VERTEX
  5
3727
  8
0
 10
26.8135045008671113
 20
99.6198729718943667
 30
0.0
  0
VERTEX
  5
3728
  8
0
 10
26.8159764052984393
 20
99.55309700415458
 30
0.0
  0
SEQEND
  5
3729
  8
0
  0
LINE
  5
2E91
  8
0
 10
26.8159764052984393
 20
99.55309700415458
 30
0.0
 11
27.187030856167901
 21
89.5294408604388821
 31
0.0
  0
POLYLINE
  5
2E92
  8
0
 66
     1
 10
0.0
 20
0.0
 30
0.0
  0
VERTEX
  5
372A
  8
0
 10
27.187030856167901
 20
89.5294408604388821
 30
0.0
  0
VERTEX
  5
372B
  8
0
 10
27.1931372281626409
 20
89.3644834720626449
 30
0.0
  0
VERTEX
  5
372C
  8
0
 10
27.2051848967837486
 20
89.0390280373967755
 30
0.0
  0
VERTEX
  5
372D
  8
0
 10
27.2169809817660315
 20
88.7203688771940335
 30
0.0
  0
VERTEX
  5
372E
  8
0
 10
27.2227730595846005
 20
88.5639018242441409
 30
0.0
  0
SEQEND
  5
372F
  8
0
  0
ARC
  5
2E93
  8
0
 10
31.6378377376024709
 20
104.4578437576840031
 30
0.0
 40
5.0000000000002958
 50
170.4512123407216109
 51
182.1199999999998909
  0
ARC
  5
2E94
  8
0
 10
29.8077083815671813
 20
104.4578437576840031
 30
0.0
 40
4.9999999999999218
 50
357.8800000000001091
 51
9.5487876592783696
  0
POLYLINE
  5
2E95
  8
0
 66
     1
 10
0.0
 20
0.0
 30
0.0
  0
VERTEX
  5
3730
  8
0
 10
34.7384319069983576
 20
105.2872806243353949
 30
0.0
  0
VERTEX
  5
3731
  8
0
 10
34.6671413662315899
 20
105.7314070511427957
 30
0.0
  0
VERTEX
  5
3732
  8
0
 10
34.5444626697860713
 20
106.6235405332714947
 30
0.0
  0
VERTEX
  5
3733
  8
0
 10
34.4486033567482082
 20
107.519091345152404
 30
0.0
  0
VERTEX
  5
3734
  8
0
 10
34.4107924031204675
 20
107.9675104796992997
 30
0.0
  0
VERTEX
  5
3735
  8
0
 10
34.3797343226915473
 20
108.4160838675934002
 30
0.0
  0
VERTEX
  5
3736
  8
0
 10
34.3378578246329198
 20
109.3126613957728068
 30
0.0
  0
VERTEX
  5
3737
  8
0
 10
34.3228275525168627
 20
110.2067216444421973
 30
0.0
  0
VERTEX
  5
3738
  8
0
 10
34.3343192420784433
 20
111.0961503660279988
 30
0.0
  0
VERTEX
  5
3739
  8
0
 10
34.3718307690010079
 20
111.9788525250298932
 30
0.0
  0
VERTEX
  5
373A
  8
0
 10
34.4346863063542514
 20
112.8527761416610957
 30
0.0
  0
VERTEX
  5
373B
  8
0
 10
34.4753603399881285
 20
113.2858141237753955
 30
0.0
  0
VERTEX
  5
373C
  8
0
 10
34.5220395692763304
 20
113.7158988462045954
 30
0.0
  0
VERTEX
  5
373D
  8
0
 10
34.6328716848552176
 20
114.5661984619529932
 30
0.0
  0
VERTEX
  5
373E
  8
0
 10
34.7659915869303404
 20
115.401670695821494
 30
0.0
  0
VERTEX
  5
373F
  8
0
 10
34.9200402546964597
 20
116.2203524119974958
 30
0.0
  0
VERTEX
  5
3740
  8
0
 10
35.0954393992253699
 20
117.028734941626098
 30
0.0
  0
VERTEX
  5
3741
  8
0
 10
35.295692231380599
 20
117.842066416868704
 30
0.0
  0
VERTEX
  5
3742
  8
0
 10
35.405295954836447
 20
118.2501098040277014
 30
0.0
  0
VERTEX
  5
3743
  8
0
 10
35.5212610191679303
 20
118.6587159487929029
 30
0.0
  0
VERTEX
  5
3744
  8
0
 10
35.6456561555976421
 20
119.0639018242440983
 30
0.0
  0
SEQEND
  5
3745
  8
0
  0
POLYLINE
  5
2E96
  8
0
 66
     1
 10
0.0
 20
0.0
 30
0.0
  0
VERTEX
  5
3746
  8
0
 10
25.7998899635717898
 20
119.0639018242440983
 30
0.0
  0
VERTEX
  5
3747
  8
0
 10
25.9242851000069585
 20
118.6587159487743008
 30
0.0
  0
VERTEX
  5
3748
  8
0
 10
26.04025016433798
 20
118.2501098040096963
 30
0.0
  0
VERTEX
  5
3749
  8
0
 10
26.1498538877931388
 20
117.8420664168512957
 30
0.0
  0
VERTEX
  5
374A
  8
0
 10
26.3501067199476893
 20
117.0287349416100966
 30
0.0
  0
VERTEX
  5
374B
  8
0
 10
26.5255058644761483
 20
116.2203524119826028
 30
0.0
  0
VERTEX
  5
374C
  8
0
 10
26.6795545322415784
 20
115.4016706958074963
 30
0.0
  0
VERTEX
  5
374D
  8
0
 10
26.8126744343160297
 20
114.5661984619400044
 30
0.0
  0
VERTEX
  5
374E
  8
0
 10
26.9235065498942312
 20
113.7158988461926015
 30
0.0
  0
VERTEX
  5
374F
  8
0
 10
26.9701857791824295
 20
113.2858141237639984
 30
0.0
  0
VERTEX
  5
3750
  8
0
 10
27.0108598128158484
 20
112.852776141650196
 30
0.0
  0
VERTEX
  5
3751
  8
0
 10
27.073715350169099
 20
111.9788525250203008
 30
0.0
  0
VERTEX
  5
3752
  8
0
 10
27.1112268770912088
 20
111.0961503660196001
 30
0.0
  0
VERTEX
  5
3753
  8
0
 10
27.1227185666525692
 20
110.2067216444351061
 30
0.0
  0
VERTEX
  5
3754
  8
0
 10
27.1076882945362705
 20
109.3126613957666962
 30
0.0
  0
VERTEX
  5
3755
  8
0
 10
27.0658117964776501
 20
108.4160838675887959
 30
0.0
  0
VERTEX
  5
3756
  8
0
 10
27.0347537160487299
 20
107.9675104796953065
 30
0.0
  0
VERTEX
  5
3757
  8
0
 10
26.9969427624209892
 20
107.519091345149107
 30
0.0
  0
VERTEX
  5
3758
  8
0
 10
26.9010834493828987
 20
106.6235405332695052
 30
0.0
  0
VERTEX
  5
3759
  8
0
 10
26.778404752937611
 20
105.7314070511420994
 30
0.0
  0
VERTEX
  5
375A
  8
0
 10
26.707114212171291
 20
105.2872806243353949
 30
0.0
  0
SEQEND
  5
375B
  8
0
  0
LINE
  5
2E97
  8
1
 10
195.3384068065720101
 20
82.0634772573646245
 30
0.0
 11
195.3384068065720101
 21
134.5739018242441034
 31
0.0
  0
POLYLINE
  5
2E98
  8
0
 66
     1
 10
0.0
 20
0.0
 30
0.0
  0
VERTEX
  5
375C
  8
0
 10
199.3540656539854865
 20
105.2872806243354944
 30
0.0
  0
VERTEX
  5
375D
  8
0
 10
199.2827751132190031
 20
105.7314070511427957
 30
0.0
  0
VERTEX
  5
375E
  8
0
 10
199.1600964167735128
 20
106.6235405332715942
 30
0.0
  0
VERTEX
  5
375F
  8
0
 10
199.0642371037355929
 20
107.519091345152404
 30
0.0
  0
VERTEX
  5
3760
  8
0
 10
199.0264261501075964
 20
107.9675104796992997
 30
0.0
  0
VERTEX
  5
3761
  8
0
 10
198.9953680696789888
 20
108.4160838675934002
 30
0.0
  0
VERTEX
  5
3762
  8
0
 10
198.9534915716203045
 20
109.3126613957728068
 30
0.0
  0
VERTEX
  5
3763
  8
0
 10
198.9384612995042971
 20
110.2067216444422968
 30
0.0
  0
VERTEX
  5
3764
  8
0
 10
198.9499529890657925
 20
111.0961503660279988
 30
0.0
  0
VERTEX
  5
3765
  8
0
 10
198.9874645159883926
 20
111.9788525250300069
 30
0.0
  0
VERTEX
  5
3766
  8
0
 10
199.050320053341693
 20
112.8527761416610957
 30
0.0
  0
VERTEX
  5
3767
  8
0
 10
199.0909940869752859
 20
113.285814123775495
 30
0.0
  0
VERTEX
  5
3768
  8
0
 10
199.1376733162636867
 20
113.7158988462045954
 30
0.0
  0
VERTEX
  5
3769
  8
0
 10
199.2485054318426876
 20
114.5661984619529932
 30
0.0
  0
VERTEX
  5
376A
  8
0
 10
199.3816253339174978
 20
115.401670695821494
 30
0.0
  0
VERTEX
  5
376B
  8
0
 10
199.5356740016839012
 20
116.2203524119974958
 30
0.0
  0
VERTEX
  5
376C
  8
0
 10
199.7110731462128115
 20
117.028734941626098
 30
0.0
  0
VERTEX
  5
376D
  8
0
 10
199.9113259783680121
 20
117.8420664168688035
 30
0.0
  0
VERTEX
  5
376E
  8
0
 10
200.0209297018238885
 20
118.2501098040277014
 30
0.0
  0
VERTEX
  5
376F
  8
0
 10
200.136894766155109
 20
118.6587159487930023
 30
0.0
  0
VERTEX
  5
3770
  8
0
 10
200.387981371265596
 20
119.4765674245471985
 30
0.0
  0
VERTEX
  5
3771
  8
0
 10
200.664639664330906
 20
120.2935624160251962
 30
0.0
  0
VERTEX
  5
3772
  8
0
 10
200.8125368592789073
 20
120.7011159979570039
 30
0.0
  0
SEQEND
  5
3773
  8
0
  0
POLYLINE
  5
2E99
  8
0
 66
     1
 10
0.0
 20
0.0
 30
0.0
  0
VERTEX
  5
3774
  8
0
 10
191.256893775444496
 20
104.2728810682710048
 30
0.0
  0
VERTEX
  5
3775
  8
0
 10
191.3532080909455999
 20
101.6710484314778995
 30
0.0
  0
VERTEX
  5
3776
  8
0
 10
191.5466675334266995
 20
96.4449396362844311
 30
0.0
  0
VERTEX
  5
3777
  8
0
 10
191.7410006702507133
 20
91.1952288828072568
 30
0.0
  0
VERTEX
  5
3778
  8
0
 10
191.8384068065720101
 20
88.5639018242441409
 30
0.0
  0
SEQEND
  5
3779
  8
0
  0
POLYLINE
  5
2E9A
  8
0
 66
     1
 10
0.0
 20
0.0
 30
0.0
  0
VERTEX
  5
377A
  8
0
 10
191.8384068065720101
 20
88.5639018242441409
 30
0.0
  0
VERTEX
  5
377B
  8
0
 10
191.8384785944514874
 20
88.541485089345116
 30
0.0
  0
VERTEX
  5
377C
  8
0
 10
191.839055815742114
 20
88.4965026923701146
 30
0.0
  0
VERTEX
  5
377D
  8
0
 10
191.8402174498901047
 20
88.4513352892636533
 30
0.0
  0
VERTEX
  5
377E
  8
0
 10
191.8410196331450948
 20
88.4286873311251895
 30
0.0
  0
VERTEX
  5
377F
  8
0
 10
191.8419705084170062
 20
88.4059992816958413
 30
0.0
  0
VERTEX
  5
3780
  8
0
 10
191.8443214831162891
 20
88.3605111843124149
 30
0.0
  0
VERTEX
  5
3781
  8
0
 10
191.8472763432779971
 20
88.3148875911948892
 30
0.0
  0
VERTEX
  5
3782
  8
0
 10
191.8508405349946031
 20
88.2691451426325386
 30
0.0
  0
VERTEX
  5
3783
  8
0
 10
191.855018982546909
 20
88.2233004921363602
 30
0.0
  0
VERTEX
  5
3784
  8
0
 10
191.8598160918735971
 20
88.1773702736387861
 30
0.0
  0
VERTEX
  5
3785
  8
0
 10
191.8624478811489098
 20
88.1543782610981737
 30
0.0
  0
VERTEX
  5
3786
  8
0
 10
191.8652357561317956
 20
88.1313710688255298
 30
0.0
  0
VERTEX
  5
3787
  8
0
 10
191.8712813633758003
 20
88.0853193745654437
 30
0.0
  0
VERTEX
  5
3788
  8
0
 10
191.8779558063791058
 20
88.0392315704052919
 30
0.0
  0
VERTEX
  5
3789
  8
0
 10
191.8852614946360973
 20
87.9931238861150007
 30
0.0
  0
VERTEX
  5
378A
  8
0
 10
191.8932003685850134
 20
87.9470123692745034
 30
0.0
  0
VERTEX
  5
378B
  8
0
 10
191.901773916097909
 20
87.9009128529091157
 30
0.0
  0
VERTEX
  5
378C
  8
0
 10
191.9062990408305893
 20
87.8778724631112453
 30
0.0
  0
VERTEX
  5
378D
  8
0
 10
191.9109832054791127
 20
87.8548408546008943
 30
0.0
  0
VERTEX
  5
378E
  8
0
 10
191.9208288402901132
 20
87.8088118664352635
 30
0.0
  0
VERTEX
  5
378F
  8
0
 10
191.9313108885141048
 20
87.7628416485065657
 30
0.0
  0
VERTEX
  5
3790
  8
0
 10
191.9367904605992123
 20
87.7398834780825894
 30
0.0
  0
SEQEND
  5
3791
  8
0
  0
POLYLINE
  5
2E9B
  8
0
 66
     1
 10
0.0
 20
0.0
 30
0.0
  0
VERTEX
  5
3792
  8
0
 10
191.9367904605992123
 20
87.7398834780825894
 30
0.0
  0
VERTEX
  5
3793
  8
0
 10
191.948628213796809
 20
87.6924656005521967
 30
0.0
  0
VERTEX
  5
3794
  8
0
 10
191.9743425963227139
 20
87.5979453090120757
 30
0.0
  0
VERTEX
  5
3795
  8
0
 10
192.0027228722721873
 20
87.5040845331725734
 30
0.0
  0
VERTEX
  5
3796
  8
0
 10
192.0178930799337991
 20
87.4574712610331346
 30
0.0
  0
VERTEX
  5
3797
  8
0
 10
192.0337001384903033
 20
87.411116571937697
 30
0.0
  0
VERTEX
  5
3798
  8
0
 10
192.0671630101909955
 20
87.3193279917058192
 30
0.0
  0
VERTEX
  5
3799
  8
0
 10
192.102971021974497
 20
87.2290028453900561
 30
0.0
  0
VERTEX
  5
379A
  8
0
 10
192.1409590251849124
 20
87.1404104525447849
 30
0.0
  0
VERTEX
  5
379B
  8
0
 10
192.1809404871746096
 20
87.0538003568349552
 30
0.0
  0
VERTEX
  5
379C
  8
0
 10
192.2227061742229921
 20
86.9694083091805226
 30
0.0
  0
VERTEX
  5
379D
  8
0
 10
192.2441860400631128
 20
86.928115209766176
 30
0.0
  0
VERTEX
  5
379E
  8
0
 10
192.2660226955956091
 20
86.8874603923353845
 30
0.0
  0
VERTEX
  5
379F
  8
0
 10
192.3106353233849859
 20
86.8081684032493115
 30
0.0
  0
VERTEX
  5
37A0
  8
0
 10
192.3563458738213114
 20
86.7316047431566233
 30
0.0
  0
VERTEX
  5
37A1
  8
0
 10
192.4039086370235054
 20
86.6563587728516325
 30
0.0
  0
VERTEX
  5
37A2
  8
0
 10
192.4535434228851045
 20
86.582093746386505
 30
0.0
  0
VERTEX
  5
37A3
  8
0
 10
192.505178471716988
 20
86.5089523838504704
 30
0.0
  0
VERTEX
  5
37A4
  8
0
 10
192.5317214125022929
 20
86.4728453690724166
 30
0.0
  0
VERTEX
  5
37A5
  8
0
 10
192.5587339183753102
 20
86.4370688184291538
 30
0.0
  0
VERTEX
  5
37A6
  8
0
 10
192.6141232985769136
 20
86.3665672188492692
 30
0.0
  0
VERTEX
  5
37A7
  8
0
 10
192.6712550189913031
 20
86.2975608653402162
 30
0.0
  0
VERTEX
  5
37A8
  8
0
 10
192.7004442585451045
 20
86.2636510563480954
 30
0.0
  0
VERTEX
  5
37A9
  8
0
 10
192.7300322125535956
 20
86.2301533422352406
 30
0.0
  0
VERTEX
  5
37AA
  8
0
 10
192.7903510597427044
 20
86.1644410700223631
 30
0.0
  0
VERTEX
  5
37AB
  8
0
 10
192.852101424584788
 20
86.1005127872664673
 30
0.0
  0
VERTEX
  5
37AC
  8
0
 10
192.8834775662097911
 20
86.0692430450091166
 30
0.0
  0
VERTEX
  5
37AD
  8
0
 10
192.9151680086280862
 20
86.0384486514175535
 30
0.0
  0
VERTEX
  5
37AE
  8
0
 10
192.9794314692491923
 20
85.9783196155525644
 30
0.0
  0
VERTEX
  5
37AF
  8
0
 10
193.0447755048446083
 20
85.920181821721954
 30
0.0
  0
VERTEX
  5
37B0
  8
0
 10
193.1110846577425946
 20
85.8640803402689983
 30
0.0
  0
VERTEX
  5
37B1
  8
0
 10
193.1782330364196127
 20
85.8100591848135679
 30
0.0
  0
VERTEX
  5
37B2
  8
0
 10
193.2460891589992116
 20
85.7581564933819038
 30
0.0
  0
VERTEX
  5
37B3
  8
0
 10
193.2802402306990075
 20
85.7330096775951063
 30
0.0
  0
VERTEX
  5
37B4
  8
0
 10
193.3145168538574126
 20
85.7084037137036887
 30
0.0
  0
VERTEX
  5
37B5
  8
0
 10
193.3833760875342875
 20
85.6608250275302368
 30
0.0
  0
VERTEX
  5
37B6
  8
0
 10
193.4525237244654079
 20
85.6154369693366846
 30
0.0
  0
VERTEX
  5
37B7
  8
0
 10
193.5218142236855954
 20
85.5722482032844312
 30
0.0
  0
VERTEX
  5
37B8
  8
0
 10
193.5911002798029017
 20
85.5312594283276724
 30
0.0
  0
VERTEX
  5
37B9
  8
0
 10
193.6602334170979134
 20
85.4924633868240846
 30
0.0
  0
VERTEX
  5
37BA
  8
0
 10
193.6946960602560921
 20
85.4738832187265842
 30
0.0
  0
VERTEX
  5
37BB
  8
0
 10
193.7290645469252013
 20
85.4558449567922764
 30
0.0
  0
VERTEX
  5
37BC
  8
0
 10
193.7978697494766038
 20
85.4211728229276162
 30
0.0
  0
VERTEX
  5
37BD
  8
0
 10
193.8681087757761077
 20
85.3877054038951258
 30
0.0
  0
VERTEX
  5
37BE
  8
0
 10
193.9397897936725883
 20
85.3554956075645492
 30
0.0
  0
VERTEX
  5
37BF
  8
0
 10
194.0127672503867871
 20
85.3246612084397213
 30
0.0
  0
VERTEX
  5
37C0
  8
0
 10
194.0868992011185128
 20
85.2953044624554337
 30
0.0
  0
VERTEX
  5
37C1
  8
0
 10
194.1243553314882035
 20
85.281207958552983
 30
0.0
  0
VERTEX
  5
37C2
  8
0
 10
194.1620496942821035
 20
85.2675122925951712
 30
0.0
  0
VERTEX
  5
37C3
  8
0
 10
194.2380904732667091
 20
85.2413570214369258
 30
0.0
  0
VERTEX
  5
37C4
  8
0
 10
194.31490273480361
 20
85.2168972806150862
 30
0.0
  0
VERTEX
  5
37C5
  8
0
 10
194.3923810000082995
 20
85.1941785161200329
 30
0.0
  0
VERTEX
  5
37C6
  8
0
 10
194.4704372388630134
 20
85.1732339210824705
 30
0.0
  0
VERTEX
  5
37C7
  8
0
 10
194.5489856173491887
 20
85.1540903652326335
 30
0.0
  0
VERTEX
  5
37C8
  8
0
 10
194.5884032818418916
 20
85.1452040147130589
 30
0.0
  0
VERTEX
  5
37C9
  8
0
 10
194.627918709211599
 20
85.1367737753511449
 30
0.0
  0
VERTEX
  5
37CA
  8
0
 10
194.707282102069513
 20
85.1212746868145871
 30
0.0
  0
VERTEX
  5
37CB
  8
0
 10
194.7871920523801066
 20
85.1075797479958567
 30
0.0
  0
VERTEX
  5
37CC
  8
0
 10
194.8678273190994048
 20
85.0956811066470493
 30
0.0
  0
VERTEX
  5
37CD
  8
0
 10
194.9494207273116899
 20
85.0855847268331047
 30
0.0
  0
VERTEX
  5
37CE
  8
0
 10
194.9975684780737879
 20
85.0805371815708043
 30
0.0
  0
VERTEX
  5
37CF
  8
0
 10
195.0114119878369081
 20
85.0792103904841639
 30
0.0
  0
VERTEX
  5
37D0
  8
0
 10
195.0252975933744892
 20
85.0779352982127932
 30
0.0
  0
VERTEX
  5
37D1
  8
0
 10
195.0322568134455992
 20
85.077317222989123
 30
0.0
  0
VERTEX
  5
37D2
  8
0
 10
195.0392273271135934
 20
85.0767121765377681
 30
0.0
  0
VERTEX
  5
37D3
  8
0
 10
195.0532033155407134
 20
85.0755413255709811
 30
0.0
  0
VERTEX
  5
37D4
  8
0
 10
195.0672277724237915
 20
85.0744230764311453
 30
0.0
  0
VERTEX
  5
37D5
  8
0
 10
195.0742588902081991
 20
85.0738837901531326
 30
0.0
  0
VERTEX
  5
37D6
  8
0
 10
195.0813029905814062
 20
85.0733577938954397
 30
0.0
  0
VERTEX
  5
37D7
  8
0
 10
195.0954313322613132
 20
85.0723458789837252
 30
0.0
  0
VERTEX
  5
37D8
  8
0
 10
195.109615218232193
 20
85.071387771429869
 30
0.0
  0
VERTEX
  5
37D9
  8
0
 10
195.1167287598750022
 20
85.0709290439877179
 30
0.0
  0
VERTEX
  5
37DA
  8
0
 10
195.1238571157416004
 20
85.0704839519928839
 30
0.0
  0
VERTEX
  5
37DB
  8
0
 10
195.1381595255589048
 20
85.0696349445614857
 30
0.0
  0
VERTEX
  5
37DC
  8
0
 10
195.1525249683735979
 20
85.0688413180113372
 30
0.0
  0
VERTEX
  5
37DD
  8
0
 10
195.1669559708952875
 20
85.0681036877743111
 30
0.0
  0
VERTEX
  5
37DE
  8
0
 10
195.1814550520508931
 20
85.067422717091759
 30
0.0
  0
VERTEX
  5
37DF
  8
0
 10
195.1960247097426873
 20
85.0667991179310832
 30
0.0
  0
VERTEX
  5
37E0
  8
0
 10
195.2033367766082108
 20
85.0665090686324135
 30
0.0
  0
VERTEX
  5
37E1
  8
0
 10
195.210667408672407
 20
85.0662336515576101
 30
0.0
  0
VERTEX
  5
37E2
  8
0
 10
195.2253855697736071
 20
85.0657271287732755
 30
0.0
  0
VERTEX
  5
37E3
  8
0
 10
195.2401815618050023
 20
85.0652804098452009
 30
0.0
  0
VERTEX
  5
37E4
  8
0
 10
195.2550576956531927
 20
85.0648944041735433
 30
0.0
  0
VERTEX
  5
37E5
  8
0
 10
195.2700162218515914
 20
85.0645700697628087
 30
0.0
  0
VERTEX
  5
37E6
  8
0
 10
195.2850593317558889
 20
85.0643084125846656
 30
0.0
  0
VERTEX
  5
37E7
  8
0
 10
195.2926132754031983
 20
85.0642014152800954
 30
0.0
  0
VERTEX
  5
37E8
  8
0
 10
195.3001891627214093
 20
85.0641104859357995
 30
0.0
  0
VERTEX
  5
37E9
  8
0
 10
195.3154078074925906
 20
85.0639773899111162
 30
0.0
  0
VERTEX
  5
37EA
  8
0
 10
195.3307173278707864
 20
85.0639102711233193
 30
0.0
  0
VERTEX
  5
37EB
  8
0
 10
195.3384068065720101
 20
85.0639018242441409
 30
0.0
  0
VERTEX
  5
37EC
  8
0
 10
195.3460962852734042
 20
85.0639102711233193
 30
0.0
  0
VERTEX
  5
37ED
  8
0
 10
195.3614058056516001
 20
85.0639773899111162
 30
0.0
  0
VERTEX
  5
37EE
  8
0
 10
195.3766244504226961
 20
85.0641104859357995
 30
0.0
  0
VERTEX
  5
37EF
  8
0
 10
195.3842003377407934
 20
85.0642014152800954
 30
0.0
  0
VERTEX
  5
37F0
  8
0
 10
195.3917542813881028
 20
85.0643084125846656
 30
0.0
  0
VERTEX
  5
37F1
  8
0
 10
195.406797391292713
 20
85.0645700697628087
 30
0.0
  0
VERTEX
  5
37F2
  8
0
 10
195.421755917490799
 20
85.0648944041735433
 30
0.0
  0
VERTEX
  5
37F3
  8
0
 10
195.4366320513391031
 20
85.0652804098452009
 30
0.0
  0
VERTEX
  5
37F4
  8
0
 10
195.4514280433704982
 20
85.0657271287732755
 30
0.0
  0
VERTEX
  5
37F5
  8
0
 10
195.4661462044716131
 20
85.0662336515576101
 30
0.0
  0
VERTEX
  5
37F6
  8
0
 10
195.4734768365358093
 20
85.0665090686324135
 30
0.0
  0
VERTEX
  5
37F7
  8
0
 10
195.4807889034013897
 20
85.0667991179310832
 30
0.0
  0
VERTEX
  5
37F8
  8
0
 10
195.4953585610932976
 20
85.067422717091759
 30
0.0
  0
VERTEX
  5
37F9
  8
0
 10
195.5098576422487895
 20
85.0681036877743111
 30
0.0
  0
VERTEX
  5
37FA
  8
0
 10
195.5242886447705928
 20
85.0688413180113372
 30
0.0
  0
VERTEX
  5
37FB
  8
0
 10
195.5386540875853996
 20
85.0696349445614857
 30
0.0
  0
VERTEX
  5
37FC
  8
0
 10
195.5529564974023913
 20
85.0704839519928839
 30
0.0
  0
VERTEX
  5
37FD
  8
0
 10
195.5600848532689895
 20
85.0709290439877179
 30
0.0
  0
VERTEX
  5
37FE
  8
0
 10
195.5671983949121113
 20
85.071387771429869
 30
0.0
  0
VERTEX
  5
37FF
  8
0
 10
195.5813822808829059
 20
85.0723458789837252
 30
0.0
  0
VERTEX
  5
3800
  8
0
 10
195.5955106225628128
 20
85.0733577938954397
 30
0.0
  0
VERTEX
  5
3801
  8
0
 10
195.6025547229359915
 20
85.0738837901531326
 30
0.0
  0
VERTEX
  5
3802
  8
0
 10
195.6095858407202002
 20
85.0744230764311453
 30
0.0
  0
VERTEX
  5
3803
  8
0
 10
195.6236102976033067
 20
85.0755413255709811
 30
0.0
  0
VERTEX
  5
3804
  8
0
 10
195.6375862860307109
 20
85.0767121765377681
 30
0.0
  0
VERTEX
  5
3805
  8
0
 10
195.6445567996983925
 20
85.077317222989123
 30
0.0
  0
VERTEX
  5
3806
  8
0
 10
195.6515160197695877
 20
85.0779352982127932
 30
0.0
  0
VERTEX
  5
3807
  8
0
 10
195.665401625307112
 20
85.0792103904841639
 30
0.0
  0
VERTEX
  5
3808
  8
0
 10
195.6792451350702038
 20
85.0805371815708043
 30
0.0
  0
VERTEX
  5
3809
  8
0
 10
195.727392885832387
 20
85.0855847268331047
 30
0.0
  0
VERTEX
  5
380A
  8
0
 10
195.8089862940445869
 20
85.0956811066470493
 30
0.0
  0
VERTEX
  5
380B
  8
0
 10
195.8896215607641977
 20
85.1075797479958567
 30
0.0
  0
VERTEX
  5
380C
  8
0
 10
195.9695315110745923
 20
85.1212746868145871
 30
0.0
  0
VERTEX
  5
380D
  8
0
 10
196.0488949039327053
 20
85.1367737753511449
 30
0.0
  0
VERTEX
  5
380E
  8
0
 10
196.0884103313021001
 20
85.1452040147130589
 30
0.0
  0
VERTEX
  5
380F
  8
0
 10
196.127827995794803
 20
85.1540903652326335
 30
0.0
  0
VERTEX
  5
3810
  8
0
 10
196.2063763742810067
 20
85.1732339210824705
 30
0.0
  0
VERTEX
  5
3811
  8
0
 10
196.2844326131360049
 20
85.1941785161200329
 30
0.0
  0
VERTEX
  5
3812
  8
0
 10
196.3619108783404954
 20
85.2168972806150862
 30
0.0
  0
VERTEX
  5
3813
  8
0
 10
196.43872313987751
 20
85.2413570214369258
 30
0.0
  0
VERTEX
  5
3814
  8
0
 10
196.5147639188618882
 20
85.2675122925951712
 30
0.0
  0
VERTEX
  5
3815
  8
0
 10
196.5524582816561008
 20
85.281207958552983
 30
0.0
  0
VERTEX
  5
3816
  8
0
 10
196.5899144120255073
 20
85.2953044624554337
 30
0.0
  0
VERTEX
  5
3817
  8
0
 10
196.6640463627574889
 20
85.3246612084397213
 30
0.0
  0
VERTEX
  5
3818
  8
0
 10
196.7370238194714034
 20
85.3554956075645492
 30
0.0
  0
VERTEX
  5
3819
  8
0
 10
196.8087048373679124
 20
85.3877054038951258
 30
0.0
  0
VERTEX
  5
381A
  8
0
 10
196.8789438636675015
 20
85.4211728229276162
 30
0.0
  0
VERTEX
  5
381B
  8
0
 10
196.9477490662189041
 20
85.4558449567922764
 30
0.0
  0
VERTEX
  5
381C
  8
0
 10
196.9821175528882122
 20
85.4738832187265842
 30
0.0
  0
VERTEX
  5
381D
  8
0
 10
197.0165801960461067
 20
85.4924633868240846
 30
0.0
  0
VERTEX
  5
381E
  8
0
 10
197.0857133333412889
 20
85.5312594283276724
 30
0.0
  0
VERTEX
  5
381F
  8
0
 10
197.1549993894587089
 20
85.5722482032843175
 30
0.0
  0
VERTEX
  5
3820
  8
0
 10
197.2242898886786122
 20
85.6154369693366846
 30
0.0
  0
VERTEX
  5
3821
  8
0
 10
197.2934375256099884
 20
85.6608250275302368
 30
0.0
  0
VERTEX
  5
3822
  8
0
 10
197.3622967592868918
 20
85.7084037137036887
 30
0.0
  0
VERTEX
  5
3823
  8
0
 10
197.3965733824450126
 20
85.7330096775951063
 30
0.0
  0
VERTEX
  5
3824
  8
0
 10
197.4307244541448085
 20
85.7581564933819038
 30
0.0
  0
VERTEX
  5
3825
  8
0
 10
197.4985805767244074
 20
85.8100591848135679
 30
0.0
  0
VERTEX
  5
3826
  8
0
 10
197.5657289554013971
 20
85.8640803402689983
 30
0.0
  0
VERTEX
  5
3827
  8
0
 10
197.6320381082996107
 20
85.920181821721954
 30
0.0
  0
VERTEX
  5
3828
  8
0
 10
197.697382143895112
 20
85.9783196155525644
 30
0.0
  0
VERTEX
  5
3829
  8
0
 10
197.7616456045159055
 20
86.0384486514175535
 30
0.0
  0
VERTEX
  5
382A
  8
0
 10
197.7933360469342006
 20
86.0692430450091166
 30
0.0
  0
VERTEX
  5
382B
  8
0
 10
197.8247121885592037
 20
86.1005127872664673
 30
0.0
  0
VERTEX
  5
382C
  8
0
 10
197.8864625534012873
 20
86.1644410700223631
 30
0.0
  0
VERTEX
  5
382D
  8
0
 10
197.9467814005903961
 20
86.230153342235127
 30
0.0
  0
VERTEX
  5
382E
  8
0
 10
197.9763693545991998
 20
86.2636510563480954
 30
0.0
  0
VERTEX
  5
382F
  8
0
 10
198.0055585941526886
 20
86.2975608653402162
 30
0.0
  0
VERTEX
  5
3830
  8
0
 10
198.0626903145671065
 20
86.3665672188492692
 30
0.0
  0
VERTEX
  5
3831
  8
0
 10
198.1180796947687952
 20
86.4370688184291538
 30
0.0
  0
VERTEX
  5
3832
  8
0
 10
198.1450922006418125
 20
86.4728453690724166
 30
0.0
  0
VERTEX
  5
3833
  8
0
 10
198.1716351414272026
 20
86.5089523838504704
 30
0.0
  0
VERTEX
  5
3834
  8
0
 10
198.2232701902591998
 20
86.582093746386505
 30
0.0
  0
VERTEX
  5
3835
  8
0
 10
198.2729049761207989
 20
86.6563587728516325
 30
0.0
  0
VERTEX
  5
3836
  8
0
 10
198.3204677393227939
 20
86.7316047431566233
 30
0.0
  0
VERTEX
  5
3837
  8
0
 10
198.36617828975929
 20
86.8081684032493115
 30
0.0
  0
VERTEX
  5
3838
  8
0
 10
198.410790917548411
 20
86.8874603923353845
 30
0.0
  0
VERTEX
  5
3839
  8
0
 10
198.4326275730809073
 20
86.928115209766176
 30
0.0
  0
VERTEX
  5
383A
  8
0
 10
198.4541074389209996
 20
86.9694083091805226
 30
0.0
  0
VERTEX
  5
383B
  8
0
 10
198.4958731259694105
 20
87.0538003568349552
 30
0.0
  0
VERTEX
  5
383C
  8
0
 10
198.5358545879591929
 20
87.1404104525447849
 30
0.0
  0
VERTEX
  5
383D
  8
0
 10
198.5738425911694947
 20
87.2290028453900561
 30
0.0
  0
VERTEX
  5
383E
  8
0
 10
198.6096506029529962
 20
87.3193279917057055
 30
0.0
  0
VERTEX
  5
383F
  8
0
 10
198.643113474654001
 20
87.411116571937697
 30
0.0
  0
VERTEX
  5
3840
  8
0
 10
198.6589205332101926
 20
87.4574712610331346
 30
0.0
  0
VERTEX
  5
3841
  8
0
 10
198.6740907408718044
 20
87.5040845331725734
 30
0.0
  0
VERTEX
  5
3842
  8
0
 10
198.7024710168213915
 20
87.5979453090120757
 30
0.0
  0
VERTEX
  5
3843
  8
0
 10
198.7281853993474101
 20
87.6924656005521967
 30
0.0
  0
VERTEX
  5
3844
  8
0
 10
198.7400231525448078
 20
87.7398834780825894
 30
0.0
  0
SEQEND
  5
3845
  8
0
  0
POLYLINE
  5
2E9C
  8
0
 66
     1
 10
0.0
 20
0.0
 30
0.0
  0
VERTEX
  5
3846
  8
0
 10
198.7400231525448078
 20
87.7398834780825894
 30
0.0
  0
VERTEX
  5
3847
  8
0
 10
198.7455026822642026
 20
87.7628414683147469
 30
0.0
  0
VERTEX
  5
3848
  8
0
 10
198.7559846552246086
 20
87.808811334038225
 30
0.0
  0
VERTEX
  5
3849
  8
0
 10
198.7658302278468057
 20
87.8548399854057891
 30
0.0
  0
VERTEX
  5
384A
  8
0
 10
198.7705143664109073
 20
87.877871433009787
 30
0.0
  0
VERTEX
  5
384B
  8
0
 10
198.7750394684834987
 20
87.9009116681460512
 30
0.0
  0
VERTEX
  5
384C
  8
0
 10
198.7836129809790862
 20
87.9470108972333549
 30
0.0
  0
VERTEX
  5
384D
  8
0
 10
198.7915518330746067
 20
87.9931221592771777
 30
0.0
  0
VERTEX
  5
384E
  8
0
 10
198.7988575119856876
 20
88.039229626197681
 30
0.0
  0
VERTEX
  5
384F
  8
0
 10
198.8055319572684141
 20
88.0853172555322601
 30
0.0
  0
VERTEX
  5
3850
  8
0
 10
198.8115775773007954
 20
88.1313688227806153
 30
0.0
  0
VERTEX
  5
3851
  8
0
 10
198.8143654622031136
 20
88.1543759711608175
 30
0.0
  0
VERTEX
  5
3852
  8
0
 10
198.8169972634952956
 20
88.1773679537973436
 30
0.0
  0
VERTEX
  5
3853
  8
0
 10
198.8217944022919141
 20
88.2232981572291379
 30
0.0
  0
VERTEX
  5
3854
  8
0
 10
198.8259728849754993
 20
88.269142857000503
 30
0.0
  0
VERTEX
  5
3855
  8
0
 10
198.8295371153459996
 20
88.3148854248666169
 30
0.0
  0
VERTEX
  5
3856
  8
0
 10
198.8324920152809057
 20
88.360509213063807
 30
0.0
  0
VERTEX
  5
3857
  8
0
 10
198.8348430281969001
 20
88.4059975870930259
 30
0.0
  0
VERTEX
  5
3858
  8
0
 10
198.8357939210831944
 20
88.4286858072495363
 30
0.0
  0
VERTEX
  5
3859
  8
0
 10
198.8365961204378891
 20
88.451333958688835
 30
0.0
  0
VERTEX
  5
385A
  8
0
 10
198.8377577805810859
 20
88.4965018190308967
 30
0.0
  0
VERTEX
  5
385B
  8
0
 10
198.8383350166616026
 20
88.5414847722674239
 30
0.0
  0
VERTEX
  5
385C
  8
0
 10
198.8384068065720101
 20
88.5639018242441409
 30
0.0
  0
SEQEND
  5
385D
  8
0
  0
POLYLINE
  5
2E9D
  8
0
 66
     1
 10
0.0
 20
0.0
 30
0.0
  0
VERTEX
  5
385E
  8
0
 10
198.8384068065720101
 20
88.5639018242441409
 30
0.0
  0
VERTEX
  5
385F
  8
0
 10
198.9358129428933069
 20
91.1952288828072568
 30
0.0
  0
VERTEX
  5
3860
  8
0
 10
199.1301460797176048
 20
96.4449396362844311
 30
0.0
  0
VERTEX
  5
3861
  8
0
 10
199.3236055221983918
 20
101.6710484314778995
 30
0.0
  0
VERTEX
  5
3862
  8
0
 10
199.4199198376994957
 20
104.2728810682710048
 30
0.0
  0
SEQEND
  5
3863
  8
0
  0
POLYLINE
  5
2E9E
  8
0
 66
     1
 10
0.0
 20
0.0
 30
0.0
  0
VERTEX
  5
3864
  8
0
 10
199.4199198376994957
 20
104.2728810682710048
 30
0.0
  0
VERTEX
  5
3865
  8
0
 10
199.4233112831913957
 20
104.4402809367174001
 30
0.0
  0
VERTEX
  5
3866
  8
0
 10
199.4132181215576907
 20
104.7758651004438946
 30
0.0
  0
VERTEX
  5
3867
  8
0
 10
199.3797990281059072
 20
105.1162775074951981
 30
0.0
  0
VERTEX
  5
3868
  8
0
 10
199.3540656539854865
 20
105.2872806243354944
 30
0.0
  0
SEQEND
  5
3869
  8
0
  0
POLYLINE
  5
2E9F
  8
0
 66
     1
 10
0.0
 20
0.0
 30
0.0
  0
VERTEX
  5
386A
  8
0
 10
189.7776178130538938
 20
129.3156809541575001
 30
0.0
  0
VERTEX
  5
386B
  8
0
 10
189.6302083229936102
 20
129.1156261574228949
 30
0.0
  0
VERTEX
  5
386C
  8
0
 10
189.355761151696413
 20
128.6981763004218067
 30
0.0
  0
VERTEX
  5
386D
  8
0
 10
189.2074546905635088
 20
128.4419820706579003
 30
0.0
  0
VERTEX
  5
386E
  8
0
 10
189.1668440202151942
 20
128.3672051366961
 30
0.0
  0
VERTEX
  5
386F
  8
0
 10
189.1270520413287954
 20
128.2917605541595094
 30
0.0
  0
VERTEX
  5
3870
  8
0
 10
189.1074687418127098
 20
128.2537938025299979
 30
0.0
  0
VERTEX
  5
3871
  8
0
 10
189.0880968401401958
 20
128.2156672538920077
 30
0.0
  0
VERTEX
  5
3872
  8
0
 10
189.049995766637295
 20
128.1389443593687076
 30
0.0
  0
VERTEX
  5
3873
  8
0
 10
189.0127654286426946
 20
128.0616111426782879
 30
0.0
  0
VERTEX
  5
3874
  8
0
 10
188.994481771501313
 20
128.0227217155863002
 30
0.0
  0
VERTEX
  5
3875
  8
0
 10
188.9764216901874079
 20
127.9836869839602969
 30
0.0
  0
VERTEX
  5
3876
  8
0
 10
188.9409797324215106
 20
127.9051914664532035
 30
0.0
  0
VERTEX
  5
3877
  8
0
 10
188.9064541605746115
 20
127.8261446013453053
 30
0.0
  0
VERTEX
  5
3878
  8
0
 10
188.8895394265962011
 20
127.7864207893726984
 30
0.0
  0
VERTEX
  5
3879
  8
0
 10
188.8728590037125912
 20
127.7465668441336959
 30
0.0
  0
VERTEX
  5
387A
  8
0
 10
188.8402076920480965
 20
127.6664790599857042
 30
0.0
  0
VERTEX
  5
387B
  8
0
 10
188.8085130365143129
 20
127.585902488748701
 30
0.0
  0
VERTEX
  5
387C
  8
0
 10
188.7777872105482118
 20
127.5048587096209047
 30
0.0
  0
VERTEX
  5
387D
  8
0
 10
188.7480417340148051
 20
127.4233696054218967
 30
0.0
  0
VERTEX
  5
387E
  8
0
 10
188.719287459213291
 20
127.3414573264043952
 30
0.0
  0
VERTEX
  5
387F
  8
0
 10
188.7052852282843105
 20
127.3003494823957027
 30
0.0
  0
VERTEX
  5
3880
  8
0
 10
188.6915345589193009
 20
127.259144253540498
 30
0.0
  0
VERTEX
  5
3881
  8
0
 10
188.6647925164238018
 20
127.1764529612179047
 30
0.0
  0
VERTEX
  5
3882
  8
0
 10
188.6390701175492097
 20
127.0934061792805068
 30
0.0
  0
VERTEX
  5
3883
  8
0
 10
188.6143754446250114
 20
127.0100267543430022
 30
0.0
  0
VERTEX
  5
3884
  8
0
 10
188.5907158724257897
 20
126.9263376103156986
 30
0.0
  0
VERTEX
  5
3885
  8
0
 10
188.5680980660760895
 20
126.8423617080665053
 30
0.0
  0
VERTEX
  5
3886
  8
0
 10
188.5571817113691111
 20
126.8002733882214983
 30
0.0
  0
VERTEX
  5
3887
  8
0
 10
188.546527495709114
 20
126.7581200589092987
 30
0.0
  0
VERTEX
  5
3888
  8
0
 10
188.5260071179974943
 20
126.6736255530591961
 30
0.0
  0
VERTEX
  5
3889
  8
0
 10
188.5065417077437075
 20
126.5888999460174063
 30
0.0
  0
VERTEX
  5
388A
  8
0
 10
188.4881357940728037
 20
126.5039667725408066
 30
0.0
  0
VERTEX
  5
388B
  8
0
 10
188.4707932638729915
 20
126.4188498779109011
 30
0.0
  0
VERTEX
  5
388C
  8
0
 10
188.4545173436503944
 20
126.3335733810956043
 30
0.0
  0
VERTEX
  5
388D
  8
0
 10
188.4467801860209875
 20
126.2908828847789948
 30
0.0
  0
VERTEX
  5
388E
  8
0
 10
188.4393105835777078
 20
126.2481616377418021
 30
0.0
  0
VERTEX
  5
388F
  8
0
 10
188.425174843688211
 20
126.1626392029474033
 30
0.0
  0
VERTEX
  5
3890
  8
0
 10
188.4121112821852932
 20
126.0770307937547017
 30
0.0
  0
VERTEX
  5
3891
  8
0
 10
188.3748321701881991
 20
125.7770836268094996
 30
0.0
  0
VERTEX
  5
3892
  8
0
 10
188.3412737641016861
 20
125.264224528826702
 30
0.0
  0
VERTEX
  5
3893
  8
0
 10
188.3386156517343863
 20
125.0098297551286066
 30
0.0
  0
VERTEX
  5
3894
  8
0
 10
188.345106870114904
 20
124.757705810639294
 30
0.0
  0
VERTEX
  5
3895
  8
0
 10
188.3843698983696129
 20
124.2630456078366024
 30
0.0
  0
VERTEX
  5
3896
  8
0
 10
188.4586620858169113
 20
123.771960425711498
 30
0.0
  0
VERTEX
  5
3897
  8
0
 10
188.5194011925709958
 20
123.4823954422709988
 30
0.0
  0
VERTEX
  5
3898
  8
0
 10
188.539165729970307
 20
123.3994737596366065
 30
0.0
  0
VERTEX
  5
3899
  8
0
 10
188.5600101199339917
 20
123.3165213966972971
 30
0.0
  0
VERTEX
  5
389A
  8
0
 10
188.5708383397434034
 20
123.275042677528603
 30
0.0
  0
VERTEX
  5
389B
  8
0
 10
188.5819377228802125
 20
123.2335670130376997
 30
0.0
  0
VERTEX
  5
389C
  8
0
 10
188.604951138515105
 20
123.1506389655883993
 30
0.0
  0
VERTEX
  5
389D
  8
0
 10
188.6290522302392105
 20
123.067765263524393
 30
0.0
  0
VERTEX
  5
389E
  8
0
 10
188.6542421523608937
 20
122.9849735245201003
 30
0.0
  0
VERTEX
  5
389F
  8
0
 10
188.6805213447914866
 20
122.9022910410985929
 30
0.0
  0
VERTEX
  5
38A0
  8
0
 10
188.7078894499865953
 20
122.8197450596618978
 30
0.0
  0
VERTEX
  5
38A1
  8
0
 10
188.7219815073854079
 20
122.7785317753718033
 30
0.0
  0
VERTEX
  5
38A2
  8
0
 10
188.7363452850802048
 20
122.7373628354374944
 30
0.0
  0
VERTEX
  5
38A3
  8
0
 10
188.7658868455445997
 20
122.6551715857374063
 30
0.0
  0
VERTEX
  5
38A4
  8
0
 10
188.7965113116777047
 20
122.5731984428918935
 30
0.0
  0
VERTEX
  5
38A5
  8
0
 10
188.8282150575786886
 20
122.4914704079885013
 30
0.0
  0
VERTEX
  5
38A6
  8
0
 10
188.8609936626523904
 20
122.4100143053434948
 30
0.0
  0
VERTEX
  5
38A7
  8
0
 10
188.8948419256844033
 20
122.3288567376336999
 30
0.0
  0
VERTEX
  5
38A8
  8
0
 10
188.9121653441617923
 20
122.2883981462065037
 30
0.0
  0
VERTEX
  5
38A9
  8
0
 10
188.9297538815505959
 20
122.2480240416310977
 30
0.0
  0
VERTEX
  5
38AA
  8
0
 10
188.9657228206247055
 20
122.1675422444872936
 30
0.0
  0
VERTEX
  5
38AB
  8
0
 10
189.0027413109631027
 20
122.0874370205301034
 30
0.0
  0
VERTEX
  5
38AC
  8
0
 10
189.0216416239690886
 20
122.047533539724796
 30
0.0
  0
VERTEX
  5
38AD
  8
0
 10
189.0408012233519912
 20
122.0077336485388031
 30
0.0
  0
VERTEX
  5
38AE
  8
0
 10
189.0798937593102949
 20
121.9284569694818003
 30
0.0
  0
VERTEX
  5
38AF
  8
0
 10
189.1200094821512891
 20
121.8496313447048038
 30
0.0
  0
VERTEX
  5
38B0
  8
0
 10
189.1404480310741008
 20
121.8103949443948011
 30
0.0
  0
VERTEX
  5
38B1
  8
0
 10
189.1611400440679063
 20
121.7712774386116052
 30
0.0
  0
VERTEX
  5
38B2
  8
0
 10
189.2032804487753026
 20
121.6934086001200939
 30
0.0
  0
VERTEX
  5
38B3
  8
0
 10
189.24642014057099
 20
121.6160476421089953
 30
0.0
  0
VERTEX
  5
38B4
  8
0
 10
189.29054734386321
 20
121.5392180200819041
 30
0.0
  0
VERTEX
  5
38B5
  8
0
 10
189.3356494768923142
 20
121.4629430017949971
 30
0.0
  0
VERTEX
  5
38B6
  8
0
 10
189.3817131651414911
 20
121.3872456175612058
 30
0.0
  0
VERTEX
  5
38B7
  8
0
 10
189.4051012000373078
 20
121.349620658330295
 30
0.0
  0
VERTEX
  5
38B8
  8
0
 10
189.4287242572729895
 20
121.3121486118767933
 30
0.0
  0
VERTEX
  5
38B9
  8
0
 10
189.4766678436155871
 20
121.2376743963252039
 30
0.0
  0
VERTEX
  5
38BA
  8
0
 10
189.525528277250686
 20
121.1638450037149966
 30
0.0
  0
VERTEX
  5
38BB
  8
0
 10
189.5752891977435013
 20
121.0906820434099984
 30
0.0
  0
VERTEX
  5
38BC
  8
0
 10
189.6259335575867055
 20
121.0182066578201017
 30
0.0
  0
VERTEX
  5
38BD
  8
0
 10
189.6774436514284901
 20
120.9464394800192935
 30
0.0
  0
VERTEX
  5
38BE
  8
0
 10
189.7035176436367863
 20
120.9108277674236973
 30
0.0
  0
VERTEX
  5
38BF
  8
0
 10
189.7298011481736921
 20
120.8754005924691057
 30
0.0
  0
VERTEX
  5
38C0
  8
0
 10
189.7829871260470895
 20
120.8051094868277033
 30
0.0
  0
VERTEX
  5
38C1
  8
0
 10
189.8369821107355051
 20
120.735585024835899
 30
0.0
  0
VERTEX
  5
38C2
  8
0
 10
189.8642767538651128
 20
120.7011159979570039
 30
0.0
  0
SEQEND
  5
38C3
  8
0
  0
POLYLINE
  5
2EA0
  8
0
 66
     1
 10
0.0
 20
0.0
 30
0.0
  0
VERTEX
  5
38C4
  8
0
 10
200.8125368592789073
 20
120.7011159979570039
 30
0.0
  0
VERTEX
  5
38C5
  8
0
 10
200.8398315024107887
 20
120.7355850248384996
 30
0.0
  0
VERTEX
  5
38C6
  8
0
 10
200.8938264870990054
 20
120.8051094868304034
 30
0.0
  0
VERTEX
  5
38C7
  8
0
 10
200.9470124649724028
 20
120.8754005924717063
 30
0.0
  0
VERTEX
  5
38C8
  8
0
 10
200.9732959695093086
 20
120.9108277674262979
 30
0.0
  0
VERTEX
  5
38C9
  8
0
 10
200.9993699617172922
 20
120.946439480021894
 30
0.0
  0
VERTEX
  5
38CA
  8
0
 10
201.0508800555591904
 20
121.0182066578227023
 30
0.0
  0
VERTEX
  5
38CB
  8
0
 10
201.1015244154023094
 20
121.090682043412599
 30
0.0
  0
VERTEX
  5
38CC
  8
0
 10
201.15128533589521
 20
121.1638450037175971
 30
0.0
  0
VERTEX
  5
38CD
  8
0
 10
201.2001457695303088
 20
121.237674396327904
 30
0.0
  0
VERTEX
  5
38CE
  8
0
 10
201.2480893558729065
 20
121.3121486118793939
 30
0.0
  0
VERTEX
  5
38CF
  8
0
 10
201.2717124131085882
 20
121.3496206583328956
 30
0.0
  0
VERTEX
  5
38D0
  8
0
 10
201.2951004480044048
 20
121.3872456175637069
 30
0.0
  0
VERTEX
  5
38D1
  8
0
 10
201.3411641362536102
 20
121.4629430017975977
 30
0.0
  0
VERTEX
  5
38D2
  8
0
 10
201.386266269282487
 20
121.5392180200845047
 30
0.0
  0
VERTEX
  5
38D3
  8
0
 10
201.430393472574508
 20
121.6160476421116954
 30
0.0
  0
VERTEX
  5
38D4
  8
0
 10
201.4735331643703091
 20
121.6934086001226945
 30
0.0
  0
VERTEX
  5
38D5
  8
0
 10
201.5156735690775918
 20
121.7712774386142058
 30
0.0
  0
VERTEX
  5
38D6
  8
0
 10
201.536365582071511
 20
121.8103949443974017
 30
0.0
  0
VERTEX
  5
38D7
  8
0
 10
201.5568041309940952
 20
121.8496313447074044
 30
0.0
  0
VERTEX
  5
38D8
  8
0
 10
201.5969198538350895
 20
121.9284569694843015
 30
0.0
  0
VERTEX
  5
38D9
  8
0
 10
201.6360123897935068
 20
122.0077336485413042
 30
0.0
  0
VERTEX
  5
38DA
  8
0
 10
201.6551719891762957
 20
122.0475335397272971
 30
0.0
  0
VERTEX
  5
38DB
  8
0
 10
201.6740723021823953
 20
122.087437020532505
 30
0.0
  0
VERTEX
  5
38DC
  8
0
 10
201.7110907925207073
 20
122.1675422444896952
 30
0.0
  0
VERTEX
  5
38DD
  8
0
 10
201.7470597315945895
 20
122.2480240416334993
 30
0.0
  0
VERTEX
  5
38DE
  8
0
 10
201.7646482689833078
 20
122.2883981462090048
 30
0.0
  0
VERTEX
  5
38DF
  8
0
 10
201.7819716874608105
 20
122.3288567376361016
 30
0.0
  0
VERTEX
  5
38E0
  8
0
 10
201.815819950492795
 20
122.410014305345797
 30
0.0
  0
VERTEX
  5
38E1
  8
0
 10
201.8485985555664968
 20
122.4914704079909029
 30
0.0
  0
VERTEX
  5
38E2
  8
0
 10
201.8803023014675091
 20
122.5731984428942951
 30
0.0
  0
VERTEX
  5
38E3
  8
0
 10
201.9109267676003014
 20
122.6551715857397937
 30
0.0
  0
VERTEX
  5
38E4
  8
0
 10
201.9404683280646964
 20
122.737362835439896
 30
0.0
  0
VERTEX
  5
38E5
  8
0
 10
201.954832105759607
 20
122.7785317753742049
 30
0.0
  0
VERTEX
  5
38E6
  8
0
 10
201.9689241631583911
 20
122.8197450596642994
 30
0.0
  0
VERTEX
  5
38E7
  8
0
 10
201.9962922683533009
 20
122.9022910411008951
 30
0.0
  0
VERTEX
  5
38E8
  8
0
 10
202.0225714607840928
 20
122.9849735245224025
 30
0.0
  0
VERTEX
  5
38E9
  8
0
 10
202.0477613829054917
 20
123.0677652635265957
 30
0.0
  0
VERTEX
  5
38EA
  8
0
 10
202.0718624746295973
 20
123.1506389655907014
 30
0.0
  0
VERTEX
  5
38EB
  8
0
 10
202.0948758902646034
 20
123.2335670130399023
 30
0.0
  0
VERTEX
  5
38EC
  8
0
 10
202.1059752734012989
 20
123.2750426775308057
 30
0.0
  0
VERTEX
  5
38ED
  8
0
 10
202.1168034932107105
 20
123.3165213966994997
 30
0.0
  0
VERTEX
  5
38EE
  8
0
 10
202.1376478831741963
 20
123.3994737596387949
 30
0.0
  0
VERTEX
  5
38EF
  8
0
 10
202.1574124205735927
 20
123.482395442273102
 30
0.0
  0
VERTEX
  5
38F0
  8
0
 10
202.218151527327592
 20
123.7719604257135018
 30
0.0
  0
VERTEX
  5
38F1
  8
0
 10
202.2924437147746914
 20
124.2630456078382934
 30
0.0
  0
VERTEX
  5
38F2
  8
0
 10
202.3317067430294003
 20
124.7577058106409993
 30
0.0
  0
VERTEX
  5
38F3
  8
0
 10
202.3381979614096053
 20
125.0098297551301982
 30
0.0
  0
VERTEX
  5
38F4
  8
0
 10
202.3355398490423056
 20
125.2642245288282936
 30
0.0
  0
VERTEX
  5
38F5
  8
0
 10
202.3205935092582877
 20
125.5629698044149052
 30
0.0
  0
VERTEX
  5
38F6
  8
0
 10
202.3139470893491136
 20
125.6485707590741043
 30
0.0
  0
VERTEX
  5
38F7
  8
0
 10
202.3062366727453991
 20
125.7342352905598943
 30
0.0
  0
VERTEX
  5
38F8
  8
0
 10
202.3019814429557925
 20
125.7770836268109065
 30
0.0
  0
VERTEX
  5
38F9
  8
0
 10
202.2974590776877903
 20
125.8199385216857991
 30
0.0
  0
VERTEX
  5
38FA
  8
0
 10
202.2876118506765124
 20
125.9056555025807995
 30
0.0
  0
VERTEX
  5
38FB
  8
0
 10
202.2766932673025906
 20
125.9913612513049941
 30
0.0
  0
VERTEX
  5
38FC
  8
0
 10
202.2647023309584995
 20
126.0770307937559949
 30
0.0
  0
VERTEX
  5
38FD
  8
0
 10
202.2516387694558944
 20
126.1626392029486965
 30
0.0
  0
VERTEX
  5
38FE
  8
0
 10
202.2375030295661134
 20
126.2481616377428963
 30
0.0
  0
VERTEX
  5
38FF
  8
0
 10
202.2300334271230895
 20
126.2908828847801033
 30
0.0
  0
VERTEX
  5
3900
  8
0
 10
202.2222962694933983
 20
126.3335733810966985
 30
0.0
  0
VERTEX
  5
3901
  8
0
 10
202.2060203492710002
 20
126.4188498779120948
 30
0.0
  0
VERTEX
  5
3902
  8
0
 10
202.188677819070989
 20
126.5039667725420003
 30
0.0
  0
VERTEX
  5
3903
  8
0
 10
202.1702719054001136
 20
126.588899946018401
 30
0.0
  0
VERTEX
  5
3904
  8
0
 10
202.1508064951462984
 20
126.6736255530602051
 30
0.0
  0
VERTEX
  5
3905
  8
0
 10
202.1302861174347072
 20
126.758120058910194
 30
0.0
  0
VERTEX
  5
3906
  8
0
 10
202.1196319017747101
 20
126.8002733882224931
 30
0.0
  0
VERTEX
  5
3907
  8
0
 10
202.1087155470677033
 20
126.8423617080674006
 30
0.0
  0
VERTEX
  5
3908
  8
0
 10
202.0860977407180883
 20
126.9263376103165939
 30
0.0
  0
VERTEX
  5
3909
  8
0
 10
202.0624381685188098
 20
127.0100267543438974
 30
0.0
  0
VERTEX
  5
390A
  8
0
 10
202.0377434955946967
 20
127.0934061792813026
 30
0.0
  0
VERTEX
  5
390B
  8
0
 10
202.012021096719991
 20
127.1764529612187005
 30
0.0
  0
VERTEX
  5
390C
  8
0
 10
201.9852790542244918
 20
127.2591442535412938
 30
0.0
  0
VERTEX
  5
390D
  8
0
 10
201.9715283848597949
 20
127.3003494823964985
 30
0.0
  0
VERTEX
  5
390E
  8
0
 10
201.9575261539305018
 20
127.3414573264052052
 30
0.0
  0
VERTEX
  5
390F
  8
0
 10
201.9287718791291866
 20
127.4233696054225931
 30
0.0
  0
VERTEX
  5
3910
  8
0
 10
201.8990264025956094
 20
127.5048587096216011
 30
0.0
  0
VERTEX
  5
3911
  8
0
 10
201.8683005766295082
 20
127.5859024887493973
 30
0.0
  0
VERTEX
  5
3912
  8
0
 10
201.8366059210956962
 20
127.6664790599863011
 30
0.0
  0
VERTEX
  5
3913
  8
0
 10
201.8039546094312016
 20
127.7465668441341933
 30
0.0
  0
VERTEX
  5
3914
  8
0
 10
201.7872741865475916
 20
127.7864207893731958
 30
0.0
  0
VERTEX
  5
3915
  8
0
 10
201.7703594525692097
 20
127.8261446013458027
 30
0.0
  0
VERTEX
  5
3916
  8
0
 10
201.7358338807225948
 20
127.9051914664538003
 30
0.0
  0
VERTEX
  5
3917
  8
0
 10
201.7003919229566975
 20
127.9836869839608937
 30
0.0
  0
VERTEX
  5
3918
  8
0
 10
201.6823318416425082
 20
128.0227217155868118
 30
0.0
  0
VERTEX
  5
3919
  8
0
 10
201.5693448713311966
 20
128.2537938025305095
 30
0.0
  0
VERTEX
  5
391A
  8
0
 10
201.3210524614476071
 20
128.6981763004220056
 30
0.0
  0
VERTEX
  5
391B
  8
0
 10
201.0466052901504099
 20
129.1156261574230086
 30
0.0
  0
VERTEX
  5
391C
  8
0
 10
200.8991958000902116
 20
129.3156809541575001
 30
0.0
  0
SEQEND
  5
391D
  8
0
  0
POLYLINE
  5
2EA1
  8
0
 66
     1
 10
0.0
 20
0.0
 30
0.0
  0
VERTEX
  5
391E
  8
0
 10
191.3227479591585052
 20
105.2872806243354944
 30
0.0
  0
VERTEX
  5
391F
  8
0
 10
191.2970145850383972
 20
105.1162775074951981
 30
0.0
  0
VERTEX
  5
3920
  8
0
 10
191.2635954915865
 20
104.7758651004438946
 30
0.0
  0
VERTEX
  5
3921
  8
0
 10
191.2535023299529087
 20
104.4402809367174001
 30
0.0
  0
VERTEX
  5
3922
  8
0
 10
191.256893775444496
 20
104.2728810682710048
 30
0.0
  0
SEQEND
  5
3923
  8
0
  0
POLYLINE
  5
2EA2
  8
0
 66
     1
 10
0.0
 20
0.0
 30
0.0
  0
VERTEX
  5
3924
  8
0
 10
189.8642767538651128
 20
120.7011159979570039
 30
0.0
  0
VERTEX
  5
3925
  8
0
 10
190.012173948820589
 20
120.2935624160042067
 30
0.0
  0
VERTEX
  5
3926
  8
0
 10
190.2888322418847906
 20
119.4765674245273033
 30
0.0
  0
VERTEX
  5
3927
  8
0
 10
190.5399188469943965
 20
118.6587159487743008
 30
0.0
  0
VERTEX
  5
3928
  8
0
 10
190.6558839113253896
 20
118.2501098040097958
 30
0.0
  0
VERTEX
  5
3929
  8
0
 10
190.7654876347806123
 20
117.8420664168513952
 30
0.0
  0
VERTEX
  5
392A
  8
0
 10
190.9657404669351024
 20
117.0287349416100966
 30
0.0
  0
VERTEX
  5
392B
  8
0
 10
191.1411396114633021
 20
116.2203524119826028
 30
0.0
  0
VERTEX
  5
392C
  8
0
 10
191.295188279228995
 20
115.4016706958074963
 30
0.0
  0
VERTEX
  5
392D
  8
0
 10
191.4283081813034073
 20
114.5661984619401039
 30
0.0
  0
VERTEX
  5
392E
  8
0
 10
191.5391402968816976
 20
113.7158988461927009
 30
0.0
  0
VERTEX
  5
392F
  8
0
 10
191.5858195261697858
 20
113.2858141237639984
 30
0.0
  0
VERTEX
  5
3930
  8
0
 10
191.6264935598032935
 20
112.852776141650196
 30
0.0
  0
VERTEX
  5
3931
  8
0
 10
191.6893490971563097
 20
111.9788525250203008
 30
0.0
  0
VERTEX
  5
3932
  8
0
 10
191.7268606240783981
 20
111.0961503660196001
 30
0.0
  0
VERTEX
  5
3933
  8
0
 10
191.7383523136398082
 20
110.2067216444351061
 30
0.0
  0
VERTEX
  5
3934
  8
0
 10
191.7233220415236872
 20
109.3126613957667956
 30
0.0
  0
VERTEX
  5
3935
  8
0
 10
191.6814455434648039
 20
108.4160838675888954
 30
0.0
  0
VERTEX
  5
3936
  8
0
 10
191.6503874630361111
 20
107.9675104796953065
 30
0.0
  0
VERTEX
  5
3937
  8
0
 10
191.6125765094081999
 20
107.5190913451492065
 30
0.0
  0
VERTEX
  5
3938
  8
0
 10
191.5167171963703083
 20
106.6235405332695052
 30
0.0
  0
VERTEX
  5
3939
  8
0
 10
191.3940384999249886
 20
105.7314070511420994
 30
0.0
  0
VERTEX
  5
393A
  8
0
 10
191.3227479591585052
 20
105.2872806243354944
 30
0.0
  0
SEQEND
  5
393B
  8
0
  0
POLYLINE
  5
2EA3
  8
0
 66
     1
 10
0.0
 20
0.0
 30
0.0
  0
VERTEX
  5
393C
  8
0
 10
192.7654901736437125
 20
131.5739018242441034
 30
0.0
  0
VERTEX
  5
393D
  8
0
 10
192.7652857556909112
 20
131.5738210293889097
 30
0.0
  0
VERTEX
  5
393E
  8
0
 10
192.7636753507713081
 20
131.5731842678403893
 30
0.0
  0
VERTEX
  5
393F
  8
0
 10
192.7605174135360073
 20
131.5719342671006018
 30
0.0
  0
VERTEX
  5
3940
  8
0
 10
192.7583781396421898
 20
131.5710864749067923
 30
0.0
  0
VERTEX
  5
3941
  8
0
 10
192.7558757441555883
 20
131.5700937451495065
 30
0.0
  0
VERTEX
  5
3942
  8
0
 10
192.7498119869759989
 20
131.5676835595085947
 30
0.0
  0
VERTEX
  5
3943
  8
0
 10
192.7423854767907869
 20
131.5647227920389071
 30
0.0
  0
VERTEX
  5
3944
  8
0
 10
192.7336532048923061
 20
131.5612288650000039
 30
0.0
  0
VERTEX
  5
3945
  8
0
 10
192.7236698853307075
 20
131.5572176823168036
 30
0.0
  0
VERTEX
  5
3946
  8
0
 10
192.7124880946435042
 20
131.5527037874992971
 30
0.0
  0
VERTEX
  5
3947
  8
0
 10
192.7064636410883907
 20
131.5502625275709931
 30
0.0
  0
VERTEX
  5
3948
  8
0
 10
192.7001583249474947
 20
131.5477004754366135
 30
0.0
  0
VERTEX
  5
3949
  8
0
 10
192.686728709439592
 20
131.5422197594174065
 30
0.0
  0
VERTEX
  5
394A
  8
0
 10
192.6722449483592925
 20
131.5362724058635138
 30
0.0
  0
VERTEX
  5
394B
  8
0
 10
192.6567504144358907
 20
131.5298680315881938
 30
0.0
  0
VERTEX
  5
394C
  8
0
 10
192.6402863127713943
 20
131.5230152154869074
 30
0.0
  0
VERTEX
  5
394D
  8
0
 10
192.6228918730751047
 20
131.5157216176012014
 30
0.0
  0
VERTEX
  5
394E
  8
0
 10
192.6138575464256064
 20
131.5119116977660099
 30
0.0
  0
VERTEX
  5
394F
  8
0
 10
192.6046045563952873
 20
131.5079940998813868
 30
0.0
  0
VERTEX
  5
3950
  8
0
 10
192.5854605559877086
 20
131.4998389697881009
 30
0.0
  0
VERTEX
  5
3951
  8
0
 10
192.5654978223817011
 20
131.4912633175316898
 30
0.0
  0
VERTEX
  5
3952
  8
0
 10
192.5552205485925867
 20
131.4868197167128017
 30
0.0
  0
VERTEX
  5
3953
  8
0
 10
192.5447515895639015
 20
131.4822731541441954
 30
0.0
  0
VERTEX
  5
3954
  8
0
 10
192.5232547560522107
 20
131.472873577376788
 30
0.0
  0
VERTEX
  5
3955
  8
0
 10
192.5010386311028014
 20
131.4630691010727048
 30
0.0
  0
VERTEX
  5
3956
  8
0
 10
192.4896702139351135
 20
131.4580162919222914
 30
0.0
  0
VERTEX
  5
3957
  8
0
 10
192.4781330571813101
 20
131.452863717896804
 30
0.0
  0
VERTEX
  5
3958
  8
0
 10
192.4545665371967971
 20
131.4422609628257987
 30
0.0
  0
VERTEX
  5
3959
  8
0
 10
192.4303663613638946
 20
131.4312639757974068
 30
0.0
  0
VERTEX
  5
395A
  8
0
 10
192.4055587298410046
 20
131.4198755622967099
 30
0.0
  0
VERTEX
  5
395B
  8
0
 10
192.3801688683799966
 20
131.4080982509825901
 30
0.0
  0
VERTEX
  5
395C
  8
0
 10
192.3542211351382036
 20
131.395934347724193
 30
0.0
  0
VERTEX
  5
395D
  8
0
 10
192.3410454653387092
 20
131.3897080961812946
 30
0.0
  0
VERTEX
  5
395E
  8
0
 10
192.3277391175238051
 20
131.3833859856391086
 30
0.0
  0
VERTEX
  5
395F
  8
0
 10
192.3007457185169073
 20
131.3704551708920008
 30
0.0
  0
VERTEX
  5
3960
  8
0
 10
192.2732632323381949
 20
131.3571438241463056
 30
0.0
  0
VERTEX
  5
3961
  8
0
 10
192.173538114417596
 20
131.3075871271257995
 30
0.0
  0
VERTEX
  5
3962
  8
0
 10
191.9922840757535027
 20
131.2123538790542909
 30
0.0
  0
VERTEX
  5
3963
  8
0
 10
191.8019909092681132
 20
131.1049085781963015
 30
0.0
  0
VERTEX
  5
3964
  8
0
 10
191.6066931301868124
 20
130.9862588750710017
 30
0.0
  0
VERTEX
  5
3965
  8
0
 10
191.5083241013128088
 20
130.9231224610587105
 30
0.0
  0
VERTEX
  5
3966
  8
0
 10
191.4100515845823054
 20
130.8576937820093917
 30
0.0
  0
VERTEX
  5
3967
  8
0
 10
191.2154231697695081
 20
130.7208449855866093
 30
0.0
  0
VERTEX
  5
3968
  8
0
 10
191.0227517198219971
 20
130.5752647384611862
 30
0.0
  0
VERTEX
  5
3969
  8
0
 10
190.827032528569589
 20
130.4162379612760105
 30
0.0
  0
VERTEX
  5
396A
  8
0
 10
190.6300179070939862
 20
130.2437738276117898
 30
0.0
  0
VERTEX
  5
396B
  8
0
 10
190.433682318006305
 20
130.058266417589607
 30
0.0
  0
VERTEX
  5
396C
  8
0
 10
190.3363547898223089
 20
129.9607861011828902
 30
0.0
  0
VERTEX
  5
396D
  8
0
 10
190.2398871120450963
 20
129.8602647092353095
 30
0.0
  0
VERTEX
  5
396E
  8
0
 10
190.0503869263311003
 20
129.6504959578224998
 30
0.0
  0
VERTEX
  5
396F
  8
0
 10
189.8667773748192928
 20
129.4298234178573068
 30
0.0
  0
VERTEX
  5
3970
  8
0
 10
189.7776178130538938
 20
129.3156809541575001
 30
0.0
  0
SEQEND
  5
3971
  8
0
  0
LINE
  5
2EA4
  8
0
 10
192.7654901736437125
 20
131.5739018242441034
 30
0.0
 11
197.9113234395005918
 21
131.5739018242441034
 31
0.0
  0
POLYLINE
  5
2EA5
  8
0
 66
     1
 10
0.0
 20
0.0
 30
0.0
  0
VERTEX
  5
3972
  8
0
 10
200.8991958000902116
 20
129.3156809541575001
 30
0.0
  0
VERTEX
  5
3973
  8
0
 10
200.8100362383248125
 20
129.4298234178573068
 30
0.0
  0
VERTEX
  5
3974
  8
0
 10
200.6264266868130903
 20
129.6504959578224998
 30
0.0
  0
VERTEX
  5
3975
  8
0
 10
200.4369265010990944
 20
129.8602647092353095
 30
0.0
  0
VERTEX
  5
3976
  8
0
 10
200.3404588233217964
 20
129.9607861011828902
 30
0.0
  0
VERTEX
  5
3977
  8
0
 10
200.2431312951378004
 20
130.058266417589607
 30
0.0
  0
VERTEX
  5
3978
  8
0
 10
200.0467957060500055
 20
130.2437738276117898
 30
0.0
  0
VERTEX
  5
3979
  8
0
 10
199.849781084574488
 20
130.4162379612760105
 30
0.0
  0
VERTEX
  5
397A
  8
0
 10
199.6540618933221936
 20
130.5752647384611862
 30
0.0
  0
VERTEX
  5
397B
  8
0
 10
199.461390443374512
 20
130.7208449855866093
 30
0.0
  0
VERTEX
  5
397C
  8
0
 10
199.2667620285616863
 20
130.8576937820093917
 30
0.0
  0
VERTEX
  5
397D
  8
0
 10
199.1684895118312113
 20
130.9231224610587105
 30
0.0
  0
VERTEX
  5
397E
  8
0
 10
199.0701204829574067
 20
130.9862588750710017
 30
0.0
  0
VERTEX
  5
397F
  8
0
 10
198.8748227038761058
 20
131.1049085781963015
 30
0.0
  0
VERTEX
  5
3980
  8
0
 10
198.6845295373906879
 20
131.2123538790542909
 30
0.0
  0
VERTEX
  5
3981
  8
0
 10
198.5032754987263957
 20
131.3075871271257995
 30
0.0
  0
VERTEX
  5
3982
  8
0
 10
198.4035503808057967
 20
131.3571438241463056
 30
0.0
  0
VERTEX
  5
3983
  8
0
 10
198.3760678946273117
 20
131.3704551708920008
 30
0.0
  0
VERTEX
  5
3984
  8
0
 10
198.3490744956201866
 20
131.3833859856391086
 30
0.0
  0
VERTEX
  5
3985
  8
0
 10
198.3357681478055099
 20
131.3897080961812946
 30
0.0
  0
VERTEX
  5
3986
  8
0
 10
198.3225924780057881
 20
131.395934347724193
 30
0.0
  0
VERTEX
  5
3987
  8
0
 10
198.2966447447641087
 20
131.4080982509825901
 30
0.0
  0
VERTEX
  5
3988
  8
0
 10
198.2712548833032997
 20
131.4198755622967099
 30
0.0
  0
VERTEX
  5
3989
  8
0
 10
198.2464472517804097
 20
131.4312639757974068
 30
0.0
  0
VERTEX
  5
398A
  8
0
 10
198.2222470759475073
 20
131.4422609628257987
 30
0.0
  0
VERTEX
  5
398B
  8
0
 10
198.1986805559627101
 20
131.452863717896804
 30
0.0
  0
VERTEX
  5
398C
  8
0
 10
198.1871433992089067
 20
131.4580162919222914
 30
0.0
  0
VERTEX
  5
398D
  8
0
 10
198.1757749820413039
 20
131.4630691010727048
 30
0.0
  0
VERTEX
  5
398E
  8
0
 10
198.1535588570920936
 20
131.472873577376788
 30
0.0
  0
VERTEX
  5
398F
  8
0
 10
198.1320620235804029
 20
131.4822731541441954
 30
0.0
  0
VERTEX
  5
3990
  8
0
 10
198.121593064551405
 20
131.4868197167128017
 30
0.0
  0
VERTEX
  5
3991
  8
0
 10
198.1113157907624895
 20
131.4912633175316898
 30
0.0
  0
VERTEX
  5
3992
  8
0
 10
198.0913530571565104
 20
131.4998389697881009
 30
0.0
  0
VERTEX
  5
3993
  8
0
 10
198.0722090567487044
 20
131.5079940998813868
 30
0.0
  0
VERTEX
  5
3994
  8
0
 10
198.0629560667184137
 20
131.5119116977660099
 30
0.0
  0
VERTEX
  5
3995
  8
0
 10
198.0539217400691996
 20
131.5157216176012014
 30
0.0
  0
VERTEX
  5
3996
  8
0
 10
198.0365273003729101
 20
131.5230152154869074
 30
0.0
  0
VERTEX
  5
3997
  8
0
 10
198.020063198708101
 20
131.5298680315881938
 30
0.0
  0
VERTEX
  5
3998
  8
0
 10
198.0045686647846992
 20
131.5362724058635138
 30
0.0
  0
VERTEX
  5
3999
  8
0
 10
197.9900849037043997
 20
131.5422197594174065
 30
0.0
  0
VERTEX
  5
399A
  8
0
 10
197.9766552881964969
 20
131.5477004754366135
 30
0.0
  0
VERTEX
  5
399B
  8
0
 10
197.9703499720558
 20
131.5502625275709931
 30
0.0
  0
VERTEX
  5
399C
  8
0
 10
197.9643255185008002
 20
131.5527037874992971
 30
0.0
  0
VERTEX
  5
399D
  8
0
 10
197.9531437278133126
 20
131.5572176823168036
 30
0.0
  0
VERTEX
  5
399E
  8
0
 10
197.943160408251714
 20
131.5612288650000039
 30
0.0
  0
VERTEX
  5
399F
  8
0
 10
197.934428136353489
 20
131.5647227920389071
 30
0.0
  0
VERTEX
  5
39A0
  8
0
 10
197.9270016261681917
 20
131.5676835595085947
 30
0.0
  0
VERTEX
  5
39A1
  8
0
 10
197.9209378689884034
 20
131.5700937451495065
 30
0.0
  0
VERTEX
  5
39A2
  8
0
 10
197.9184354735020861
 20
131.5710864749067923
 30
0.0
  0
VERTEX
  5
39A3
  8
0
 10
197.9162961996080128
 20
131.5719342671006018
 30
0.0
  0
VERTEX
  5
39A4
  8
0
 10
197.913138262372712
 20
131.5731842678403893
 30
0.0
  0
VERTEX
  5
39A5
  8
0
 10
197.9115278574531089
 20
131.5738210293889097
 30
0.0
  0
VERTEX
  5
39A6
  8
0
 10
197.9113234395005918
 20
131.5739018242441034
 30
0.0
  0
SEQEND
  5
39A7
  8
0
  0
POLYLINE
  5
2EA6
  8
0
 66
     1
 10
0.0
 20
0.0
 30
0.0
  0
VERTEX
  5
39A8
  8
0
 10
194.3597390052946139
 20
129.3156809541575001
 30
0.0
  0
VERTEX
  5
39A9
  8
0
 10
194.4142025563693892
 20
129.3274490935824019
 30
0.0
  0
VERTEX
  5
39AA
  8
0
 10
194.5233367587642874
 20
129.3489110096188881
 30
0.0
  0
VERTEX
  5
39AB
  8
0
 10
194.6326446599144049
 20
129.3676110328516984
 30
0.0
  0
VERTEX
  5
39AC
  8
0
 10
194.6873247005086967
 20
129.3759281586573024
 30
0.0
  0
VERTEX
  5
39AD
  8
0
 10
194.7420007270249869
 20
129.3835589122481053
 30
0.0
  0
VERTEX
  5
39AE
  8
0
 10
194.8512751222671966
 20
129.3967702908344108
 30
0.0
  0
VERTEX
  5
39AF
  8
0
 10
194.9603348982045077
 20
129.4072672957267969
 30
0.0
  0
VERTEX
  5
39B0
  8
0
 10
195.0690452530361085
 20
129.4150789744620909
 30
0.0
  0
VERTEX
  5
39B1
  8
0
 10
195.1772708571506882
 20
129.4202415752544937
 30
0.0
  0
VERTEX
  5
39B2
  8
0
 10
195.284877245610005
 20
129.4227986649738966
 30
0.0
  0
VERTEX
  5
39B3
  8
0
 10
195.3384068065720101
 20
129.423115750103193
 30
0.0
  0
VERTEX
  5
39B4
  8
0
 10
195.3919363675341003
 20
129.4227986649738966
 30
0.0
  0
VERTEX
  5
39B5
  8
0
 10
195.4995427559935877
 20
129.4202415752544937
 30
0.0
  0
VERTEX
  5
39B6
  8
0
 10
195.6077683601079116
 20
129.4150789744620909
 30
0.0
  0
VERTEX
  5
39B7
  8
0
 10
195.7164787149395124
 20
129.4072672957267969
 30
0.0
  0
VERTEX
  5
39B8
  8
0
 10
195.8255384908767951
 20
129.3967702908344108
 30
0.0
  0
VERTEX
  5
39B9
  8
0
 10
195.9348128861190048
 20
129.3835589122481053
 30
0.0
  0
VERTEX
  5
39BA
  8
0
 10
195.9894889126356077
 20
129.3759281586573024
 30
0.0
  0
VERTEX
  5
39BB
  8
0
 10
196.0441689532297005
 20
129.3676110328516984
 30
0.0
  0
VERTEX
  5
39BC
  8
0
 10
196.1534768543799032
 20
129.3489110096188881
 30
0.0
  0
VERTEX
  5
39BD
  8
0
 10
196.2626110567746025
 20
129.3274490935824019
 30
0.0
  0
VERTEX
  5
39BE
  8
0
 10
196.3170746078494062
 20
129.3156809541575001
 30
0.0
  0
SEQEND
  5
39BF
  8
0
  0
POLYLINE
  5
2EA7
  8
0
 66
     1
 10
0.0
 20
0.0
 30
0.0
  0
VERTEX
  5
39C0
  8
0
 10
196.3170746078494062
 20
129.3156809541575001
 30
0.0
  0
VERTEX
  5
39C1
  8
0
 10
196.439612127820709
 20
129.2866007235577115
 30
0.0
  0
VERTEX
  5
39C2
  8
0
 10
196.6826224470686952
 20
129.2180286030385048
 30
0.0
  0
VERTEX
  5
39C3
  8
0
 10
196.9216727667285056
 20
129.1358437752558075
 30
0.0
  0
VERTEX
  5
39C4
  8
0
 10
197.0392766193974126
 20
129.0897909656600859
 30
0.0
  0
VERTEX
  5
39C5
  8
0
 10
197.1554156426007012
 20
129.040513453718404
 30
0.0
  0
VERTEX
  5
39C6
  8
0
 10
197.3827390604247114
 20
128.9325928105104992
 30
0.0
  0
VERTEX
  5
39C7
  8
0
 10
197.6024365031900913
 20
128.8128589121928087
 30
0.0
  0
VERTEX
  5
39C8
  8
0
 10
197.8133673543634075
 20
128.6822680021305985
 30
0.0
  0
VERTEX
  5
39C9
  8
0
 10
198.0145207260997893
 20
128.5419220793276054
 30
0.0
  0
VERTEX
  5
39CA
  8
0
 10
198.2049956311350059
 20
128.3930790842119052
 30
0.0
  0
VERTEX
  5
39CB
  8
0
 10
198.2959750939182868
 20
128.315910208173392
 30
0.0
  0
VERTEX
  5
39CC
  8
0
 10
198.3839976951061885
 20
128.237162425312988
 30
0.0
  0
VERTEX
  5
39CD
  8
0
 10
198.5520953322900084
 20
128.0744949955337972
 30
0.0
  0
VERTEX
  5
39CE
  8
0
 10
198.7131816789296863
 20
127.9014087912386941
 30
0.0
  0
VERTEX
  5
39CF
  8
0
 10
198.8665321816656046
 20
127.7180905427652959
 30
0.0
  0
VERTEX
  5
39D0
  8
0
 10
199.0110456033492028
 20
127.5252948776769983
 30
0.0
  0
VERTEX
  5
39D1
  8
0
 10
199.1457628066121117
 20
127.3238504841231986
 30
0.0
  0
VERTEX
  5
39D2
  8
0
 10
199.2091836205165976
 20
127.2201649123175997
 30
0.0
  0
VERTEX
  5
39D3
  8
0
 10
199.2698524815270957
 20
127.114665266901099
 30
0.0
  0
VERTEX
  5
39D4
  8
0
 10
199.3826013152007874
 20
126.8987382483835944
 30
0.0
  0
VERTEX
  5
39D5
  8
0
 10
199.4834331142820076
 20
126.677123718589101
 30
0.0
  0
VERTEX
  5
39D6
  8
0
 10
199.5292530088312901
 20
126.5644857196600981
 30
0.0
  0
VERTEX
  5
39D7
  8
0
 10
199.5719508879508055
 20
126.4508021584206006
 30
0.0
  0
VERTEX
  5
39D8
  8
0
 10
199.6478349271100967
 20
126.2208892921493941
 30
0.0
  0
VERTEX
  5
39D9
  8
0
 10
199.7108804190272053
 20
125.9885990267853941
 30
0.0
  0
VERTEX
  5
39DA
  8
0
 10
199.7375644454612029
 20
125.8719502522719011
 30
0.0
  0
VERTEX
  5
39DB
  8
0
 10
199.7610284249655876
 20
125.7551737708022017
 30
0.0
  0
VERTEX
  5
39DC
  8
0
 10
199.7983670627058927
 20
125.5218778782377029
 30
0.0
  0
VERTEX
  5
39DD
  8
0
 10
199.8231308033556957
 20
125.2900238752387025
 30
0.0
  0
VERTEX
  5
39DE
  8
0
 10
199.8357117879700127
 20
125.0609502716842059
 30
0.0
  0
VERTEX
  5
39DF
  8
0
 10
199.8365689258345981
 20
124.8314425412290944
 30
0.0
  0
VERTEX
  5
39E0
  8
0
 10
199.8254183793723939
 20
124.5984618673741977
 30
0.0
  0
VERTEX
  5
39E1
  8
0
 10
199.8151863440093052
 20
124.4810670139290067
 30
0.0
  0
VERTEX
  5
39E2
  8
0
 10
199.8017869408114962
 20
124.3632813155161045
 30
0.0
  0
VERTEX
  5
39E3
  8
0
 10
199.7653526908117954
 20
124.1271633165874988
 30
0.0
  0
VERTEX
  5
39E4
  8
0
 10
199.7159357751093012
 20
123.8913354427813971
 30
0.0
  0
VERTEX
  5
39E5
  8
0
 10
199.6534977916213904
 20
123.6570151545847978
 30
0.0
  0
VERTEX
  5
39E6
  8
0
 10
199.5781431519988018
 20
123.4254088878142994
 30
0.0
  0
VERTEX
  5
39E7
  8
0
 10
199.4901015560311919
 20
123.1976588155168031
 30
0.0
  0
VERTEX
  5
39E8
  8
0
 10
199.4414093602821936
 20
123.0855300598854001
 30
0.0
  0
VERTEX
  5
39E9
  8
0
 10
199.3896697015414077
 20
122.9747403824548968
 30
0.0
  0
VERTEX
  5
39EA
  8
0
 10
199.2773102365302123
 20
122.7577172788804063
 30
0.0
  0
VERTEX
  5
39EB
  8
0
 10
199.1536310287544893
 20
122.5476328643714936
 30
0.0
  0
VERTEX
  5
39EC
  8
0
 10
199.0193617503229859
 20
122.3454526993265006
 30
0.0
  0
VERTEX
  5
39ED
  8
0
 10
198.8753518667622018
 20
122.1520614780366003
 30
0.0
  0
VERTEX
  5
39EE
  8
0
 10
198.7225917156224
 20
121.9682834734143029
 30
0.0
  0
VERTEX
  5
39EF
  8
0
 10
198.6432766342838931
 20
121.8802341058425043
 30
0.0
  0
VERTEX
  5
39F0
  8
0
 10
198.562204257168105
 20
121.7948556371801061
 30
0.0
  0
VERTEX
  5
39F1
  8
0
 10
198.3926188895009091
 20
121.6298042876231023
 30
0.0
  0
VERTEX
  5
39F2
  8
0
 10
198.2112688926090129
 20
121.4711514223383944
 30
0.0
  0
VERTEX
  5
39F3
  8
0
 10
198.0188223931847915
 20
121.3203167851186066
 30
0.0
  0
VERTEX
  5
39F4
  8
0
 10
197.8160770581301051
 20
121.1785861064910961
 30
0.0
  0
VERTEX
  5
39F5
  8
0
 10
197.6039223120151007
 20
121.0470891295837959
 30
0.0
  0
VERTEX
  5
39F6
  8
0
 10
197.4946264881355091
 20
120.9854950369946067
 30
0.0
  0
VERTEX
  5
39F7
  8
0
 10
197.3833658576077141
 20
120.9268228957943023
 30
0.0
  0
VERTEX
  5
39F8
  8
0
 10
197.1555266796690091
 20
120.8186436827591024
 30
0.0
  0
VERTEX
  5
39F9
  8
0
 10
196.9215296930296972
 20
120.723221406587399
 30
0.0
  0
VERTEX
  5
39FA
  8
0
 10
196.6824504881265057
 20
120.6410459706042957
 30
0.0
  0
VERTEX
  5
39FB
  8
0
 10
196.4396048227669951
 20
120.5725337842812053
 30
0.0
  0
VERTEX
  5
39FC
  8
0
 10
196.1943778789353985
 20
120.5179365089456951
 30
0.0
  0
VERTEX
  5
39FD
  8
0
 10
196.0713090153280973
 20
120.4958853344073049
 30
0.0
  0
VERTEX
  5
39FE
  8
0
 10
195.948173160494207
 20
120.4773261857367004
 30
0.0
  0
VERTEX
  5
39FF
  8
0
 10
195.7024381947051097
 20
120.4506002747651934
 30
0.0
  0
VERTEX
  5
3A00
  8
0
 10
195.4586748779553886
 20
120.4374738834361978
 30
0.0
  0
VERTEX
  5
3A01
  8
0
 10
195.3380043417539014
 20
120.4358682508891008
 30
0.0
  0
VERTEX
  5
3A02
  8
0
 10
195.2173273718883024
 20
120.4374956248196042
 30
0.0
  0
VERTEX
  5
3A03
  8
0
 10
194.9735549266310954
 20
120.4506668686672981
 30
0.0
  0
VERTEX
  5
3A04
  8
0
 10
194.7278158987626
 20
120.4774389080806998
 30
0.0
  0
VERTEX
  5
3A05
  8
0
 10
194.6046798872559975
 20
120.496021397814701
 30
0.0
  0
VERTEX
  5
3A06
  8
0
 10
194.4816120798080021
 20
120.5180959974143065
 30
0.0
  0
VERTEX
  5
3A07
  8
0
 10
194.2363907739961064
 20
120.5727400923699975
 30
0.0
  0
VERTEX
  5
3A08
  8
0
 10
193.9935554303851859
 20
120.6412985542300049
 30
0.0
  0
VERTEX
  5
3A09
  8
0
 10
193.7544911115550974
 20
120.7235191292575962
 30
0.0
  0
VERTEX
  5
3A0A
  8
0
 10
193.5205130803140037
 20
120.8189849731972032
 30
0.0
  0
VERTEX
  5
3A0B
  8
0
 10
193.2926963364384108
 20
120.9272059159875994
 30
0.0
  0
VERTEX
  5
3A0C
  8
0
 10
193.1814483953118895
 20
120.9858979794908009
 30
0.0
  0
VERTEX
  5
3A0D
  8
0
 10
193.0721662015614015
 20
121.0475112751985023
 30
0.0
  0
VERTEX
  5
3A0E
  8
0
 10
192.8600413574469883
 20
121.1790442582736063
 30
0.0
  0
VERTEX
  5
3A0F
  8
0
 10
192.6573290809803893
 20
121.3208073926481063
 30
0.0
  0
VERTEX
  5
3A10
  8
0
 10
192.4649184673160107
 20
121.4716704447774021
 30
0.0
  0
VERTEX
  5
3A11
  8
0
 10
192.2836068458165926
 20
121.6303471650416981
 30
0.0
  0
VERTEX
  5
3A12
  8
0
 10
192.1140608515547967
 20
121.7954184308119068
 30
0.0
  0
VERTEX
  5
3A13
  8
0
 10
192.0329997277337952
 20
121.8808150409667945
 30
0.0
  0
VERTEX
  5
3A14
  8
0
 10
191.9536969333483114
 20
121.9688820320577065
 30
0.0
  0
VERTEX
  5
3A15
  8
0
 10
191.8009642800653012
 20
122.1526935188629039
 30
0.0
  0
VERTEX
  5
3A16
  8
0
 10
191.6569854431506883
 20
122.3461155871726049
 30
0.0
  0
VERTEX
  5
3A17
  8
0
 10
191.5227502864213136
 20
122.5483237335018032
 30
0.0
  0
VERTEX
  5
3A18
  8
0
 10
191.3991078323570036
 20
122.7584330475687011
 30
0.0
  0
VERTEX
  5
3A19
  8
0
 10
191.2867873699304084
 20
122.975477669852296
 30
0.0
  0
VERTEX
  5
3A1A
  8
0
 10
191.2350679212088096
 20
123.086276769238097
 30
0.0
  0
VERTEX
  5
3A1B
  8
0
 10
191.1863963305054028
 20
123.1984140325371015
 30
0.0
  0
VERTEX
  5
3A1C
  8
0
 10
191.0983967817126086
 20
123.426178670709902
 30
0.0
  0
VERTEX
  5
3A1D
  8
0
 10
191.0230850714563076
 20
123.6577960006150931
 30
0.0
  0
VERTEX
  5
3A1E
  8
0
 10
190.9606905979271971
 20
123.8921233658579979
 30
0.0
  0
VERTEX
  5
3A1F
  8
0
 10
190.911317304344891
 20
124.1279542409509986
 30
0.0
  0
VERTEX
  5
3A20
  8
0
 10
190.8749263067387858
 20
124.3640711670071966
 30
0.0
  0
VERTEX
  5
3A21
  8
0
 10
190.8615482460965893
 20
124.4818547731231035
 30
0.0
  0
VERTEX
  5
3A22
  8
0
 10
190.8513372845864069
 20
124.5992464742331975
 30
0.0
  0
VERTEX
  5
3A23
  8
0
 10
190.8402278263228879
 20
124.8322176382934998
 30
0.0
  0
VERTEX
  5
3A24
  8
0
 10
190.8411242078734062
 20
125.0617116170486014
 30
0.0
  0
VERTEX
  5
3A25
  8
0
 10
190.8537407178368994
 20
125.2907416175705038
 30
0.0
  0
VERTEX
  5
3A26
  8
0
 10
190.8785234006707014
 20
125.5224547182013026
 30
0.0
  0
VERTEX
  5
3A27
  8
0
 10
190.915853713007408
 20
125.7555398097318999
 30
0.0
  0
VERTEX
  5
3A28
  8
0
 10
190.9393013043973042
 20
125.8721929741088985
 30
0.0
  0
VERTEX
  5
3A29
  8
0
 10
190.9659603002550909
 20
125.9887106490265012
 30
0.0
  0
VERTEX
  5
3A2A
  8
0
 10
191.0289304350393991
 20
126.2207286641003066
 30
0.0
  0
VERTEX
  5
3A2B
  8
0
 10
191.1047098914615958
 20
126.4503778275950054
 30
0.0
  0
VERTEX
  5
3A2C
  8
0
 10
191.1473473186304091
 20
126.5639402588660971
 30
0.0
  0
VERTEX
  5
3A2D
  8
0
 10
191.1931033324351006
 20
126.6764678019540042
 30
0.0
  0
VERTEX
  5
3A2E
  8
0
 10
191.2937992314712119
 20
126.8978917900363967
 30
0.0
  0
VERTEX
  5
3A2F
  8
0
 10
191.4064214767107899
 20
127.1136964318104958
 30
0.0
  0
VERTEX
  5
3A30
  8
0
 10
191.4670395438662922
 20
127.2191693063972053
 30
0.0
  0
VERTEX
  5
3A31
  8
0
 10
191.5304226302395989
 20
127.3228537342979934
 30
0.0
  0
VERTEX
  5
3A32
  8
0
 10
191.6651188298912984
 20
127.5243783758724021
 30
0.0
  0
VERTEX
  5
3A33
  8
0
 10
191.8097118001851129
 20
127.7173714382548013
 30
0.0
  0
VERTEX
  5
3A34
  8
0
 10
191.9632850108006892
 20
127.9010157445503069
 30
0.0
  0
VERTEX
  5
3A35
  8
0
 10
192.1247848281973063
 20
128.0745628311298105
 30
0.0
  0
VERTEX
  5
3A36
  8
0
 10
192.2931263118682068
 20
128.2374475119426052
 30
0.0
  0
VERTEX
  5
3A37
  8
0
 10
192.3808162219594919
 20
128.3158907812116922
 30
0.0
  0
VERTEX
  5
3A38
  8
0
 10
192.4715067682220138
 20
128.3928221068443065
 30
0.0
  0
VERTEX
  5
3A39
  8
0
 10
192.6615356707783917
 20
128.5413623488865937
 30
0.0
  0
VERTEX
  5
3A3A
  8
0
 10
192.8624125582771001
 20
128.6815877016859133
 30
0.0
  0
VERTEX
  5
3A3B
  8
0
 10
193.0732208190893004
 20
128.8121861662426113
 30
0.0
  0
VERTEX
  5
3A3C
  8
0
 10
193.2929367496545012
 20
128.9320129313844916
 30
0.0
  0
VERTEX
  5
3A3D
  8
0
 10
193.5204024118748123
 20
129.0400743363350102
 30
0.0
  0
VERTEX
  5
3A3E
  8
0
 10
193.636650973657396
 20
129.089429483445798
 30
0.0
  0
VERTEX
  5
3A3F
  8
0
 10
193.7543745495900112
 20
129.1355559488559095
 30
0.0
  0
VERTEX
  5
3A40
  8
0
 10
193.9937062325683996
 20
129.2178769349206107
 30
0.0
  0
VERTEX
  5
3A41
  8
0
 10
194.2370369697354988
 20
129.2865592397619992
 30
0.0
  0
VERTEX
  5
3A42
  8
0
 10
194.3597390052946139
 20
129.3156809541575001
 30
0.0
  0
SEQEND
  5
3A43
  8
0
  0
CIRCLE
  5
2EA8
  8
0
 10
195.3384068065720101
 20
125.0639018242440983
 30
0.0
 40
4.2999999999999989
  0
ARC
  5
2EA9
  8
0
 10
195.3384068065720101
 20
126.8639018242440955
 30
0.0
 40
0.4500000000000003
 50
13.3417559035422109
 51
166.658241772777501
  0
ARC
  5
2EAA
  8
0
 10
196.5425078569618904
 20
127.1494660209666989
 30
0.0
 40
0.7875000000000004
 50
193.3417595550398005
 51
286.6582417727707934
  0
ARC
  5
2EAB
  8
0
 10
196.8972525333840053
 20
125.963901824244104
 30
0.0
 40
0.4500000000000001
 50
313.3417582272144841
 51
106.658241772770694
  0
ARC
  5
2EAC
  8
0
 10
197.7466089073521118
 20
125.0639018242440983
 30
0.0
 40
0.7874999999999993
 50
133.3417582272240907
 51
226.6582417727759093
  0
ARC
  5
2EAD
  8
0
 10
196.8972525333840053
 20
124.1639018242441068
 30
0.0
 40
0.4500000000000003
 50
253.3417559035470958
 51
46.6582417727758525
  0
ARC
  5
2EAE
  8
0
 10
194.1343057561821013
 20
127.1494660209666989
 30
0.0
 40
0.7874999999999999
 50
253.3417593113773023
 51
346.658241772777501
  0
ARC
  5
2EAF
  8
0
 10
193.7795610797599863
 20
125.963901824244104
 30
0.0
 40
0.4500000000000006
 50
73.3417563299478701
 51
226.6582417727759093
  0
ARC
  5
2EB0
  8
0
 10
192.9302047057921925
 20
125.0639018242440983
 30
0.0
 40
0.7874999999999996
 50
313.3417593113740054
 51
46.6582417727758525
  0
ARC
  5
2EB1
  8
0
 10
193.7795610797599863
 20
124.1639018242441068
 30
0.0
 40
0.4500000000000003
 50
133.3417563299493054
 51
286.6582417727707934
  0
ARC
  5
2EB2
  8
0
 10
194.1343057561821013
 20
122.9783376275215971
 30
0.0
 40
0.7875000000000004
 50
13.3417582272225204
 51
106.658241772770694
  0
ARC
  5
2EB3
  8
0
 10
195.3384068065720101
 20
123.2639018242442006
 30
0.0
 40
0.4500000000000006
 50
193.341758227222499
 51
346.658241772777501
  0
ARC
  5
2EB4
  8
0
 10
196.5425078569618904
 20
122.9783376275215971
 30
0.0
 40
0.7875000000000008
 50
73.3417595550312313
 51
166.658241772777501
  0
LINE
  5
2EB5
  8
3
 10
95.2227730595848243
 20
44.1849018242441289
 30
0.0
 11
97.2227730595848243
 21
44.1849018242441289
 31
0.0
  0
LINE
  5
2EB6
  8
3
 10
95.2227730595848243
 20
40.9429018242441671
 30
0.0
 11
97.2227730595848243
 21
40.9429018242441671
 31
0.0
  0
LINE
  5
2EB7
  8
0
 10
145.3898144786010107
 20
39.1998496864053294
 30
0.0
 11
145.3898144786010107
 21
45.9279539620829667
 31
0.0
  0
LINE
  5
2EB8
  8
0
 10
133.5227730595846936
 20
38.4789665022616774
 30
0.0
 11
143.4475579365675912
 21
38.4789665022616774
 31
0.0
  0
LINE
  5
2EB9
  8
0
 10
138.1169792619263887
 20
49.563901824244148
 30
0.0
 11
129.0227730595848072
 21
49.563901824244148
 31
0.0
  0
LINE
  5
2EBA
  8
0
 10
129.0227730595848072
 20
35.563901824244148
 30
0.0
 11
138.1169792619263887
 21
35.563901824244148
 31
0.0
  0
LINE
  5
2EBB
  8
0
 10
143.4475579365675912
 20
46.6488371462266187
 30
0.0
 11
133.5227730595846936
 21
46.6488371462266187
 31
0.0
  0
LINE
  5
2EBC
  8
0
 10
129.0227730595848072
 20
49.0639018242441622
 30
0.0
 11
118.522773059584793
 21
49.0639018242441622
 31
0.0
  0
LINE
  5
2EBD
  8
0
 10
118.522773059584793
 20
36.0639018242441622
 30
0.0
 11
129.0227730595848072
 21
36.0639018242441622
 31
0.0
  0
LINE
  5
2EBE
  8
0
 10
114.522773059584793
 20
37.8639018242441097
 30
0.0
 11
114.8227730595849039
 21
37.5639018242441622
 31
0.0
  0
LINE
  5
2EBF
  8
0
 10
114.8227730595849039
 20
47.563901824244148
 30
0.0
 11
114.522773059584793
 21
47.2639018242441935
 31
0.0
  0
LINE
  5
2EC0
  8
0
 10
114.8227730595849039
 20
37.5639018242441622
 30
0.0
 11
118.522773059584793
 21
37.5639018242441622
 31
0.0
  0
LINE
  5
2EC1
  8
0
 10
118.522773059584793
 20
47.563901824244148
 30
0.0
 11
114.8227730595849039
 21
47.563901824244148
 31
0.0
  0
POLYLINE
  5
2EC2
  8
0
 66
     1
 10
0.0
 20
0.0
 30
0.0
  0
VERTEX
  5
3A44
  8
0
 10
140.9765938191839894
 20
38.479087372746271
 30
0.0
  0
VERTEX
  5
3A45
  8
0
 10
140.750541329756004
 20
38.3132071916788206
 30
0.0
  0
VERTEX
  5
3A46
  8
0
 10
140.2819036250814122
 20
37.9056574819290333
 30
0.0
  0
VERTEX
  5
3A47
  8
0
 10
139.7870524989637033
 20
37.3891630587828985
 30
0.0
  0
VERTEX
  5
3A48
  8
0
 10
139.5313423608604069
 20
37.0897717715372934
 30
0.0
  0
SEQEND
  5
3A49
  8
0
  0
POLYLINE
  5
2EC3
  8
0
 66
     1
 10
0.0
 20
0.0
 30
0.0
  0
VERTEX
  5
3A4A
  8
0
 10
132.8209315791569054
 20
38.9589697969155822
 30
0.0
  0
VERTEX
  5
3A4B
  8
0
 10
132.8579283632707018
 20
38.9604628724812727
 30
0.0
  0
VERTEX
  5
3A4C
  8
0
 10
132.929024509437113
 20
38.9626542080109601
 30
0.0
  0
VERTEX
  5
3A4D
  8
0
 10
132.9962132533204908
 20
38.963762202818252
 30
0.0
  0
VERTEX
  5
3A4E
  8
0
 10
133.0283267693401115
 20
38.9639018242441324
 30
0.0
  0
SEQEND
  5
3A4F
  8
0
  0
POLYLINE
  5
2EC4
  8
0
 66
     1
 10
0.0
 20
0.0
 30
0.0
  0
VERTEX
  5
3A50
  8
0
 10
133.0283267693401115
 20
38.9639018242441324
 30
0.0
  0
VERTEX
  5
3A51
  8
0
 10
133.0557620149407114
 20
38.9637930414050189
 30
0.0
  0
VERTEX
  5
3A52
  8
0
 10
133.1083082196005023
 20
38.9629174916814733
 30
0.0
  0
VERTEX
  5
3A53
  8
0
 10
133.1577353375909922
 20
38.9611539999661289
 30
0.0
  0
VERTEX
  5
3A54
  8
0
 10
133.1812727747750955
 20
38.9599358029905005
 30
0.0
  0
VERTEX
  5
3A55
  8
0
 10
133.2040232578721941
 20
38.9584917320753874
 30
0.0
  0
VERTEX
  5
3A56
  8
0
 10
133.2471565089205967
 20
38.954922099668849
 30
0.0
  0
VERTEX
  5
3A57
  8
0
 10
133.2871243798566923
 20
38.9504387984424483
 30
0.0
  0
VERTEX
  5
3A58
  8
0
 10
133.3239209999696868
 20
38.9450378270180906
 30
0.0
  0
VERTEX
  5
3A59
  8
0
 10
133.3575453759254117
 20
38.9387174856280325
 30
0.0
  0
VERTEX
  5
3A5A
  8
0
 10
133.3880013441338974
 20
38.9314783648277825
 30
0.0
  0
VERTEX
  5
3A5B
  8
0
 10
133.4020436021901048
 20
38.9275150900784226
 30
0.0
  0
VERTEX
  5
3A5C
  8
0
 10
133.4152972035685139
 20
38.9233234214957875
 30
0.0
  0
VERTEX
  5
3A5D
  8
0
 10
133.4394455848683094
 20
38.9142580896762382
 30
0.0
  0
VERTEX
  5
3A5E
  8
0
 10
133.4604636823117119
 20
38.9042903244415328
 30
0.0
  0
VERTEX
  5
3A5F
  8
0
 10
133.4783734630148047
 20
38.8934306206471518
 30
0.0
  0
VERTEX
  5
3A60
  8
0
 10
133.493201825633605
 20
38.8816920112854376
 30
0.0
  0
VERTEX
  5
3A61
  8
0
 10
133.5049807099923953
 20
38.8690900453773835
 30
0.0
  0
VERTEX
  5
3A62
  8
0
 10
133.5097379736434959
 20
38.8624708407075303
 30
0.0
  0
VERTEX
  5
3A63
  8
0
 10
133.5137471589206939
 20
38.8556427454058593
 30
0.0
  0
VERTEX
  5
3A64
  8
0
 10
133.5195433333861104
 20
38.8413705443451107
 30
0.0
  0
VERTEX
  5
3A65
  8
0
 10
133.5224164817632015
 20
38.8262962023687095
 30
0.0
  0
VERTEX
  5
3A66
  8
0
 10
133.5227730595846936
 20
38.8184659523719091
 30
0.0
  0
SEQEND
  5
3A67
  8
0
  0
POLYLINE
  5
2EC5
  8
0
 66
     1
 10
0.0
 20
0.0
 30
0.0
  0
VERTEX
  5
3A68
  8
0
 10
143.4803654008146054
 20
46.6454148553716976
 30
0.0
  0
VERTEX
  5
3A69
  8
0
 10
143.9145333195976946
 20
46.5491005398707003
 30
0.0
  0
VERTEX
  5
3A6A
  8
0
 10
144.6338401792625064
 20
46.3556410973896433
 30
0.0
  0
VERTEX
  5
3A6B
  8
0
 10
145.1536021463057011
 20
46.1613079605654519
 30
0.0
  0
VERTEX
  5
3A6C
  8
0
 10
145.338406806572209
 20
46.063901824244148
 30
0.0
  0
SEQEND
  5
3A6D
  8
0
  0
POLYLINE
  5
2EC6
  8
0
 66
     1
 10
0.0
 20
0.0
 30
0.0
  0
VERTEX
  5
3A6E
  8
0
 10
137.0643967402579051
 20
46.063901824244148
 30
0.0
  0
VERTEX
  5
3A6F
  8
0
 10
136.9926454320905123
 20
46.069693902062717
 30
0.0
  0
VERTEX
  5
3A70
  8
0
 10
136.8624386459611912
 20
46.0814899870450034
 30
0.0
  0
VERTEX
  5
3A71
  8
0
 10
136.7502948651182919
 20
46.093537655666232
 30
0.0
  0
VERTEX
  5
3A72
  8
0
 10
136.7011090043183117
 20
46.099644027660851
 30
0.0
  0
SEQEND
  5
3A73
  8
0
  0
LINE
  5
2EC7
  8
0
 10
136.7011090043183117
 20
46.099644027660851
 30
0.0
 11
133.8647002181448897
 21
46.4706984785304229
 31
0.0
  0
POLYLINE
  5
2EC8
  8
0
 66
     1
 10
0.0
 20
0.0
 30
0.0
  0
VERTEX
  5
3A74
  8
0
 10
133.8647002181448897
 20
46.4706984785304229
 30
0.0
  0
VERTEX
  5
3A75
  8
0
 10
133.8460804589757913
 20
46.473170382961861
 30
0.0
  0
VERTEX
  5
3A76
  8
0
 10
133.8103781499162039
 20
46.4781296681605198
 30
0.0
  0
VERTEX
  5
3A77
  8
0
 10
133.7767323859040971
 20
46.4831086180142066
 30
0.0
  0
VERTEX
  5
3A78
  8
0
 10
133.7606831949165098
 20
46.4856051021827597
 30
0.0
  0
VERTEX
  5
3A79
  8
0
 10
133.7451510636425951
 20
46.488106063957197
 30
0.0
  0
VERTEX
  5
3A7A
  8
0
 10
133.7156415953072042
 20
46.4931208330826067
 30
0.0
  0
VERTEX
  5
3A7B
  8
0
 10
133.6882109068073987
 20
46.4981517484177829
 30
0.0
  0
VERTEX
  5
3A7C
  8
0
 10
133.662865436159791
 20
46.5031976292007627
 30
0.0
  0
VERTEX
  5
3A7D
  8
0
 10
133.6396111319783984
 20
46.5082572911569869
 30
0.0
  0
VERTEX
  5
3A7E
  8
0
 10
133.618453452077091
 20
46.5133295467773422
 30
0.0
  0
VERTEX
  5
3A7F
  8
0
 10
133.6086624172781114
 20
46.5158700252991721
 30
0.0
  0
VERTEX
  5
3A80
  8
0
 10
133.5993973621903024
 20
46.5184132055971276
 30
0.0
  0
VERTEX
  5
3A81
  8
0
 10
133.5824473348056927
 20
46.5235070744753827
 30
0.0
  0
VERTEX
  5
3A82
  8
0
 10
133.5676073481162973
 20
46.5286099578745933
 30
0.0
  0
VERTEX
  5
3A83
  8
0
 10
133.5548808850851117
 20
46.5337206581415685
 30
0.0
  0
VERTEX
  5
3A84
  8
0
 10
133.544270932629388
 20
46.5388379757887805
 30
0.0
  0
VERTEX
  5
3A85
  8
0
 10
133.5357799809179937
 20
46.5439607097752486
 30
0.0
  0
VERTEX
  5
3A86
  8
0
 10
133.5323297725437897
 20
46.5465237322151069
 30
0.0
  0
VERTEX
  5
3A87
  8
0
 10
133.5294100227879142
 20
46.5490876577887676
 30
0.0
  0
VERTEX
  5
3A88
  8
0
 10
133.5251625532764024
 20
46.5542176165285326
 30
0.0
  0
VERTEX
  5
3A89
  8
0
 10
133.5230385692698007
 20
46.5593493819865571
 30
0.0
  0
VERTEX
  5
3A8A
  8
0
 10
133.5227730595846936
 20
46.5619155658587616
 30
0.0
  0
SEQEND
  5
3A8B
  8
0
  0
LINE
  5
2EC9
  8
0
 10
145.338406806572209
 20
46.063901824244148
 30
0.0
 11
137.0643967402579051
 21
46.063901824244148
 31
0.0
  0
POLYLINE
  5
2ECA
  8
0
 66
     1
 10
0.0
 20
0.0
 30
0.0
  0
VERTEX
  5
3A8C
  8
0
 10
145.338406806572209
 20
46.063901824244148
 30
0.0
  0
VERTEX
  5
3A8D
  8
0
 10
145.339764976812603
 20
46.0638300363645286
 30
0.0
  0
VERTEX
  5
3A8E
  8
0
 10
145.3424793353090081
 20
46.0632528150741081
 30
0.0
  0
VERTEX
  5
3A8F
  8
0
 10
145.3451900778904928
 20
46.0620911809260605
 30
0.0
  0
VERTEX
  5
3A90
  8
0
 10
145.3465437310042034
 20
46.061288997671042
 30
0.0
  0
VERTEX
  5
3A91
  8
0
 10
145.3478960471809103
 20
46.0603381223992727
 30
0.0
  0
VERTEX
  5
3A92
  8
0
 10
145.3505961000616935
 20
46.0579871476998406
 30
0.0
  0
VERTEX
  5
3A93
  8
0
 10
145.353289110020512
 20
46.0550322875381326
 30
0.0
  0
VERTEX
  5
3A94
  8
0
 10
145.3559739693968993
 20
46.0514680958216687
 30
0.0
  0
VERTEX
  5
3A95
  8
0
 10
145.35864959152849
 20
46.047289648269313
 30
0.0
  0
VERTEX
  5
3A96
  8
0
 10
145.3613149128024986
 20
46.0424925389426534
 30
0.0
  0
VERTEX
  5
3A97
  8
0
 10
145.3626433850245121
 20
46.0398607496671701
 30
0.0
  0
VERTEX
  5
3A98
  8
0
 10
145.363968894611105
 20
46.0370728746844833
 30
0.0
  0
VERTEX
  5
3A99
  8
0
 10
145.36661052521751
 20
46.0310272674404715
 30
0.0
  0
VERTEX
  5
3A9A
  8
0
 10
145.369238821533088
 20
46.0243528244371092
 30
0.0
  0
VERTEX
  5
3A9B
  8
0
 10
145.3718528308043005
 20
46.0170471361800892
 30
0.0
  0
VERTEX
  5
3A9C
  8
0
 10
145.3744516322132938
 20
46.0091082622312015
 30
0.0
  0
VERTEX
  5
3A9D
  8
0
 10
145.3770343383939121
 20
46.0005347147181709
 30
0.0
  0
VERTEX
  5
3A9E
  8
0
 10
145.378319388694706
 20
45.9960095899856896
 30
0.0
  0
VERTEX
  5
3A9F
  8
0
 10
145.3796001006647032
 20
45.991325425337017
 30
0.0
  0
VERTEX
  5
3AA0
  8
0
 10
145.3821480924752905
 20
45.9814797905261585
 30
0.0
  0
VERTEX
  5
3AA1
  8
0
 10
145.3846774932214032
 20
45.9709977423021101
 30
0.0
  0
VERTEX
  5
3AA2
  8
0
 10
145.3859349726205892
 20
45.9655181702169529
 30
0.0
  0
SEQEND
  5
3AA3
  8
0
  0
POLYLINE
  5
2ECB
  8
0
 66
     1
 10
0.0
 20
0.0
 30
0.0
  0
VERTEX
  5
3AA4
  8
0
 10
145.3859349726205892
 20
45.9655181702169529
 30
0.0
  0
VERTEX
  5
3AA5
  8
0
 10
145.3871237996879131
 20
45.959683205116832
 30
0.0
  0
VERTEX
  5
3AA6
  8
0
 10
145.3888485778105917
 20
45.9474997151315065
 30
0.0
  0
VERTEX
  5
3AA7
  8
0
 10
145.3897075022125023
 20
45.9346372376689231
 30
0.0
  0
VERTEX
  5
3AA8
  8
0
 10
145.3898144786010107
 20
45.9279539620758186
 30
0.0
  0
SEQEND
  5
3AA9
  8
0
  0
POLYLINE
  5
2ECC
  8
0
 66
     1
 10
0.0
 20
0.0
 30
0.0
  0
VERTEX
  5
3AAA
  8
0
 10
145.3898144786010107
 20
45.9279539620758186
 30
0.0
  0
VERTEX
  5
3AAB
  8
0
 10
145.3894124431216994
 20
45.9144873324870986
 30
0.0
  0
VERTEX
  5
3AAC
  8
0
 10
145.386223764631211
 20
45.88569085997851
 30
0.0
  0
VERTEX
  5
3AAD
  8
0
 10
145.3799292319110918
 20
45.8544837998413612
 30
0.0
  0
VERTEX
  5
3AAE
  8
0
 10
145.3756508880736931
 20
45.8380113517295413
 30
0.0
  0
VERTEX
  5
3AAF
  8
0
 10
145.3706395530369093
 20
45.8209813848942886
 30
0.0
  0
VERTEX
  5
3AB0
  8
0
 10
145.3584899557941128
 20
45.7853225648314393
 30
0.0
  0
VERTEX
  5
3AB1
  8
0
 10
145.3436380148206979
 20
45.7476670412105904
 30
0.0
  0
VERTEX
  5
3AB2
  8
0
 10
145.3262613446484011
 20
45.7081933026378735
 30
0.0
  0
VERTEX
  5
3AB3
  8
0
 10
145.3065574798922057
 20
45.6671011874270008
 30
0.0
  0
VERTEX
  5
3AB4
  8
0
 10
145.2847430589552005
 20
45.6246115075017968
 30
0.0
  0
VERTEX
  5
3AB5
  8
0
 10
145.2731167962483028
 20
45.6029166403941773
 30
0.0
  0
VERTEX
  5
3AB6
  8
0
 10
145.2610516810578076
 20
45.5809632677714234
 30
0.0
  0
VERTEX
  5
3AB7
  8
0
 10
145.235615528372989
 20
45.5362110609213886
 30
0.0
  0
VERTEX
  5
3AB8
  8
0
 10
145.2080508456535881
 20
45.489572269666418
 30
0.0
  0
VERTEX
  5
3AB9
  8
0
 10
145.178348721610007
 20
45.4409866022306588
 30
0.0
  0
VERTEX
  5
3ABA
  8
0
 10
145.1465761916421968
 20
45.3905213495283206
 30
0.0
  0
VERTEX
  5
3ABB
  8
0
 10
145.1128088124881117
 20
45.3382508399194393
 30
0.0
  0
VERTEX
  5
3ABC
  8
0
 10
145.0952027047416948
 20
45.3114634432414931
 30
0.0
  0
VERTEX
  5
3ABD
  8
0
 10
145.0771294736821062
 20
45.2842551273156815
 30
0.0
  0
VERTEX
  5
3ABE
  8
0
 10
145.0396272052643951
 20
45.2286187355821667
 30
0.0
  0
VERTEX
  5
3ABF
  8
0
 10
145.000397070812113
 20
45.1714309954566389
 30
0.0
  0
VERTEX
  5
3AC0
  8
0
 10
144.9801656341674061
 20
45.1422850093285106
 30
0.0
  0
VERTEX
  5
3AC1
  8
0
 10
144.9595409379855937
 20
45.1127874952621113
 30
0.0
  0
VERTEX
  5
3AC2
  8
0
 10
144.9171669030461089
 20
45.052789451812977
 30
0.0
  0
VERTEX
  5
3AC3
  8
0
 10
144.8733884357559134
 20
44.9915427075962171
 30
0.0
  0
VERTEX
  5
3AC4
  8
0
 10
144.8510092582712048
 20
44.9604851735119126
 30
0.0
  0
VERTEX
  5
3AC5
  8
0
 10
144.8283235255061925
 20
44.9291567586691727
 30
0.0
  0
VERTEX
  5
3AC6
  8
0
 10
144.7820905508405929
 20
44.865739318658413
 30
0.0
  0
VERTEX
  5
3AC7
  8
0
 10
144.734807233657591
 20
44.8013952625897574
 30
0.0
  0
VERTEX
  5
3AC8
  8
0
 10
144.6865999374597038
 20
44.7362394324970083
 30
0.0
  0
VERTEX
  5
3AC9
  8
0
 10
144.637600232932499
 20
44.6703918620562916
 30
0.0
  0
VERTEX
  5
3ACA
  8
0
 10
144.5879442378067949
 20
44.6039769142462674
 30
0.0
  0
VERTEX
  5
3ACB
  8
0
 10
144.5629137655512011
 20
44.5705965399758171
 30
0.0
  0
VERTEX
  5
3ACC
  8
0
 10
144.5377720260478043
 20
44.5371225504514214
 30
0.0
  0
VERTEX
  5
3ACD
  8
0
 10
144.4872270591606025
 20
44.4699596577803931
 30
0.0
  0
VERTEX
  5
3ACE
  8
0
 10
144.4364556397453896
 20
44.4026214308520792
 30
0.0
  0
VERTEX
  5
3ACF
  8
0
 10
144.3856063832822088
 20
44.3352428024259524
 30
0.0
  0
VERTEX
  5
3AD0
  8
0
 10
144.3348297004953906
 20
44.2679599159303407
 30
0.0
  0
VERTEX
  5
3AD1
  8
0
 10
144.2842772793266874
 20
44.2009096318637731
 30
0.0
  0
VERTEX
  5
3AD2
  8
0
 10
144.259132788045207
 20
44.1675145649919969
 30
0.0
  0
VERTEX
  5
3AD3
  8
0
 10
144.2340709142206094
 20
44.1341882891973967
 30
0.0
  0
VERTEX
  5
3AD4
  8
0
 10
144.1833425103415891
 20
44.0665692699268803
 30
0.0
  0
VERTEX
  5
3AD5
  8
0
 10
144.1317637026442924
 20
43.9975236938652614
 30
0.0
  0
VERTEX
  5
3AD6
  8
0
 10
144.0795177750518974
 20
43.927186169884223
 30
0.0
  0
VERTEX
  5
3AD7
  8
0
 10
144.0267998913047904
 20
43.855689074210467
 30
0.0
  0
VERTEX
  5
3AD8
  8
0
 10
143.9738178270017102
 20
43.7831605339360266
 30
0.0
  0
VERTEX
  5
3AD9
  8
0
 10
143.9472964185108026
 20
43.7465478350452912
 30
0.0
  0
VERTEX
  5
3ADA
  8
0
 10
143.9207933880223038
 20
43.7097224461229388
 30
0.0
  0
VERTEX
  5
3ADB
  8
0
 10
143.8679653149181092
 20
43.6354894100089012
 30
0.0
  0
VERTEX
  5
3ADC
  8
0
 10
143.8155922437460958
 20
43.5605663190287231
 30
0.0
  0
VERTEX
  5
3ADD
  8
0
 10
143.763956180226387
 20
43.4850447658906631
 30
0.0
  0
VERTEX
  5
3ADE
  8
0
 10
143.7133677556790019
 20
43.408999510011121
 30
0.0
  0
VERTEX
  5
3ADF
  8
0
 10
143.664198721025997
 20
43.3325248241050502
 30
0.0
  0
VERTEX
  5
3AE0
  8
0
 10
143.6402766863944009
 20
43.2941544541526326
 30
0.0
  0
VERTEX
  5
3AE1
  8
0
 10
143.6168599643114874
 20
43.2556878937446427
 30
0.0
  0
VERTEX
  5
3AE2
  8
0
 10
143.5717545623637932
 20
43.1784237641802875
 30
0.0
  0
VERTEX
  5
3AE3
  8
0
 10
143.5293538186878948
 20
43.1006129408877285
 30
0.0
  0
VERTEX
  5
3AE4
  8
0
 10
143.4902243037356016
 20
43.0220803029716734
 30
0.0
  0
VERTEX
  5
3AE5
  8
0
 10
143.4550614414235952
 20
42.9426050992609873
 30
0.0
  0
VERTEX
  5
3AE6
  8
0
 10
143.436711635970596
 20
42.8957053982527867
 30
0.0
  0
VERTEX
  5
3AE7
  8
0
 10
143.4317952446670006
 20
42.8822206171595681
 30
0.0
  0
VERTEX
  5
3AE8
  8
0
 10
143.4270323847786131
 20
42.8686948572600812
 30
0.0
  0
VERTEX
  5
3AE9
  8
0
 10
143.4247100264580865
 20
42.8619160130981882
 30
0.0
  0
VERTEX
  5
3AEA
  8
0
 10
143.4224278629174023
 20
42.8551261973404181
 30
0.0
  0
VERTEX
  5
3AEB
  8
0
 10
143.4179866070732885
 20
42.8415126356023066
 30
0.0
  0
VERTEX
  5
3AEC
  8
0
 10
143.4137136677778983
 20
42.8278520962904068
 30
0.0
  0
VERTEX
  5
3AED
  8
0
 10
143.411641928696298
 20
42.8210035430515035
 30
0.0
  0
VERTEX
  5
3AEE
  8
0
 10
143.4096142182550011
 20
42.814142437522527
 30
0.0
  0
VERTEX
  5
3AEF
  8
0
 10
143.4056935533151034
 20
42.8003814602513302
 30
0.0
  0
VERTEX
  5
3AF0
  8
0
 10
143.4019570867409925
 20
42.7865669182543087
 30
0.0
  0
VERTEX
  5
3AF1
  8
0
 10
143.4001596511413936
 20
42.7796388482980134
 30
0.0
  0
VERTEX
  5
3AF2
  8
0
 10
143.3984103469055924
 20
42.7726965289967112
 30
0.0
  0
VERTEX
  5
3AF3
  8
0
 10
143.3950589703773915
 20
42.7587679851710973
 30
0.0
  0
VERTEX
  5
3AF4
  8
0
 10
143.391908693282403
 20
42.7447789666617126
 30
0.0
  0
VERTEX
  5
3AF5
  8
0
 10
143.3889653402260933
 20
42.7307271526339534
 30
0.0
  0
VERTEX
  5
3AF6
  8
0
 10
143.386234810629503
 20
42.7166102333999689
 30
0.0
  0
VERTEX
  5
3AF7
  8
0
 10
143.3837230623911978
 20
42.7024259216675901
 30
0.0
  0
VERTEX
  5
3AF8
  8
0
 10
143.3825511044886127
 20
42.6953077874996225
 30
0.0
  0
VERTEX
  5
3AF9
  8
0
 10
143.3814360928697056
 20
42.6881719627455567
 30
0.0
  0
VERTEX
  5
3AFA
  8
0
 10
143.3793799172728995
 20
42.6738461432544582
 30
0.0
  0
VERTEX
  5
3AFB
  8
0
 10
143.3775605446477925
 20
42.6594462978892324
 30
0.0
  0
VERTEX
  5
3AFC
  8
0
 10
143.375983951778295
 20
42.6449703137880434
 30
0.0
  0
VERTEX
  5
3AFD
  8
0
 10
143.3746560554124869
 20
42.63041613210207
 30
0.0
  0
VERTEX
  5
3AFE
  8
0
 10
143.3735826833633098
 20
42.6157817464150384
 30
0.0
  0
VERTEX
  5
3AFF
  8
0
 10
143.3731432335966929
 20
42.6084338632472708
 30
0.0
  0
VERTEX
  5
3B00
  8
0
 10
143.3727695451198088
 20
42.6010651977499393
 30
0.0
  0
VERTEX
  5
3B01
  8
0
 10
143.3722222027053874
 20
42.5862645659994286
 30
0.0
  0
VERTEX
  5
3B02
  8
0
 10
143.371946042562513
 20
42.5713779577463782
 30
0.0
  0
VERTEX
  5
3B03
  8
0
 10
143.3719112845815005
 20
42.563901824244148
 30
0.0
  0
VERTEX
  5
3B04
  8
0
 10
143.371946042562513
 20
42.556425690741932
 30
0.0
  0
VERTEX
  5
3B05
  8
0
 10
143.3722222027053874
 20
42.5415390824888817
 30
0.0
  0
VERTEX
  5
3B06
  8
0
 10
143.3727695451198088
 20
42.5267384507383568
 30
0.0
  0
VERTEX
  5
3B07
  8
0
 10
143.3731432335966929
 20
42.5193697852410395
 30
0.0
  0
VERTEX
  5
3B08
  8
0
 10
143.3735826833633098
 20
42.5120219020732719
 30
0.0
  0
VERTEX
  5
3B09
  8
0
 10
143.3746560554124869
 20
42.4973875163862402
 30
0.0
  0
VERTEX
  5
3B0A
  8
0
 10
143.375983951778295
 20
42.4828333347002598
 30
0.0
  0
VERTEX
  5
3B0B
  8
0
 10
143.3775605446477925
 20
42.4683573505990708
 30
0.0
  0
VERTEX
  5
3B0C
  8
0
 10
143.3793799172728995
 20
42.453957505233852
 30
0.0
  0
VERTEX
  5
3B0D
  8
0
 10
143.3814360928697056
 20
42.4396316857427465
 30
0.0
  0
VERTEX
  5
3B0E
  8
0
 10
143.3825511044886127
 20
42.4324958609886806
 30
0.0
  0
VERTEX
  5
3B0F
  8
0
 10
143.3837230623911978
 20
42.4253777268207131
 30
0.0
  0
VERTEX
  5
3B10
  8
0
 10
143.386234810629503
 20
42.4111934150883272
 30
0.0
  0
VERTEX
  5
3B11
  8
0
 10
143.3889653402260933
 20
42.3970764958543569
 30
0.0
  0
VERTEX
  5
3B12
  8
0
 10
143.391908693282403
 20
42.3830246818265906
 30
0.0
  0
VERTEX
  5
3B13
  8
0
 10
143.3950589703773915
 20
42.3690356633171987
 30
0.0
  0
VERTEX
  5
3B14
  8
0
 10
143.3984103469055924
 20
42.355107119491592
 30
0.0
  0
VERTEX
  5
3B15
  8
0
 10
143.4001596511413936
 20
42.3481648001902968
 30
0.0
  0
VERTEX
  5
3B16
  8
0
 10
143.4019570867409925
 20
42.3412367302339874
 30
0.0
  0
VERTEX
  5
3B17
  8
0
 10
143.4056935533151034
 20
42.327422188236973
 30
0.0
  0
VERTEX
  5
3B18
  8
0
 10
143.4096142182550011
 20
42.313661210965769
 30
0.0
  0
VERTEX
  5
3B19
  8
0
 10
143.411641928696298
 20
42.3068001054368068
 30
0.0
  0
VERTEX
  5
3B1A
  8
0
 10
143.4137136677778983
 20
42.2999515521977827
 30
0.0
  0
VERTEX
  5
3B1B
  8
0
 10
143.4179866070732885
 20
42.2862910128859895
 30
0.0
  0
VERTEX
  5
3B1C
  8
0
 10
143.4224278629174023
 20
42.272677451147878
 30
0.0
  0
VERTEX
  5
3B1D
  8
0
 10
143.4247100264580865
 20
42.2658876353901221
 30
0.0
  0
VERTEX
  5
3B1E
  8
0
 10
143.4270323847786131
 20
42.2591087912282291
 30
0.0
  0
VERTEX
  5
3B1F
  8
0
 10
143.4317952446670006
 20
42.2455830313287279
 30
0.0
  0
VERTEX
  5
3B20
  8
0
 10
143.436711635970596
 20
42.2320982502355236
 30
0.0
  0
VERTEX
  5
3B21
  8
0
 10
143.4550614414235952
 20
42.1851985492273087
 30
0.0
  0
VERTEX
  5
3B22
  8
0
 10
143.4902243037356016
 20
42.1057233455166298
 30
0.0
  0
VERTEX
  5
3B23
  8
0
 10
143.5293538186878948
 20
42.0271907076005817
 30
0.0
  0
VERTEX
  5
3B24
  8
0
 10
143.5717545623637932
 20
41.9493798843080086
 30
0.0
  0
VERTEX
  5
3B25
  8
0
 10
143.6168599643114874
 20
41.8721157547436604
 30
0.0
  0
VERTEX
  5
3B26
  8
0
 10
143.6402766863944009
 20
41.8336491943356705
 30
0.0
  0
VERTEX
  5
3B27
  8
0
 10
143.664198721025997
 20
41.79527882438326
 30
0.0
  0
VERTEX
  5
3B28
  8
0
 10
143.7133677556790019
 20
41.7188041384771822
 30
0.0
  0
VERTEX
  5
3B29
  8
0
 10
143.763956180226387
 20
41.6427588825976471
 30
0.0
  0
VERTEX
  5
3B2A
  8
0
 10
143.8155922437460958
 20
41.5672373294594735
 30
0.0
  0
VERTEX
  5
3B2B
  8
0
 10
143.8679653149181092
 20
41.492314238479409
 30
0.0
  0
VERTEX
  5
3B2C
  8
0
 10
143.9207933880223038
 20
41.4180812023653715
 30
0.0
  0
VERTEX
  5
3B2D
  8
0
 10
143.9472964185108026
 20
41.3812558134430191
 30
0.0
  0
VERTEX
  5
3B2E
  8
0
 10
143.9738178270017102
 20
41.3446431145522766
 30
0.0
  0
VERTEX
  5
3B2F
  8
0
 10
144.0267998913047904
 20
41.272114574277829
 30
0.0
  0
VERTEX
  5
3B30
  8
0
 10
144.0795177750518974
 20
41.2006174786040802
 30
0.0
  0
VERTEX
  5
3B31
  8
0
 10
144.1317637026442924
 20
41.1302799546230489
 30
0.0
  0
VERTEX
  5
3B32
  8
0
 10
144.1833425103415891
 20
41.0612343785614229
 30
0.0
  0
VERTEX
  5
3B33
  8
0
 10
144.2340709142206094
 20
40.9936153592908994
 30
0.0
  0
VERTEX
  5
3B34
  8
0
 10
144.259132788045207
 20
40.9602890834962992
 30
0.0
  0
VERTEX
  5
3B35
  8
0
 10
144.2842772793266874
 20
40.9268940166245301
 30
0.0
  0
VERTEX
  5
3B36
  8
0
 10
144.3348297004953906
 20
40.8598437325579624
 30
0.0
  0
VERTEX
  5
3B37
  8
0
 10
144.3856063832822088
 20
40.7925608460623508
 30
0.0
  0
VERTEX
  5
3B38
  8
0
 10
144.4364556397453896
 20
40.725182217636231
 30
0.0
  0
VERTEX
  5
3B39
  8
0
 10
144.4872270591606025
 20
40.6578439907079172
 30
0.0
  0
VERTEX
  5
3B3A
  8
0
 10
144.5377720260478043
 20
40.5906810980368817
 30
0.0
  0
VERTEX
  5
3B3B
  8
0
 10
144.5629137655512011
 20
40.557207108512479
 30
0.0
  0
VERTEX
  5
3B3C
  8
0
 10
144.5879442378067949
 20
40.5238267342420428
 30
0.0
  0
VERTEX
  5
3B3D
  8
0
 10
144.637600232932499
 20
40.4574117864320186
 30
0.0
  0
VERTEX
  5
3B3E
  8
0
 10
144.6865999374597038
 20
40.391564215991302
 30
0.0
  0
VERTEX
  5
3B3F
  8
0
 10
144.734807233657591
 20
40.3264083858985529
 30
0.0
  0
VERTEX
  5
3B40
  8
0
 10
144.7820905508405929
 20
40.2620643298298972
 30
0.0
  0
VERTEX
  5
3B41
  8
0
 10
144.8283235255061925
 20
40.1986468898191305
 30
0.0
  0
VERTEX
  5
3B42
  8
0
 10
144.8510092582712048
 20
40.1673184749763976
 30
0.0
  0
VERTEX
  5
3B43
  8
0
 10
144.8733884357559134
 20
40.136260940892079
 30
0.0
  0
VERTEX
  5
3B44
  8
0
 10
144.9171669030461089
 20
40.0750141966753333
 30
0.0
  0
VERTEX
  5
3B45
  8
0
 10
144.9595409379855937
 20
40.0150161532261919
 30
0.0
  0
VERTEX
  5
3B46
  8
0
 10
144.9801656341674061
 20
39.9855186391597925
 30
0.0
  0
VERTEX
  5
3B47
  8
0
 10
145.000397070812113
 20
39.9563726530316572
 30
0.0
  0
VERTEX
  5
3B48
  8
0
 10
145.0396272052643951
 20
39.8991849129062501
 30
0.0
  0
VERTEX
  5
3B49
  8
0
 10
145.0771294736821062
 20
39.8435485211726217
 30
0.0
  0
VERTEX
  5
3B4A
  8
0
 10
145.0952027047416948
 20
39.8163402052469309
 30
0.0
  0
VERTEX
  5
3B4B
  8
0
 10
145.1128088124881117
 20
39.789552808568871
 30
0.0
  0
VERTEX
  5
3B4C
  8
0
 10
145.1465761916421968
 20
39.7372822989599825
 30
0.0
  0
VERTEX
  5
3B4D
  8
0
 10
145.178348721610007
 20
39.6868170462576373
 30
0.0
  0
VERTEX
  5
3B4E
  8
0
 10
145.2080508456535881
 20
39.6382313788218923
 30
0.0
  0
VERTEX
  5
3B4F
  8
0
 10
145.235615528372989
 20
39.5915925875669217
 30
0.0
  0
VERTEX
  5
3B50
  8
0
 10
145.2610516810578076
 20
39.5468403807168869
 30
0.0
  0
VERTEX
  5
3B51
  8
0
 10
145.2731167962483028
 20
39.524887008094133
 30
0.0
  0
VERTEX
  5
3B52
  8
0
 10
145.2847430589552005
 20
39.5031921409865205
 30
0.0
  0
VERTEX
  5
3B53
  8
0
 10
145.3065574798922057
 20
39.4607024610613024
 30
0.0
  0
VERTEX
  5
3B54
  8
0
 10
145.3262613446484011
 20
39.419610345850451
 30
0.0
  0
VERTEX
  5
3B55
  8
0
 10
145.3436380148206979
 20
39.3801366072777199
 30
0.0
  0
VERTEX
  5
3B56
  8
0
 10
145.3584899557941128
 20
39.3424810836568568
 30
0.0
  0
VERTEX
  5
3B57
  8
0
 10
145.3706395530369093
 20
39.3068222635940074
 30
0.0
  0
VERTEX
  5
3B58
  8
0
 10
145.3756508880736931
 20
39.2897922967587618
 30
0.0
  0
VERTEX
  5
3B59
  8
0
 10
145.3799292319110918
 20
39.2733198486468424
 30
0.0
  0
VERTEX
  5
3B5A
  8
0
 10
145.386223764631211
 20
39.2421127885098002
 30
0.0
  0
VERTEX
  5
3B5B
  8
0
 10
145.3894124431216994
 20
39.2133163160012117
 30
0.0
  0
VERTEX
  5
3B5C
  8
0
 10
145.3898144786010107
 20
39.1998496864124917
 30
0.0
  0
SEQEND
  5
3B5D
  8
0
  0
POLYLINE
  5
2ECD
  8
0
 66
     1
 10
0.0
 20
0.0
 30
0.0
  0
VERTEX
  5
3B5E
  8
0
 10
145.3898144786010107
 20
39.1998496864124917
 30
0.0
  0
VERTEX
  5
3B5F
  8
0
 10
145.3897075022125023
 20
39.1931664108193871
 30
0.0
  0
VERTEX
  5
3B60
  8
0
 10
145.3888485778105917
 20
39.1803039333567966
 30
0.0
  0
VERTEX
  5
3B61
  8
0
 10
145.3871237996879131
 20
39.1681204433714782
 30
0.0
  0
VERTEX
  5
3B62
  8
0
 10
145.3859349726205892
 20
39.1622854782713574
 30
0.0
  0
SEQEND
  5
3B63
  8
0
  0
POLYLINE
  5
2ECE
  8
0
 66
     1
 10
0.0
 20
0.0
 30
0.0
  0
VERTEX
  5
3B64
  8
0
 10
145.3859349726205892
 20
39.1622854782713574
 30
0.0
  0
VERTEX
  5
3B65
  8
0
 10
145.3846775031061043
 20
39.1568059485520479
 30
0.0
  0
VERTEX
  5
3B66
  8
0
 10
145.3821481218579095
 20
39.1463239755916419
 30
0.0
  0
VERTEX
  5
3B67
  8
0
 10
145.3796001489251921
 20
39.1364784029693027
 30
0.0
  0
VERTEX
  5
3B68
  8
0
 10
145.3783194460613117
 20
39.1317942644052792
 30
0.0
  0
VERTEX
  5
3B69
  8
0
 10
145.3770344045717025
 20
39.1272691623326381
 30
0.0
  0
VERTEX
  5
3B6A
  8
0
 10
145.3744517149299895
 20
39.1186956498371927
 30
0.0
  0
VERTEX
  5
3B6B
  8
0
 10
145.3718529284159899
 20
39.11075679774153
 30
0.0
  0
VERTEX
  5
3B6C
  8
0
 10
145.3692389320823963
 20
39.1034511188305913
 30
0.0
  0
VERTEX
  5
3B6D
  8
0
 10
145.3666106464160919
 20
39.0967766735478079
 30
0.0
  0
VERTEX
  5
3B6E
  8
0
 10
145.3639690238246089
 20
39.0907310535153982
 30
0.0
  0
VERTEX
  5
3B6F
  8
0
 10
145.3626435171453863
 20
39.08794316861308
 30
0.0
  0
VERTEX
  5
3B70
  8
0
 10
145.3613150470357027
 20
39.0853113673208981
 30
0.0
  0
VERTEX
  5
3B71
  8
0
 10
145.3586497274118017
 20
39.0805142285241089
 30
0.0
  0
VERTEX
  5
3B72
  8
0
 10
145.3559741031729118
 20
39.076335745840808
 30
0.0
  0
VERTEX
  5
3B73
  8
0
 10
145.3532892375330903
 20
39.0727715154700306
 30
0.0
  0
VERTEX
  5
3B74
  8
0
 10
145.3505962167444068
 20
39.0698166155354301
 30
0.0
  0
VERTEX
  5
3B75
  8
0
 10
145.3478961480477096
 20
39.0674656026193787
 30
0.0
  0
VERTEX
  5
3B76
  8
0
 10
145.3465438219598127
 20
39.0665147097330774
 30
0.0
  0
VERTEX
  5
3B77
  8
0
 10
145.3451901575274121
 20
39.0657125103784182
 30
0.0
  0
VERTEX
  5
3B78
  8
0
 10
145.3424793878662058
 20
39.0645508502352001
 30
0.0
  0
VERTEX
  5
3B79
  8
0
 10
145.3397649959977116
 20
39.0639736141545626
 30
0.0
  0
VERTEX
  5
3B7A
  8
0
 10
145.338406806572209
 20
39.0639018242441622
 30
0.0
  0
SEQEND
  5
3B7B
  8
0
  0
POLYLINE
  5
2ECF
  8
0
 66
     1
 10
0.0
 20
0.0
 30
0.0
  0
VERTEX
  5
3B7C
  8
0
 10
137.0643967402579051
 20
39.0639018242441622
 30
0.0
  0
VERTEX
  5
3B7D
  8
0
 10
137.0780389436546898
 20
39.064017797688102
 30
0.0
  0
VERTEX
  5
3B7E
  8
0
 10
137.1058082858860132
 20
39.0649428109591526
 30
0.0
  0
VERTEX
  5
3B7F
  8
0
 10
137.1342210008544953
 20
39.0667855512192972
 30
0.0
  0
VERTEX
  5
3B80
  8
0
 10
137.148667289964493
 20
39.0680485931851891
 30
0.0
  0
VERTEX
  5
3B81
  8
0
 10
137.1632727544798911
 20
39.0695380469807532
 30
0.0
  0
VERTEX
  5
3B82
  8
0
 10
137.192958674198195
 20
39.0731919331137121
 30
0.0
  0
VERTEX
  5
3B83
  8
0
 10
137.2232733682490107
 20
39.0777384466691018
 30
0.0
  0
VERTEX
  5
3B84
  8
0
 10
137.2542109470969081
 20
39.0831684271857327
 30
0.0
  0
VERTEX
  5
3B85
  8
0
 10
137.2857650467539941
 20
39.0894723211059016
 30
0.0
  0
VERTEX
  5
3B86
  8
0
 10
137.3179288537758111
 20
39.0966401899287774
 30
0.0
  0
VERTEX
  5
3B87
  8
0
 10
137.3342371519335927
 20
39.1005449066618027
 30
0.0
  0
VERTEX
  5
3B88
  8
0
 10
137.3506951317212952
 20
39.1046617217338479
 30
0.0
  0
VERTEX
  5
3B89
  8
0
 10
137.3840562488753108
 20
39.1135262457216228
 30
0.0
  0
VERTEX
  5
3B8A
  8
0
 10
137.4180042070510979
 20
39.1232227494321378
 30
0.0
  0
VERTEX
  5
3B8B
  8
0
 10
137.4525306713007922
 20
39.1337398983221618
 30
0.0
  0
VERTEX
  5
3B8C
  8
0
 10
137.4876270003846912
 20
39.1450660573995535
 30
0.0
  0
VERTEX
  5
3B8D
  8
0
 10
137.523284277860995
 20
39.1571893146364616
 30
0.0
  0
VERTEX
  5
3B8E
  8
0
 10
137.5413204183226128
 20
39.1635460628957972
 30
0.0
  0
VERTEX
  5
3B8F
  8
0
 10
137.5594933390802908
 20
39.1700975042329418
 30
0.0
  0
VERTEX
  5
3B90
  8
0
 10
137.596244698702094
 20
39.1837781928053772
 30
0.0
  0
VERTEX
  5
3B91
  8
0
 10
137.6335284168492024
 20
39.1982186331376212
 30
0.0
  0
VERTEX
  5
3B92
  8
0
 10
137.6523666790687912
 20
39.2057196896416116
 30
0.0
  0
VERTEX
  5
3B93
  8
0
 10
137.6713340983799014
 20
39.2134057601381727
 30
0.0
  0
VERTEX
  5
3B94
  8
0
 10
137.7096509150767076
 20
39.2293261968670066
 30
0.0
  0
VERTEX
  5
3B95
  8
0
 10
137.7484676283723104
 20
39.2459662629301391
 30
0.0
  0
VERTEX
  5
3B96
  8
0
 10
137.7680598276853914
 20
39.2545518014034513
 30
0.0
  0
VERTEX
  5
3B97
  8
0
 10
137.7877726125327058
 20
39.2633119849569283
 30
0.0
  0
VERTEX
  5
3B98
  8
0
 10
137.8275538781641956
 20
39.2813491088778974
 30
0.0
  0
VERTEX
  5
3B99
  8
0
 10
137.8677990959297119
 20
39.3000631137440877
 30
0.0
  0
VERTEX
  5
3B9A
  8
0
 10
137.908495620382098
 20
39.3194392268553017
 30
0.0
  0
VERTEX
  5
3B9B
  8
0
 10
137.9496305138391108
 20
39.3394624399940511
 30
0.0
  0
VERTEX
  5
3B9C
  8
0
 10
137.9911905702446973
 20
39.3601175265810497
 30
0.0
  0
VERTEX
  5
3B9D
  8
0
 10
138.0121258401377133
 20
39.3706772088002523
 30
0.0
  0
VERTEX
  5
3B9E
  8
0
 10
138.0331623389762967
 20
39.3813890595971969
 30
0.0
  0
VERTEX
  5
3B9F
  8
0
 10
138.0755321485715115
 20
39.4032614301381017
 30
0.0
  0
VERTEX
  5
3BA0
  8
0
 10
138.118286130364794
 20
39.4257188664858376
 30
0.0
  0
VERTEX
  5
3BA1
  8
0
 10
138.1614127371572067
 20
39.4487467964453771
 30
0.0
  0
VERTEX
  5
3BA2
  8
0
 10
138.2049020262518013
 20
39.4723315647759634
 30
0.0
  0
VERTEX
  5
3BA3
  8
0
 10
138.2487397285997019
 20
39.4964572143874619
 30
0.0
  0
VERTEX
  5
3BA4
  8
0
 10
138.270784660398192
 20
39.5087178087433628
 30
0.0
  0
VERTEX
  5
3BA5
  8
0
 10
138.2929111646853926
 20
39.5211075221820209
 30
0.0
  0
VERTEX
  5
3BA6
  8
0
 10
138.3374013280919996
 20
39.5462660434815589
 30
0.0
  0
VERTEX
  5
3BA7
  8
0
 10
138.3821949053235016
 20
39.5719161236398094
 30
0.0
  0
VERTEX
  5
3BA8
  8
0
 10
138.5411341995965984
 20
39.6653174926843093
 30
0.0
  0
VERTEX
  5
3BA9
  8
0
 10
138.8197862389600061
 20
39.8368196012497009
 30
0.0
  0
VERTEX
  5
3BAA
  8
0
 10
139.1030495349999967
 20
40.0193702352684468
 30
0.0
  0
VERTEX
  5
3BAB
  8
0
 10
139.2451827637922008
 20
40.1135397848131916
 30
0.0
  0
VERTEX
  5
3BAC
  8
0
 10
139.386960855636687
 20
40.2089530856920092
 30
0.0
  0
VERTEX
  5
3BAD
  8
0
 10
139.6698922564411873
 20
40.4032136674629001
 30
0.0
  0
VERTEX
  5
3BAE
  8
0
 10
139.9577867509113105
 20
40.6053608014741911
 30
0.0
  0
VERTEX
  5
3BAF
  8
0
 10
140.2480492052567911
 20
40.812958822526447
 30
0.0
  0
VERTEX
  5
3BB0
  8
0
 10
140.5369902534737037
 20
41.0227741565634432
 30
0.0
  0
VERTEX
  5
3BB1
  8
0
 10
140.8208002112882866
 20
41.2314801219949203
 30
0.0
  0
VERTEX
  5
3BB2
  8
0
 10
140.9595431008089861
 20
41.3343516269571083
 30
0.0
  0
VERTEX
  5
3BB3
  8
0
 10
141.0954995005585886
 20
41.435662225314708
 30
0.0
  0
VERTEX
  5
3BB4
  8
0
 10
141.3580919884213927
 20
41.6327328843505384
 30
0.0
  0
VERTEX
  5
3BB5
  8
0
 10
141.6081832788943018
 20
41.822270509493741
 30
0.0
  0
VERTEX
  5
3BB6
  8
0
 10
141.7270222567325959
 20
41.9131226365952116
 30
0.0
  0
SEQEND
  5
3BB7
  8
0
  0
POLYLINE
  5
2ED0
  8
0
 66
     1
 10
0.0
 20
0.0
 30
0.0
  0
VERTEX
  5
3BB8
  8
0
 10
141.7270222567325959
 20
41.9131226365952116
 30
0.0
  0
VERTEX
  5
3BB9
  8
0
 10
141.7723207097554052
 20
41.9488889930394606
 30
0.0
  0
VERTEX
  5
3BBA
  8
0
 10
141.8552261259646912
 20
42.0206170228318996
 30
0.0
  0
VERTEX
  5
3BBB
  8
0
 10
141.898840203440102
 20
42.0625687040283367
 30
0.0
  0
VERTEX
  5
3BBC
  8
0
 10
141.9106576502352084
 20
42.0745686991102019
 30
0.0
  0
VERTEX
  5
3BBD
  8
0
 10
141.9221887362365919
 20
42.0865745639128335
 30
0.0
  0
VERTEX
  5
3BBE
  8
0
 10
141.9278468505808064
 20
42.0925796524577791
 30
0.0
  0
VERTEX
  5
3BBF
  8
0
 10
141.9334333231255982
 20
42.0985861544220725
 30
0.0
  0
VERTEX
  5
3BC0
  8
0
 10
141.944391276018905
 20
42.1106033265544184
 30
0.0
  0
VERTEX
  5
3BC1
  8
0
 10
141.9550624634725864
 20
42.1226259361597428
 30
0.0
  0
VERTEX
  5
3BC2
  8
0
 10
141.9602904800233034
 20
42.1286392349500574
 30
0.0
  0
VERTEX
  5
3BC3
  8
0
 10
141.9654467574814021
 20
42.1346538390228389
 30
0.0
  0
VERTEX
  5
3BC4
  8
0
 10
141.9755440334826915
 20
42.1466868908647001
 30
0.0
  0
VERTEX
  5
3BC5
  8
0
 10
141.985354170356004
 20
42.1587249473446235
 30
0.0
  0
VERTEX
  5
3BC6
  8
0
 10
141.9901515247113082
 20
42.1647458072010721
 30
0.0
  0
VERTEX
  5
3BC7
  8
0
 10
141.9948770504252025
 20
42.1707678640621424
 30
0.0
  0
VERTEX
  5
3BC8
  8
0
 10
142.0041125594599976
 20
42.1828154965581206
 30
0.0
  0
VERTEX
  5
3BC9
  8
0
 10
142.0130605866773124
 20
42.1948677003170332
 30
0.0
  0
VERTEX
  5
3BCA
  8
0
 10
142.0217210247425896
 20
42.2069243307685511
 30
0.0
  0
VERTEX
  5
3BCB
  8
0
 10
142.0300937697707013
 20
42.218985243289282
 30
0.0
  0
VERTEX
  5
3BCC
  8
0
 10
142.0381787213275118
 20
42.23105029320417
 30
0.0
  0
VERTEX
  5
3BCD
  8
0
 10
142.0421132441126133
 20
42.2370843244599783
 30
0.0
  0
VERTEX
  5
3BCE
  8
0
 10
142.0459757824316966
 20
42.2431193357889825
 30
0.0
  0
VERTEX
  5
3BCF
  8
0
 10
142.053484859554402
 20
42.2551922262711486
 30
0.0
  0
VERTEX
  5
3BD0
  8
0
 10
142.0607058626216883
 20
42.2672688198323812
 30
0.0
  0
VERTEX
  5
3BD1
  8
0
 10
142.067638705015213
 20
42.2793489716095081
 30
0.0
  0
VERTEX
  5
3BD2
  8
0
 10
142.074283303573111
 20
42.2914325366970587
 30
0.0
  0
VERTEX
  5
3BD3
  8
0
 10
142.0806395785911889
 20
42.3035193701484005
 30
0.0
  0
VERTEX
  5
3BD4
  8
0
 10
142.0837095708106972
 20
42.309563967203907
 30
0.0
  0
VERTEX
  5
3BD5
  8
0
 10
142.0867074538234078
 20
42.3156093269777003
 30
0.0
  0
VERTEX
  5
3BD6
  8
0
 10
142.0924868564839016
 20
42.3277022621619281
 30
0.0
  0
VERTEX
  5
3BD7
  8
0
 10
142.0979777172462946
 20
42.3397980306420294
 30
0.0
  0
VERTEX
  5
3BD8
  8
0
 10
142.1031799702460887
 20
42.3518964873249288
 30
0.0
  0
VERTEX
  5
3BD9
  8
0
 10
142.1080935530806073
 20
42.3639974870856477
 30
0.0
  0
VERTEX
  5
3BDA
  8
0
 10
142.1127184068093072
 20
42.3761008847682632
 30
0.0
  0
VERTEX
  5
3BDB
  8
0
 10
142.1149225427870988
 20
42.3821534374613265
 30
0.0
  0
VERTEX
  5
3BDC
  8
0
 10
142.1170544759557117
 20
42.3882065351885231
 30
0.0
  0
VERTEX
  5
3BDD
  8
0
 10
142.1211017085070125
 20
42.4003142931348194
 30
0.0
  0
VERTEX
  5
3BDE
  8
0
 10
142.1248600559154056
 20
42.4124240133703907
 30
0.0
  0
VERTEX
  5
3BDF
  8
0
 10
142.1283294730980913
 20
42.4245355506349497
 30
0.0
  0
VERTEX
  5
3BE0
  8
0
 10
142.1315099184384962
 20
42.4366487596465021
 30
0.0
  0
VERTEX
  5
3BE1
  8
0
 10
142.1344013537855062
 20
42.448763495102682
 30
0.0
  0
VERTEX
  5
3BE2
  8
0
 10
142.1357386817375925
 20
42.4548213898356508
 30
0.0
  0
VERTEX
  5
3BE3
  8
0
 10
142.1370037444559955
 20
42.4608796116831826
 30
0.0
  0
VERTEX
  5
3BE4
  8
0
 10
142.1393170592326953
 20
42.4729969640509708
 30
0.0
  0
VERTEX
  5
3BE5
  8
0
 10
142.1413412703672918
 20
42.485115406854149
 30
0.0
  0
VERTEX
  5
3BE6
  8
0
 10
142.1430763535782091
 20
42.4972347947277029
 30
0.0
  0
VERTEX
  5
3BE7
  8
0
 10
142.1445222880527126
 20
42.5093549822955126
 30
0.0
  0
VERTEX
  5
3BE8
  8
0
 10
142.145679056446113
 20
42.5214758241716524
 30
0.0
  0
VERTEX
  5
3BE9
  8
0
 10
142.1461489988909932
 20
42.527536445040063
 30
0.0
  0
VERTEX
  5
3BEA
  8
0
 10
142.1465466448831023
 20
42.5335971749623667
 30
0.0
  0
VERTEX
  5
3BEB
  8
0
 10
142.1471250429557927
 20
42.5457188892680023
 30
0.0
  0
VERTEX
  5
3BEC
  8
0
 10
142.1474142437267858
 20
42.5578408216841027
 30
0.0
  0
VERTEX
  5
3BED
  8
0
 10
142.1474503939045917
 20
42.563901824244148
 30
0.0
  0
VERTEX
  5
3BEE
  8
0
 10
142.1474142437267858
 20
42.5699628268042005
 30
0.0
  0
VERTEX
  5
3BEF
  8
0
 10
142.1471250429557927
 20
42.582084759220308
 30
0.0
  0
VERTEX
  5
3BF0
  8
0
 10
142.1465466448831023
 20
42.5942064735259365
 30
0.0
  0
VERTEX
  5
3BF1
  8
0
 10
142.1461489988909932
 20
42.6002672034482401
 30
0.0
  0
VERTEX
  5
3BF2
  8
0
 10
142.145679056446113
 20
42.6063278243166579
 30
0.0
  0
VERTEX
  5
3BF3
  8
0
 10
142.1445222880527126
 20
42.6184486661927977
 30
0.0
  0
VERTEX
  5
3BF4
  8
0
 10
142.1430763535782091
 20
42.6305688537606073
 30
0.0
  0
VERTEX
  5
3BF5
  8
0
 10
142.1413412703672918
 20
42.6426882416341613
 30
0.0
  0
VERTEX
  5
3BF6
  8
0
 10
142.1393170592326953
 20
42.6548066844373324
 30
0.0
  0
VERTEX
  5
3BF7
  8
0
 10
142.1370037444559955
 20
42.6669240368051206
 30
0.0
  0
VERTEX
  5
3BF8
  8
0
 10
142.1357386817375925
 20
42.6729822586526524
 30
0.0
  0
VERTEX
  5
3BF9
  8
0
 10
142.1344013537855062
 20
42.6790401533856283
 30
0.0
  0
VERTEX
  5
3BFA
  8
0
 10
142.1315099184384962
 20
42.6911548888418082
 30
0.0
  0
VERTEX
  5
3BFB
  8
0
 10
142.1283294730980913
 20
42.7032680978533534
 30
0.0
  0
VERTEX
  5
3BFC
  8
0
 10
142.1248600559154056
 20
42.7153796351179125
 30
0.0
  0
VERTEX
  5
3BFD
  8
0
 10
142.1211017085070125
 20
42.7274893553534767
 30
0.0
  0
VERTEX
  5
3BFE
  8
0
 10
142.1170544759557117
 20
42.7395971132997801
 30
0.0
  0
VERTEX
  5
3BFF
  8
0
 10
142.1149225427870988
 20
42.7456502110269767
 30
0.0
  0
VERTEX
  5
3C00
  8
0
 10
142.1127184068093072
 20
42.75170276372004
 30
0.0
  0
VERTEX
  5
3C01
  8
0
 10
142.1080935530806073
 20
42.7638061614026483
 30
0.0
  0
VERTEX
  5
3C02
  8
0
 10
142.1031799702460887
 20
42.7759071611633672
 30
0.0
  0
VERTEX
  5
3C03
  8
0
 10
142.0979777172462946
 20
42.7880056178462809
 30
0.0
  0
VERTEX
  5
3C04
  8
0
 10
142.0924868564839016
 20
42.800101386326368
 30
0.0
  0
VERTEX
  5
3C05
  8
0
 10
142.0867074538234078
 20
42.8121943215106029
 30
0.0
  0
VERTEX
  5
3C06
  8
0
 10
142.0837095708106972
 20
42.8182396812843891
 30
0.0
  0
VERTEX
  5
3C07
  8
0
 10
142.0806395785911889
 20
42.8242842783399027
 30
0.0
  0
VERTEX
  5
3C08
  8
0
 10
142.074283303573111
 20
42.8363711117912516
 30
0.0
  0
VERTEX
  5
3C09
  8
0
 10
142.067638705015213
 20
42.8484546768788022
 30
0.0
  0
VERTEX
  5
3C0A
  8
0
 10
142.0607058626216883
 20
42.860534828655922
 30
0.0
  0
VERTEX
  5
3C0B
  8
0
 10
142.053484859554402
 20
42.8726114222171617
 30
0.0
  0
VERTEX
  5
3C0C
  8
0
 10
142.0459757824316966
 20
42.8846843126993207
 30
0.0
  0
VERTEX
  5
3C0D
  8
0
 10
142.0421132441126133
 20
42.890719324028332
 30
0.0
  0
VERTEX
  5
3C0E
  8
0
 10
142.0381787213275118
 20
42.8967533552841331
 30
0.0
  0
VERTEX
  5
3C0F
  8
0
 10
142.0300937697707013
 20
42.9088184051990282
 30
0.0
  0
VERTEX
  5
3C10
  8
0
 10
142.0217210247425896
 20
42.9208793177197521
 30
0.0
  0
VERTEX
  5
3C11
  8
0
 10
142.0130605866773124
 20
42.9329359481712771
 30
0.0
  0
VERTEX
  5
3C12
  8
0
 10
142.0041125594599976
 20
42.9449881519301826
 30
0.0
  0
VERTEX
  5
3C13
  8
0
 10
141.9948770504252025
 20
42.9570357844261608
 30
0.0
  0
VERTEX
  5
3C14
  8
0
 10
141.9901515247111092
 20
42.963057841287231
 30
0.0
  0
VERTEX
  5
3C15
  8
0
 10
141.985354170356004
 20
42.9690787011436868
 30
0.0
  0
VERTEX
  5
3C16
  8
0
 10
141.9755440334826915
 20
42.9811167576236102
 30
0.0
  0
VERTEX
  5
3C17
  8
0
 10
141.9654467574814021
 20
42.9931498094654572
 30
0.0
  0
VERTEX
  5
3C18
  8
0
 10
141.9602904800233034
 20
42.9991644135382529
 30
0.0
  0
VERTEX
  5
3C19
  8
0
 10
141.9550624634725864
 20
43.0051777123285675
 30
0.0
  0
VERTEX
  5
3C1A
  8
0
 10
141.944391276018905
 20
43.0172003219338777
 30
0.0
  0
VERTEX
  5
3C1B
  8
0
 10
141.9334333231255982
 20
43.0292174940662306
 30
0.0
  0
VERTEX
  5
3C1C
  8
0
 10
141.9278468505808064
 20
43.035223996030517
 30
0.0
  0
VERTEX
  5
3C1D
  8
0
 10
141.9221887362365919
 20
43.0412290845754697
 30
0.0
  0
VERTEX
  5
3C1E
  8
0
 10
141.9106576502352084
 20
43.0532349493781084
 30
0.0
  0
VERTEX
  5
3C1F
  8
0
 10
141.898840203440102
 20
43.0652349444599594
 30
0.0
  0
VERTEX
  5
3C20
  8
0
 10
141.8552261259646912
 20
43.1071866256564107
 30
0.0
  0
VERTEX
  5
3C21
  8
0
 10
141.7723207097554052
 20
43.1789146554488426
 30
0.0
  0
VERTEX
  5
3C22
  8
0
 10
141.7270222567325959
 20
43.2146810118930915
 30
0.0
  0
SEQEND
  5
3C23
  8
0
  0
POLYLINE
  5
2ED1
  8
0
 66
     1
 10
0.0
 20
0.0
 30
0.0
  0
VERTEX
  5
3C24
  8
0
 10
141.7270222567325959
 20
43.2146810118930915
 30
0.0
  0
VERTEX
  5
3C25
  8
0
 10
141.6081832788943018
 20
43.3055331389945621
 30
0.0
  0
VERTEX
  5
3C26
  8
0
 10
141.3580919884213927
 20
43.4950707641377576
 30
0.0
  0
VERTEX
  5
3C27
  8
0
 10
141.0954995005585886
 20
43.6921414231736023
 30
0.0
  0
VERTEX
  5
3C28
  8
0
 10
140.9595431008089861
 20
43.7934520215311878
 30
0.0
  0
VERTEX
  5
3C29
  8
0
 10
140.8208002112882866
 20
43.8963235264933829
 30
0.0
  0
VERTEX
  5
3C2A
  8
0
 10
140.5369902534737037
 20
44.10502949192486
 30
0.0
  0
VERTEX
  5
3C2B
  8
0
 10
140.2480492052567911
 20
44.314844825961849
 30
0.0
  0
VERTEX
  5
3C2C
  8
0
 10
139.9577867509113105
 20
44.5224428470141191
 30
0.0
  0
VERTEX
  5
3C2D
  8
0
 10
139.6698922564411873
 20
44.7245899810254031
 30
0.0
  0
VERTEX
  5
3C2E
  8
0
 10
139.386960855636687
 20
44.9188505627962869
 30
0.0
  0
VERTEX
  5
3C2F
  8
0
 10
139.2451827637922008
 20
45.0142638636751116
 30
0.0
  0
VERTEX
  5
3C30
  8
0
 10
139.1030495349999967
 20
45.1084334132198634
 30
0.0
  0
VERTEX
  5
3C31
  8
0
 10
138.8197862389600061
 20
45.2909840472386023
 30
0.0
  0
VERTEX
  5
3C32
  8
0
 10
138.5411341995965984
 20
45.462486155804001
 30
0.0
  0
VERTEX
  5
3C33
  8
0
 10
138.3821949053235016
 20
45.5558875248485009
 30
0.0
  0
VERTEX
  5
3C34
  8
0
 10
138.3374013280919996
 20
45.5815376050067371
 30
0.0
  0
VERTEX
  5
3C35
  8
0
 10
138.2929111646851084
 20
45.6066961263062822
 30
0.0
  0
VERTEX
  5
3C36
  8
0
 10
138.270784660398192
 20
45.6190858397449475
 30
0.0
  0
VERTEX
  5
3C37
  8
0
 10
138.2487397285997019
 20
45.6313464341008483
 30
0.0
  0
VERTEX
  5
3C38
  8
0
 10
138.2049020262518013
 20
45.6554720837123469
 30
0.0
  0
VERTEX
  5
3C39
  8
0
 10
138.1614127371572067
 20
45.6790568520429332
 30
0.0
  0
VERTEX
  5
3C3A
  8
0
 10
138.118286130364794
 20
45.7020847820025793
 30
0.0
  0
VERTEX
  5
3C3B
  8
0
 10
138.0755321485711988
 20
45.7245422183502086
 30
0.0
  0
VERTEX
  5
3C3C
  8
0
 10
138.0331623389762967
 20
45.7464145888911133
 30
0.0
  0
VERTEX
  5
3C3D
  8
0
 10
138.0121258401377133
 20
45.7571264396880579
 30
0.0
  0
VERTEX
  5
3C3E
  8
0
 10
137.9911905702446973
 20
45.7676861219073672
 30
0.0
  0
VERTEX
  5
3C3F
  8
0
 10
137.9496305138391108
 20
45.7883412084942591
 30
0.0
  0
VERTEX
  5
3C40
  8
0
 10
137.908495620381899
 20
45.8083644216330228
 30
0.0
  0
VERTEX
  5
3C41
  8
0
 10
137.8677990959297119
 20
45.8277405347442226
 30
0.0
  0
VERTEX
  5
3C42
  8
0
 10
137.8275538781641956
 20
45.8464545396103986
 30
0.0
  0
VERTEX
  5
3C43
  8
0
 10
137.7877726125327058
 20
45.8644916635314885
 30
0.0
  0
VERTEX
  5
3C44
  8
0
 10
137.7680598276853914
 20
45.8732518470848518
 30
0.0
  0
VERTEX
  5
3C45
  8
0
 10
137.7484676283723104
 20
45.8818373855581711
 30
0.0
  0
VERTEX
  5
3C46
  8
0
 10
137.7096509150767076
 20
45.8984774516212966
 30
0.0
  0
VERTEX
  5
3C47
  8
0
 10
137.6713340983799014
 20
45.9143978883501305
 30
0.0
  0
VERTEX
  5
3C48
  8
0
 10
137.6523666790687912
 20
45.9220839588466987
 30
0.0
  0
VERTEX
  5
3C49
  8
0
 10
137.6335284168492024
 20
45.929585015350689
 30
0.0
  0
VERTEX
  5
3C4A
  8
0
 10
137.596244698702094
 20
45.9440254556829331
 30
0.0
  0
VERTEX
  5
3C4B
  8
0
 10
137.5594933390802908
 20
45.9577061442553685
 30
0.0
  0
VERTEX
  5
3C4C
  8
0
 10
137.5413204183226128
 20
45.9642575855924989
 30
0.0
  0
VERTEX
  5
3C4D
  8
0
 10
137.523284277860995
 20
45.9706143338518487
 30
0.0
  0
VERTEX
  5
3C4E
  8
0
 10
137.4876270003846912
 20
45.9827375910887568
 30
0.0
  0
VERTEX
  5
3C4F
  8
0
 10
137.4525306713007922
 20
45.9940637501661485
 30
0.0
  0
VERTEX
  5
3C50
  8
0
 10
137.4180042070510979
 20
46.0045808990561582
 30
0.0
  0
VERTEX
  5
3C51
  8
0
 10
137.3840562488753108
 20
46.0142774027666874
 30
0.0
  0
VERTEX
  5
3C52
  8
0
 10
137.3506951317212952
 20
46.0231419267544624
 30
0.0
  0
VERTEX
  5
3C53
  8
0
 10
137.3342371519335927
 20
46.0272587418265076
 30
0.0
  0
VERTEX
  5
3C54
  8
0
 10
137.3179288537758111
 20
46.0311634585595328
 30
0.0
  0
VERTEX
  5
3C55
  8
0
 10
137.2857650467539941
 20
46.0383313273824015
 30
0.0
  0
VERTEX
  5
3C56
  8
0
 10
137.2542109470969081
 20
46.0446352213025918
 30
0.0
  0
VERTEX
  5
3C57
  8
0
 10
137.2232733682490107
 20
46.0500652018192085
 30
0.0
  0
VERTEX
  5
3C58
  8
0
 10
137.192958674198195
 20
46.0546117153745982
 30
0.0
  0
VERTEX
  5
3C59
  8
0
 10
137.1632727544798911
 20
46.05826560150755
 30
0.0
  0
VERTEX
  5
3C5A
  8
0
 10
137.148667289964493
 20
46.059755055303107
 30
0.0
  0
VERTEX
  5
3C5B
  8
0
 10
137.1342210008544953
 20
46.0610180972690131
 30
0.0
  0
VERTEX
  5
3C5C
  8
0
 10
137.1058082858860132
 20
46.0628608375291506
 30
0.0
  0
VERTEX
  5
3C5D
  8
0
 10
137.0780389436546898
 20
46.0637858508002225
 30
0.0
  0
VERTEX
  5
3C5E
  8
0
 10
137.0643967402579051
 20
46.063901824244148
 30
0.0
  0
SEQEND
  5
3C5F
  8
0
  0
LINE
  5
2ED2
  8
0
 10
145.338406806572209
 20
39.0639018242441622
 30
0.0
 11
137.0643967402579051
 21
39.0639018242441622
 31
0.0
  0
POLYLINE
  5
2ED3
  8
0
 66
     1
 10
0.0
 20
0.0
 30
0.0
  0
VERTEX
  5
3C60
  8
0
 10
145.338406806572209
 20
39.0639018242441622
 30
0.0
  0
VERTEX
  5
3C61
  8
0
 10
145.1536021463057011
 20
38.9664956879228583
 30
0.0
  0
VERTEX
  5
3C62
  8
0
 10
144.6338401792625064
 20
38.7721625510986811
 30
0.0
  0
VERTEX
  5
3C63
  8
0
 10
143.9145333195976946
 20
38.5787031086176029
 30
0.0
  0
VERTEX
  5
3C64
  8
0
 10
143.4803654008146054
 20
38.4823887931166126
 30
0.0
  0
SEQEND
  5
3C65
  8
0
  0
POLYLINE
  5
2ED4
  8
0
 66
     1
 10
0.0
 20
0.0
 30
0.0
  0
VERTEX
  5
3C66
  8
0
 10
133.5227730595846936
 20
38.5658880826295416
 30
0.0
  0
VERTEX
  5
3C67
  8
0
 10
133.5230385692698007
 20
38.5684542665017389
 30
0.0
  0
VERTEX
  5
3C68
  8
0
 10
133.5251625532764024
 20
38.5735860319597776
 30
0.0
  0
VERTEX
  5
3C69
  8
0
 10
133.5294100227879142
 20
38.5787159906995427
 30
0.0
  0
VERTEX
  5
3C6A
  8
0
 10
133.5323297725437897
 20
38.5812799162732034
 30
0.0
  0
VERTEX
  5
3C6B
  8
0
 10
133.5357799809179937
 20
38.5838429387130617
 30
0.0
  0
VERTEX
  5
3C6C
  8
0
 10
133.544270932629388
 20
38.5889656726995298
 30
0.0
  0
VERTEX
  5
3C6D
  8
0
 10
133.5548808850851117
 20
38.5940829903467417
 30
0.0
  0
VERTEX
  5
3C6E
  8
0
 10
133.5676073481162973
 20
38.599193690613717
 30
0.0
  0
VERTEX
  5
3C6F
  8
0
 10
133.5824473348056927
 20
38.6042965740129418
 30
0.0
  0
VERTEX
  5
3C70
  8
0
 10
133.5993973621903024
 20
38.6093904428911827
 30
0.0
  0
VERTEX
  5
3C71
  8
0
 10
133.6086624172781114
 20
38.611933623189131
 30
0.0
  0
VERTEX
  5
3C72
  8
0
 10
133.618453452077091
 20
38.6144741017109681
 30
0.0
  0
VERTEX
  5
3C73
  8
0
 10
133.6396111319783984
 20
38.6195463573313233
 30
0.0
  0
VERTEX
  5
3C74
  8
0
 10
133.662865436159791
 20
38.6246060192875618
 30
0.0
  0
VERTEX
  5
3C75
  8
0
 10
133.6882109068073987
 20
38.6296519000705274
 30
0.0
  0
VERTEX
  5
3C76
  8
0
 10
133.7156415953072042
 20
38.6346828154056965
 30
0.0
  0
VERTEX
  5
3C77
  8
0
 10
133.7451510636425951
 20
38.6396975845311133
 30
0.0
  0
VERTEX
  5
3C78
  8
0
 10
133.7606831949165098
 20
38.6421985463055506
 30
0.0
  0
VERTEX
  5
3C79
  8
0
 10
133.7767323859040971
 20
38.6446950304740966
 30
0.0
  0
VERTEX
  5
3C7A
  8
0
 10
133.8103781499162039
 20
38.6496739803277904
 30
0.0
  0
VERTEX
  5
3C7B
  8
0
 10
133.8460804589757913
 20
38.6546332655264422
 30
0.0
  0
VERTEX
  5
3C7C
  8
0
 10
133.8647002181448897
 20
38.6571051699580011
 30
0.0
  0
SEQEND
  5
3C7D
  8
0
  0
LINE
  5
2ED5
  8
0
 10
133.8647002181448897
 20
38.6571051699580011
 30
0.0
 11
136.7011090043183117
 21
39.0281596208274522
 31
0.0
  0
POLYLINE
  5
2ED6
  8
0
 66
     1
 10
0.0
 20
0.0
 30
0.0
  0
VERTEX
  5
3C7E
  8
0
 10
136.7011090043183117
 20
39.0281596208274522
 30
0.0
  0
VERTEX
  5
3C7F
  8
0
 10
136.7502948651182919
 20
39.0342659928220925
 30
0.0
  0
VERTEX
  5
3C80
  8
0
 10
136.8624386459611912
 20
39.0463136614433068
 30
0.0
  0
VERTEX
  5
3C81
  8
0
 10
136.9926454320905123
 20
39.0581097464255933
 30
0.0
  0
VERTEX
  5
3C82
  8
0
 10
137.0643967402579051
 20
39.0639018242441622
 30
0.0
  0
SEQEND
  5
3C83
  8
0
  0
POLYLINE
  5
2ED7
  8
0
 66
     1
 10
0.0
 20
0.0
 30
0.0
  0
VERTEX
  5
3C84
  8
0
 10
143.4803654008146054
 20
38.4823887931166126
 30
0.0
  0
VERTEX
  5
3C85
  8
0
 10
143.4748884230754982
 20
38.4813381335872506
 30
0.0
  0
VERTEX
  5
3C86
  8
0
 10
143.4639438400926963
 20
38.4798166304332625
 30
0.0
  0
VERTEX
  5
3C87
  8
0
 10
143.4530151007614052
 20
38.4790605412702504
 30
0.0
  0
VERTEX
  5
3C88
  8
0
 10
143.4475579365675912
 20
38.4789665022616774
 30
0.0
  0
SEQEND
  5
3C89
  8
0
  0
LINE
  5
2ED8
  8
0
 10
133.5227730595846936
 20
38.4789665022616774
 30
0.0
 11
133.5227730595846936
 21
46.6488371462266187
 31
0.0
  0
POLYLINE
  5
2ED9
  8
0
 66
     1
 10
0.0
 20
0.0
 30
0.0
  0
VERTEX
  5
3C8A
  8
0
 10
138.1169792619263887
 20
49.563901824244148
 30
0.0
  0
VERTEX
  5
3C8B
  8
0
 10
138.160807779919395
 20
49.5627289075370498
 30
0.0
  0
VERTEX
  5
3C8C
  8
0
 10
138.2473701287622134
 20
49.5534476409163105
 30
0.0
  0
VERTEX
  5
3C8D
  8
0
 10
138.3322859412637058
 20
49.5351806530688208
 30
0.0
  0
VERTEX
  5
3C8E
  8
0
 10
138.3740582796206127
 20
49.5227912205087222
 30
0.0
  0
VERTEX
  5
3C8F
  8
0
 10
138.4154283724055858
 20
49.5082660823413008
 30
0.0
  0
VERTEX
  5
3C90
  8
0
 10
138.4983246012293137
 20
49.4722638512352404
 30
0.0
  0
VERTEX
  5
3C91
  8
0
 10
138.5813729948386026
 20
49.4266980087784802
 30
0.0
  0
VERTEX
  5
3C92
  8
0
 10
138.6642905623529884
 20
49.3713499116578802
 30
0.0
  0
VERTEX
  5
3C93
  8
0
 10
138.7468041826764136
 20
49.3060712398101231
 30
0.0
  0
VERTEX
  5
3C94
  8
0
 10
138.8286542340568133
 20
49.2307803845895222
 30
0.0
  0
VERTEX
  5
3C95
  8
0
 10
138.8692534909449989
 20
49.1893720735757114
 30
0.0
  0
VERTEX
  5
3C96
  8
0
 10
138.9095958588019926
 20
49.1454589467530596
 30
0.0
  0
VERTEX
  5
3C97
  8
0
 10
138.9893937110273043
 20
49.0501555725726774
 30
0.0
  0
VERTEX
  5
3C98
  8
0
 10
139.0678218746786001
 20
48.9449872440696225
 30
0.0
  0
VERTEX
  5
3C99
  8
0
 10
139.1446671829345973
 20
48.830135892245309
 30
0.0
  0
VERTEX
  5
3C9A
  8
0
 10
139.2197373178040891
 20
48.7058341003628783
 30
0.0
  0
VERTEX
  5
3C9B
  8
0
 10
139.2928801585173915
 20
48.5723212051502031
 30
0.0
  0
VERTEX
  5
3C9C
  8
0
 10
139.3286760034291092
 20
48.5022137227642105
 30
0.0
  0
VERTEX
  5
3C9D
  8
0
 10
139.3639268723757141
 20
48.4299372776302306
 30
0.0
  0
VERTEX
  5
3C9E
  8
0
 10
139.432714823385993
 20
48.2790965214406214
 30
0.0
  0
VERTEX
  5
3C9F
  8
0
 10
139.4990959571356939
 20
48.1202735954760072
 30
0.0
  0
VERTEX
  5
3CA0
  8
0
 10
139.5313423608604069
 20
48.0380318769510168
 30
0.0
  0
SEQEND
  5
3CA1
  8
0
  0
POLYLINE
  5
2EDA
  8
0
 66
     1
 10
0.0
 20
0.0
 30
0.0
  0
VERTEX
  5
3CA2
  8
0
 10
139.5313423608604069
 20
37.0897717715372934
 30
0.0
  0
VERTEX
  5
3CA3
  8
0
 10
139.499095957135097
 20
37.0075300530102567
 30
0.0
  0
VERTEX
  5
3CA4
  8
0
 10
139.4327148233853109
 20
36.8487071270458699
 30
0.0
  0
VERTEX
  5
3CA5
  8
0
 10
139.3639268723750035
 20
36.6978663708564881
 30
0.0
  0
VERTEX
  5
3CA6
  8
0
 10
139.3286760034283986
 20
36.6255899257226218
 30
0.0
  0
VERTEX
  5
3CA7
  8
0
 10
139.2928801585167093
 20
36.55548244333675
 30
0.0
  0
VERTEX
  5
3CA8
  8
0
 10
139.219737317803208
 20
36.4219695481241814
 30
0.0
  0
VERTEX
  5
3CA9
  8
0
 10
139.1446671829338868
 20
36.2976677562419781
 30
0.0
  0
VERTEX
  5
3CAA
  8
0
 10
139.0678218746782022
 20
36.1828164044177782
 30
0.0
  0
VERTEX
  5
3CAB
  8
0
 10
138.9893937110267927
 20
36.077648075914837
 30
0.0
  0
VERTEX
  5
3CAC
  8
0
 10
138.9095958588013104
 20
35.9823447017346822
 30
0.0
  0
VERTEX
  5
3CAD
  8
0
 10
138.869253490944601
 20
35.9384315749120304
 30
0.0
  0
VERTEX
  5
3CAE
  8
0
 10
138.8286542340563017
 20
35.8970232638983333
 30
0.0
  0
VERTEX
  5
3CAF
  8
0
 10
138.7468041826759872
 20
35.8217324086778532
 30
0.0
  0
VERTEX
  5
3CB0
  8
0
 10
138.6642905623525053
 20
35.7564537368301032
 30
0.0
  0
VERTEX
  5
3CB1
  8
0
 10
138.581372994838091
 20
35.7011056397096098
 30
0.0
  0
VERTEX
  5
3CB2
  8
0
 10
138.4983246012290863
 20
35.6555397972529633
 30
0.0
  0
VERTEX
  5
3CB3
  8
0
 10
138.4154283724053016
 20
35.6195375661468887
 30
0.0
  0
VERTEX
  5
3CB4
  8
0
 10
138.3740582796204137
 20
35.6050124279794673
 30
0.0
  0
VERTEX
  5
3CB5
  8
0
 10
138.3322859412637058
 20
35.5926229954194895
 30
0.0
  0
VERTEX
  5
3CB6
  8
0
 10
138.2473701287622134
 20
35.5743560075720069
 30
0.0
  0
VERTEX
  5
3CB7
  8
0
 10
138.160807779919395
 20
35.5650747409512604
 30
0.0
  0
VERTEX
  5
3CB8
  8
0
 10
138.1169792619263887
 20
35.563901824244148
 30
0.0
  0
SEQEND
  5
3CB9
  8
0
  0
POLYLINE
  5
2EDB
  8
0
 66
     1
 10
0.0
 20
0.0
 30
0.0
  0
VERTEX
  5
3CBA
  8
0
 10
143.4475579365675912
 20
46.6488371462266187
 30
0.0
  0
VERTEX
  5
3CBB
  8
0
 10
143.4530151007614052
 20
46.6487431072180598
 30
0.0
  0
VERTEX
  5
3CBC
  8
0
 10
143.4639438400926963
 20
46.6479870180550407
 30
0.0
  0
VERTEX
  5
3CBD
  8
0
 10
143.4748884230754982
 20
46.6464655149010667
 30
0.0
  0
VERTEX
  5
3CBE
  8
0
 10
143.4803654008146054
 20
46.6454148553716976
 30
0.0
  0
SEQEND
  5
3CBF
  8
0
  0
POLYLINE
  5
2EDC
  8
0
 66
     1
 10
0.0
 20
0.0
 30
0.0
  0
VERTEX
  5
3CC0
  8
0
 10
133.5227730595846936
 20
46.309337696116387
 30
0.0
  0
VERTEX
  5
3CC1
  8
0
 10
133.5224165938882095
 20
46.3015086601442718
 30
0.0
  0
VERTEX
  5
3CC2
  8
0
 10
133.5195442474868912
 20
46.2864362054823815
 30
0.0
  0
VERTEX
  5
3CC3
  8
0
 10
133.5137494465753036
 20
46.272165263477099
 30
0.0
  0
VERTEX
  5
3CC4
  8
0
 10
133.5097410935549931
 20
46.2653375951777406
 30
0.0
  0
VERTEX
  5
3CC5
  8
0
 10
133.5049847254676934
 20
46.2587186991853869
 30
0.0
  0
VERTEX
  5
3CC6
  8
0
 10
133.4932077302927951
 20
46.2461170427821315
 30
0.0
  0
VERTEX
  5
3CC7
  8
0
 10
133.4783812497645954
 20
46.2343784059218379
 30
0.0
  0
VERTEX
  5
3CC8
  8
0
 10
133.4604731998516911
 20
46.2235184185177985
 30
0.0
  0
VERTEX
  5
3CC9
  8
0
 10
133.439456561488214
 20
46.2135501860230278
 30
0.0
  0
VERTEX
  5
3CCA
  8
0
 10
133.4153092702196943
 20
46.2044842672718588
 30
0.0
  0
VERTEX
  5
3CCB
  8
0
 10
133.4020560511094118
 20
46.2002922780316467
 30
0.0
  0
VERTEX
  5
3CCC
  8
0
 10
133.3880140564810972
 20
46.1963286728871907
 30
0.0
  0
VERTEX
  5
3CCD
  8
0
 10
133.3575582350636068
 20
46.1890888841981422
 30
0.0
  0
VERTEX
  5
3CCE
  8
0
 10
133.323933474944198
 20
46.1827678979556495
 30
0.0
  0
VERTEX
  5
3CCF
  8
0
 10
133.2871359447638042
 20
46.1773663390498896
 30
0.0
  0
VERTEX
  5
3CD0
  8
0
 10
133.2471666735872873
 20
46.1728825336224773
 30
0.0
  0
VERTEX
  5
3CD1
  8
0
 10
133.2040315936118873
 20
46.1693124971032276
 30
0.0
  0
VERTEX
  5
3CD2
  8
0
 10
133.1812800612225942
 20
46.1678682645319185
 30
0.0
  0
VERTEX
  5
3CD3
  8
0
 10
133.1577415016064947
 20
46.1666499333219207
 30
0.0
  0
VERTEX
  5
3CD4
  8
0
 10
133.1083119778139974
 20
46.1648862539172313
 30
0.0
  0
VERTEX
  5
3CD5
  8
0
 10
133.0557632630172975
 20
46.1640106171363769
 30
0.0
  0
VERTEX
  5
3CD6
  8
0
 10
133.0283267690155924
 20
46.1639018242441708
 30
0.0
  0
SEQEND
  5
3CD7
  8
0
  0
POLYLINE
  5
2EDD
  8
0
 66
     1
 10
0.0
 20
0.0
 30
0.0
  0
VERTEX
  5
3CD8
  8
0
 10
133.0283267690155924
 20
46.1639018242441708
 30
0.0
  0
VERTEX
  5
3CD9
  8
0
 10
132.996212859918387
 20
46.1640414490331494
 30
0.0
  0
VERTEX
  5
3CDA
  8
0
 10
132.9290237548487141
 20
46.1651494585283189
 30
0.0
  0
VERTEX
  5
3CDB
  8
0
 10
132.8579280337785065
 20
46.1673407882952205
 30
0.0
  0
VERTEX
  5
3CDC
  8
0
 10
132.8209315791569054
 20
46.1688338515728418
 30
0.0
  0
SEQEND
  5
3CDD
  8
0
  0
POLYLINE
  5
2EDE
  8
0
 66
     1
 10
0.0
 20
0.0
 30
0.0
  0
VERTEX
  5
3CDE
  8
0
 10
139.5313423608604069
 20
48.0380318769510168
 30
0.0
  0
VERTEX
  5
3CDF
  8
0
 10
139.7870524989691035
 20
47.7386405896992727
 30
0.0
  0
VERTEX
  5
3CE0
  8
0
 10
140.2819036250847944
 20
47.2221461665562074
 30
0.0
  0
VERTEX
  5
3CE1
  8
0
 10
140.7505413297573966
 20
46.8145964568085873
 30
0.0
  0
VERTEX
  5
3CE2
  8
0
 10
140.9765938191845009
 20
46.6487162757418119
 30
0.0
  0
SEQEND
  5
3CE3
  8
0
  0
LINE
  5
2EDF
  8
0
 10
118.522773059584793
 20
36.0639018242441622
 30
0.0
 11
118.522773059584793
 21
49.0639018242441622
 31
0.0
  0
LINE
  5
2EE0
  8
0
 10
129.0227730595848072
 20
49.563901824244148
 30
0.0
 11
129.0227730595848072
 21
35.563901824244148
 31
0.0
  0
POLYLINE
  5
2EE1
  8
0
 66
     1
 10
0.0
 20
0.0
 30
0.0
  0
VERTEX
  5
3CE4
  8
0
 10
132.8209315791569054
 20
46.1688338515728418
 30
0.0
  0
VERTEX
  5
3CE5
  8
0
 10
132.7282908035271873
 20
46.1736389397736176
 30
0.0
  0
VERTEX
  5
3CE6
  8
0
 10
132.5400119904419967
 20
46.1881536375538317
 30
0.0
  0
VERTEX
  5
3CE7
  8
0
 10
132.3478623310294893
 20
46.2092482412547625
 30
0.0
  0
VERTEX
  5
3CE8
  8
0
 10
132.2503856165307923
 20
46.2222726329315918
 30
0.0
  0
VERTEX
  5
3CE9
  8
0
 10
132.1520024125019859
 20
46.2369505682607169
 30
0.0
  0
VERTEX
  5
3CEA
  8
0
 10
131.9526054347986133
 20
46.2712646267693088
 30
0.0
  0
VERTEX
  5
3CEB
  8
0
 10
131.7498565057485109
 20
46.3121708639430807
 30
0.0
  0
VERTEX
  5
3CEC
  8
0
 10
131.5439519005061868
 20
46.3596265697442931
 30
0.0
  0
VERTEX
  5
3CED
  8
0
 10
131.3350982578812989
 20
46.4135664273990614
 30
0.0
  0
VERTEX
  5
3CEE
  8
0
 10
131.1235112648728034
 20
46.4739033345369208
 30
0.0
  0
VERTEX
  5
3CEF
  8
0
 10
131.016757246324687
 20
46.506439324776963
 30
0.0
  0
VERTEX
  5
3CF0
  8
0
 10
130.9093981872580912
 20
46.5405346332891412
 30
0.0
  0
VERTEX
  5
3CF1
  8
0
 10
130.6929839243277911
 20
46.6133357166042188
 30
0.0
  0
VERTEX
  5
3CF2
  8
0
 10
130.4745132684273869
 20
46.6921584965965977
 30
0.0
  0
VERTEX
  5
3CF3
  8
0
 10
130.2542413375142019
 20
46.7768343012489112
 30
0.0
  0
VERTEX
  5
3CF4
  8
0
 10
130.0324326818966085
 20
46.8671745102872634
 30
0.0
  0
VERTEX
  5
3CF5
  8
0
 10
129.8093603702405119
 20
46.9629712827918766
 30
0.0
  0
VERTEX
  5
3CF6
  8
0
 10
129.6974377758126025
 20
47.0128458727067908
 30
0.0
  0
VERTEX
  5
3CF7
  8
0
 10
129.5853050429599875
 20
47.0639983726236224
 30
0.0
  0
VERTEX
  5
3CF8
  8
0
 10
129.3605539705719991
 20
47.1700120073733515
 30
0.0
  0
VERTEX
  5
3CF9
  8
0
 10
129.1354033588224866
 20
47.2807501941997899
 30
0.0
  0
VERTEX
  5
3CFA
  8
0
 10
129.0227730595848072
 20
47.3378042735870821
 30
0.0
  0
SEQEND
  5
3CFB
  8
0
  0
POLYLINE
  5
2EE2
  8
0
 66
     1
 10
0.0
 20
0.0
 30
0.0
  0
VERTEX
  5
3CFC
  8
0
 10
129.0227730595848072
 20
37.7899993749013419
 30
0.0
  0
VERTEX
  5
3CFD
  8
0
 10
129.1354033588224866
 20
37.8470534542885133
 30
0.0
  0
VERTEX
  5
3CFE
  8
0
 10
129.3605539705719991
 20
37.9577916411149516
 30
0.0
  0
VERTEX
  5
3CFF
  8
0
 10
129.5853050429599875
 20
38.0638052758648016
 30
0.0
  0
VERTEX
  5
3D00
  8
0
 10
129.6974377758126025
 20
38.1149577757815194
 30
0.0
  0
VERTEX
  5
3D01
  8
0
 10
129.8093603702401992
 20
38.1648323656964266
 30
0.0
  0
VERTEX
  5
3D02
  8
0
 10
130.0324326818966085
 20
38.260629138201061
 30
0.0
  0
VERTEX
  5
3D03
  8
0
 10
130.2542413375142019
 20
38.3509693472393991
 30
0.0
  0
VERTEX
  5
3D04
  8
0
 10
130.4745132684273869
 20
38.4356451518917126
 30
0.0
  0
VERTEX
  5
3D05
  8
0
 10
130.6929839243277911
 20
38.5144679318840772
 30
0.0
  0
VERTEX
  5
3D06
  8
0
 10
130.9093981872580912
 20
38.5872690151991691
 30
0.0
  0
VERTEX
  5
3D07
  8
0
 10
131.016757246324687
 20
38.621364323711461
 30
0.0
  0
VERTEX
  5
3D08
  8
0
 10
131.1235112648728034
 20
38.6539003139515032
 30
0.0
  0
VERTEX
  5
3D09
  8
0
 10
131.3350982578812989
 20
38.7142372210893626
 30
0.0
  0
VERTEX
  5
3D0A
  8
0
 10
131.5439519005061868
 20
38.7681770787440172
 30
0.0
  0
VERTEX
  5
3D0B
  8
0
 10
131.7498565057485109
 20
38.8156327845452296
 30
0.0
  0
VERTEX
  5
3D0C
  8
0
 10
131.9526054347986133
 20
38.8565390217190014
 30
0.0
  0
VERTEX
  5
3D0D
  8
0
 10
132.1520024125019859
 20
38.8908530802275934
 30
0.0
  0
VERTEX
  5
3D0E
  8
0
 10
132.2503856165307923
 20
38.9055310155567184
 30
0.0
  0
VERTEX
  5
3D0F
  8
0
 10
132.3478623310294893
 20
38.9185554072335407
 30
0.0
  0
VERTEX
  5
3D10
  8
0
 10
132.5400119904419967
 20
38.9396500109344714
 30
0.0
  0
VERTEX
  5
3D11
  8
0
 10
132.7282908035271873
 20
38.9541647087146927
 30
0.0
  0
VERTEX
  5
3D12
  8
0
 10
132.8209315791569054
 20
38.9589697969155822
 30
0.0
  0
SEQEND
  5
3D13
  8
0
  0
LINE
  5
2EE3
  8
0
 10
114.522773059584793
 20
47.2639018242441935
 30
0.0
 11
114.522773059584793
 21
37.8639018242441097
 31
0.0
  0
LINE
  5
2EE4
  8
0
 10
114.8227730595849039
 20
47.563901824244148
 30
0.0
 11
114.8227730595849039
 21
37.5639018242441622
 31
0.0
  0
LINE
  5
2EE5
  8
1
 10
148.3898144786010107
 20
42.563901824244148
 30
0.0
 11
84.2227730595850517
 21
42.563901824244212
 31
0.0
  0
LINE
  5
2EE6
  8
1
 10
86.7227730595848243
 20
165.5639018242441125
 30
0.0
 11
86.7227730595848243
 21
153.5639018242441125
 31
0.0
  0
LINE
  5
2EE7
  8
1
 10
107.7227730595847959
 20
165.5639018242441125
 30
0.0
 11
107.7227730595847959
 21
153.5639018242441125
 31
0.0
  0
LINE
  5
2EE8
  8
1
 10
97.2227730595848243
 20
169.5639018242441125
 30
0.0
 11
97.2227730595848243
 21
116.0639018242439988
 31
0.0
  0
LINE
  5
2EE9
  8
0
 10
143.3719112845813015
 20
85.0639018242440699
 30
0.0
 11
142.1474503939043075
 21
85.0639018242440699
 31
0.0
  0
LINE
  5
2EEA
  8
0
 10
129.0227730595848072
 20
118.5739018242440039
 30
0.0
 11
118.522773059584793
 21
118.5739018242440039
 31
0.0
  0
LINE
  5
2EEB
  8
0
 10
118.6727504078744033
 20
131.5739018242439897
 30
0.0
 11
133.3100988331214012
 21
131.5739018242439897
 31
0.0
  0
LINE
  5
2EEC
  8
0
 10
114.522773059584793
 20
129.7639018242441011
 30
0.0
 11
114.8227730595847049
 21
130.0639018242439988
 31
0.0
  0
LINE
  5
2EED
  8
0
 10
114.8227730595847049
 20
120.0639018242439988
 30
0.0
 11
114.522773059584793
 21
120.363901824243996
 31
0.0
  0
LINE
  5
2EEE
  8
0
 10
136.5636963472823027
 20
129.3639018242440102
 30
0.0
 11
139.0227730595848072
 21
129.3639018242440102
 31
0.0
  0
LINE
  5
2EEF
  8
0
 10
114.8227730595847049
 20
130.0639018242439988
 30
0.0
 11
118.522773059584793
 21
130.0639018242439988
 31
0.0
  0
LINE
  5
2EF0
  8
0
 10
118.522773059584793
 20
120.0639018242439988
 30
0.0
 11
114.8227730595847049
 21
120.0639018242439988
 31
0.0
  0
POLYLINE
  5
2EF1
  8
0
 66
     1
 10
0.0
 20
0.0
 30
0.0
  0
VERTEX
  5
3D14
  8
0
 10
143.2972520868434003
 20
105.2872806243353949
 30
0.0
  0
VERTEX
  5
3D15
  8
0
 10
143.2146241697988955
 20
105.7314070511426962
 30
0.0
  0
VERTEX
  5
3D16
  8
0
 10
143.0441103145676038
 20
106.6235405332714947
 30
0.0
  0
VERTEX
  5
3D17
  8
0
 10
142.8668323901025872
 20
107.519091345152404
 30
0.0
  0
VERTEX
  5
3D18
  8
0
 10
142.7757581509303861
 20
107.9675104796992002
 30
0.0
  0
VERTEX
  5
3D19
  8
0
 10
142.6831076289151952
 20
108.4160838675934002
 30
0.0
  0
VERTEX
  5
3D1A
  8
0
 10
142.4932806799872935
 20
109.3126613957726931
 30
0.0
  0
VERTEX
  5
3D1B
  8
0
 10
142.2978010460676046
 20
110.2067216444421973
 30
0.0
  0
VERTEX
  5
3D1C
  8
0
 10
142.0971784177538098
 20
111.0961503660279988
 30
0.0
  0
VERTEX
  5
3D1D
  8
0
 10
141.8919757932762877
 20
111.9788525250298932
 30
0.0
  0
VERTEX
  5
3D1E
  8
0
 10
141.6828027719319891
 20
112.8527761416610957
 30
0.0
  0
VERTEX
  5
3D1F
  8
0
 10
141.5769306986717027
 20
113.2858141237753955
 30
0.0
  0
VERTEX
  5
3D20
  8
0
 10
141.4703168639979936
 20
113.715898846204496
 30
0.0
  0
VERTEX
  5
3D21
  8
0
 10
141.2552291440439944
 20
114.5661984619529932
 30
0.0
  0
VERTEX
  5
3D22
  8
0
 10
141.0382983896429039
 20
115.401670695821494
 30
0.0
  0
VERTEX
  5
3D23
  8
0
 10
140.8203226774714949
 20
116.2203524119973963
 30
0.0
  0
VERTEX
  5
3D24
  8
0
 10
140.599814135953892
 20
117.0287349416259985
 30
0.0
  0
VERTEX
  5
3D25
  8
0
 10
140.3726393626334072
 20
117.842066416868704
 30
0.0
  0
VERTEX
  5
3D26
  8
0
 10
140.2566499265388131
 20
118.2501098040277014
 30
0.0
  0
VERTEX
  5
3D27
  8
0
 10
140.1391451735181874
 20
118.6587159487929029
 30
0.0
  0
VERTEX
  5
3D28
  8
0
 10
139.899863238384313
 20
119.476567424547099
 30
0.0
  0
VERTEX
  5
3D29
  8
0
 10
139.6553629192038954
 20
120.2935624160251962
 30
0.0
  0
VERTEX
  5
3D2A
  8
0
 10
139.5313423608602079
 20
120.7011159979569044
 30
0.0
  0
SEQEND
  5
3D2B
  8
0
  0
LINE
  5
2EF2
  8
0
 10
129.0227730595848072
 20
131.5739018242439897
 30
0.0
 11
129.0227730595848072
 21
118.5739018242440039
 31
0.0
  0
POLYLINE
  5
2EF3
  8
0
 66
     1
 10
0.0
 20
0.0
 30
0.0
  0
VERTEX
  5
3D2C
  8
0
 10
132.8209315791565928
 20
110.8078662668539067
 30
0.0
  0
VERTEX
  5
3D2D
  8
0
 10
132.8596290428644977
 20
110.7139407247501026
 30
0.0
  0
VERTEX
  5
3D2E
  8
0
 10
132.933848855369888
 20
110.5248167244546948
 30
0.0
  0
VERTEX
  5
3D2F
  8
0
 10
133.0037846651121072
 20
110.3341304146391053
 30
0.0
  0
VERTEX
  5
3D30
  8
0
 10
133.0371284092852875
 20
110.2382544815475995
 30
0.0
  0
VERTEX
  5
3D31
  8
0
 10
133.0693809499911993
 20
110.1420523406884939
 30
0.0
  0
VERTEX
  5
3D32
  8
0
 10
133.1305902823469012
 20
109.9487580530354052
 30
0.0
  0
VERTEX
  5
3D33
  8
0
 10
133.187373893879311
 20
109.7544270609328976
 30
0.0
  0
VERTEX
  5
3D34
  8
0
 10
133.23970212517861
 20
109.5592417401277032
 30
0.0
  0
VERTEX
  5
3D35
  8
0
 10
133.2875547593305043
 20
109.3633861935334011
 30
0.0
  0
VERTEX
  5
3D36
  8
0
 10
133.3309212382575879
 20
109.1670450635890006
 30
0.0
  0
VERTEX
  5
3D37
  8
0
 10
133.3509215375360952
 20
109.0687499496494013
 30
0.0
  0
VERTEX
  5
3D38
  8
0
 10
133.3698007581324134
 20
108.9704023025198012
 30
0.0
  0
VERTEX
  5
3D39
  8
0
 10
133.404202029279503
 20
108.7736412000416948
 30
0.0
  0
VERTEX
  5
3D3A
  8
0
 10
133.4341425281631928
 20
108.5769483231758983
 30
0.0
  0
VERTEX
  5
3D3B
  8
0
 10
133.4596486612499007
 20
108.3805145169804973
 30
0.0
  0
VERTEX
  5
3D3C
  8
0
 10
133.4807562924052036
 20
108.1845337295960974
 30
0.0
  0
VERTEX
  5
3D3D
  8
0
 10
133.4975111371643095
 20
107.9892017870506038
 30
0.0
  0
VERTEX
  5
3D3E
  8
0
 10
133.5042733101340957
 20
107.8918405410301062
 30
0.0
  0
VERTEX
  5
3D3F
  8
0
 10
133.5099690178597029
 20
107.794715171794607
 30
0.0
  0
VERTEX
  5
3D40
  8
0
 10
133.5181959838664056
 20
107.6012698051969068
 30
0.0
  0
VERTEX
  5
3D41
  8
0
 10
133.5222683004298858
 20
107.4090598323302004
 30
0.0
  0
VERTEX
  5
3D42
  8
0
 10
133.5227730595846936
 20
107.3134780039247005
 30
0.0
  0
SEQEND
  5
3D43
  8
0
  0
POLYLINE
  5
2EF4
  8
0
 66
     1
 10
0.0
 20
0.0
 30
0.0
  0
VERTEX
  5
3D44
  8
0
 10
143.3719112845813015
 20
85.0639018242440699
 30
0.0
  0
VERTEX
  5
3D45
  8
0
 10
143.3722401415317904
 20
85.0639773899110452
 30
0.0
  0
VERTEX
  5
3D46
  8
0
 10
143.374812696714514
 20
85.0645700697627376
 30
0.0
  0
VERTEX
  5
3D47
  8
0
 10
143.3798009262538926
 20
85.0657271287732044
 30
0.0
  0
VERTEX
  5
3D48
  8
0
 10
143.3831469451731948
 20
85.0665090686323566
 30
0.0
  0
VERTEX
  5
3D49
  8
0
 10
143.3870315161616134
 20
85.0674227170916879
 30
0.0
  0
VERTEX
  5
3D4A
  8
0
 10
143.3963285288650127
 20
85.0696349445614146
 30
0.0
  0
VERTEX
  5
3D4B
  8
0
 10
143.4075198155101134
 20
85.0723458789836542
 30
0.0
  0
VERTEX
  5
3D4C
  8
0
 10
143.4204413412032864
 20
85.0755413255709101
 30
0.0
  0
VERTEX
  5
3D4D
  8
0
 10
143.4349394255598042
 20
85.0792103904841071
 30
0.0
  0
VERTEX
  5
3D4E
  8
0
 10
143.4508713721523065
 20
85.0833448988399397
 30
0.0
  0
VERTEX
  5
3D4F
  8
0
 10
143.459333377606697
 20
85.0855847268330336
 30
0.0
  0
VERTEX
  5
3D50
  8
0
 10
143.4681051121912958
 20
85.0879387613201317
 30
0.0
  0
VERTEX
  5
3D51
  8
0
 10
143.4865184340256121
 20
85.0929873798138061
 30
0.0
  0
VERTEX
  5
3D52
  8
0
 10
143.5059989082164975
 20
85.098487362003155
 30
0.0
  0
VERTEX
  5
3D53
  8
0
 10
143.5264451723780894
 20
85.1044367594342646
 30
0.0
  0
VERTEX
  5
3D54
  8
0
 10
143.5477664114100094
 20
85.1108349384433751
 30
0.0
  0
VERTEX
  5
3D55
  8
0
 10
143.5698810222108932
 20
85.1176822706190279
 30
0.0
  0
VERTEX
  5
3D56
  8
0
 10
143.581212532144491
 20
85.121274686814516
 30
0.0
  0
VERTEX
  5
3D57
  8
0
 10
143.592715290256308
 20
85.1249798371336084
 30
0.0
  0
VERTEX
  5
3D58
  8
0
 10
143.6162021830292872
 20
85.1327291625403433
 30
0.0
  0
VERTEX
  5
3D59
  8
0
 10
143.6402803084347113
 20
85.1409319860113811
 30
0.0
  0
VERTEX
  5
3D5A
  8
0
 10
143.6525232250168926
 20
85.1452040147129878
 30
0.0
  0
VERTEX
  5
3D5B
  8
0
 10
143.7284190632057914
 20
85.1732339210823994
 30
0.0
  0
VERTEX
  5
3D5C
  8
0
 10
143.8883088098124858
 20
85.2413570214368548
 30
0.0
  0
VERTEX
  5
3D5D
  8
0
 10
144.051706132532388
 20
85.3246612084396503
 30
0.0
  0
VERTEX
  5
3D5E
  8
0
 10
144.2117302907315093
 20
85.4211728229275451
 30
0.0
  0
VERTEX
  5
3D5F
  8
0
 10
144.3674656589535061
 20
85.5312594283276013
 30
0.0
  0
VERTEX
  5
3D60
  8
0
 10
144.5240947030133043
 20
85.6608250275301657
 30
0.0
  0
VERTEX
  5
3D61
  8
0
 10
144.6014910233278954
 20
85.7330096775950352
 30
0.0
  0
VERTEX
  5
3D62
  8
0
 10
144.6142760978324873
 20
85.7455156719076541
 30
0.0
  0
VERTEX
  5
3D63
  8
0
 10
144.6397266302207925
 20
85.7709317199430217
 30
0.0
  0
VERTEX
  5
3D64
  8
0
 10
144.6650019386258919
 20
85.7968835580027758
 30
0.0
  0
VERTEX
  5
3D65
  8
0
 10
144.6775680483773954
 20
85.8100591848134968
 30
0.0
  0
VERTEX
  5
3D66
  8
0
 10
144.690083386214809
 20
85.8233672484443133
 30
0.0
  0
VERTEX
  5
3D67
  8
0
 10
144.7149526356047033
 20
85.8503784234548704
 30
0.0
  0
VERTEX
  5
3D68
  8
0
 10
144.7395916703773935
 20
85.8779123063406473
 30
0.0
  0
VERTEX
  5
3D69
  8
0
 10
144.7639828169187979
 20
85.905963736677748
 30
0.0
  0
VERTEX
  5
3D6A
  8
0
 10
144.78810876648609
 20
85.9345271997047746
 30
0.0
  0
VERTEX
  5
3D6B
  8
0
 10
144.811952597377001
 20
85.9635968603556222
 30
0.0
  0
VERTEX
  5
3D6C
  8
0
 10
144.8237635433885941
 20
85.9783196155524934
 30
0.0
  0
VERTEX
  5
3D6D
  8
0
 10
144.8354980596851931
 20
85.9931669371787422
 30
0.0
  0
VERTEX
  5
3D6E
  8
0
 10
144.8587300657843002
 20
86.0232324140166043
 30
0.0
  0
VERTEX
  5
3D6F
  8
0
 10
144.8816322278279927
 20
86.0537858795898529
 30
0.0
  0
VERTEX
  5
3D70
  8
0
 10
144.904188186105813
 20
86.0848190568335241
 30
0.0
  0
VERTEX
  5
3D71
  8
0
 10
144.9263818488649918
 20
86.1163230719642598
 30
0.0
  0
VERTEX
  5
3D72
  8
0
 10
144.9481974226478087
 20
86.1482884668532307
 30
0.0
  0
VERTEX
  5
3D73
  8
0
 10
144.9589585798009921
 20
86.1644410700223062
 30
0.0
  0
VERTEX
  5
3D74
  8
0
 10
144.9696194428607043
 20
86.1807052146088637
 30
0.0
  0
VERTEX
  5
3D75
  8
0
 10
144.9906328045393877
 20
86.2135627387766164
 30
0.0
  0
VERTEX
  5
3D76
  8
0
 10
145.0112227932146993
 20
86.2468499365989487
 30
0.0
  0
VERTEX
  5
3D77
  8
0
 10
145.031375115770004
 20
86.2805552068153503
 30
0.0
  0
VERTEX
  5
3D78
  8
0
 10
145.0510759311252968
 20
86.3146664825132603
 30
0.0
  0
VERTEX
  5
3D79
  8
0
 10
145.0703118805716088
 20
86.3491712696160789
 30
0.0
  0
VERTEX
  5
3D7A
  8
0
 10
145.0797514948060041
 20
86.3665672188491982
 30
0.0
  0
VERTEX
  5
3D7B
  8
0
 10
145.0890701079999872
 20
86.3840566735975273
 30
0.0
  0
VERTEX
  5
3D7C
  8
0
 10
145.1073381848962072
 20
86.4193092434490637
 30
0.0
  0
VERTEX
  5
3D7D
  8
0
 10
145.1251040562601986
 20
86.4549148199810844
 30
0.0
  0
VERTEX
  5
3D7E
  8
0
 10
145.1423560794866887
 20
86.4908585445087539
 30
0.0
  0
VERTEX
  5
3D7F
  8
0
 10
145.1590830697122954
 20
86.527124884411549
 30
0.0
  0
VERTEX
  5
3D80
  8
0
 10
145.1752743444966995
 20
86.563697663845403
 30
0.0
  0
VERTEX
  5
3D81
  8
0
 10
145.1831658985142894
 20
86.582093746386434
 30
0.0
  0
VERTEX
  5
3D82
  8
0
 10
145.1909197676033898
 20
86.6005601001460974
 30
0.0
  0
VERTEX
  5
3D83
  8
0
 10
145.2060097915874906
 20
86.6376948465011338
 30
0.0
  0
VERTEX
  5
3D84
  8
0
 10
145.2205354988491024
 20
86.6750840414912886
 30
0.0
  0
VERTEX
  5
3D85
  8
0
 10
145.2344886407483955
 20
86.7127093661381991
 30
0.0
  0
VERTEX
  5
3D86
  8
0
 10
145.2478616743158
 20
86.7505521091075735
 30
0.0
  0
VERTEX
  5
3D87
  8
0
 10
145.2607101148093989
 20
86.7887835255166493
 30
0.0
  0
VERTEX
  5
3D88
  8
0
 10
145.2669739094899057
 20
86.8081684032492404
 30
0.0
  0
VERTEX
  5
3D89
  8
0
 10
145.273125860386898
 20
86.827731479584557
 30
0.0
  0
VERTEX
  5
3D8A
  8
0
 10
145.2850772890884912
 20
86.8673805037797848
 30
0.0
  0
VERTEX
  5
3D8B
  8
0
 10
145.2965311037368963
 20
86.9077063659651259
 30
0.0
  0
VERTEX
  5
3D8C
  8
0
 10
145.3020612736611099
 20
86.928115209766105
 30
0.0
  0
VERTEX
  5
3D8D
  8
0
 10
145.3074550163237006
 20
86.9486836403013541
 30
0.0
  0
VERTEX
  5
3D8E
  8
0
 10
145.3178178455092961
 20
86.9902858069817455
 30
0.0
  0
VERTEX
  5
3D8F
  8
0
 10
145.3275896076135894
 20
87.0324853725821441
 30
0.0
  0
VERTEX
  5
3D90
  8
0
 10
145.3322448166599941
 20
87.0538003568348842
 30
0.0
  0
VERTEX
  5
3D91
  8
0
 10
145.3367415993608915
 20
87.0752540134446491
 30
0.0
  0
VERTEX
  5
3D92
  8
0
 10
145.3452464702656926
 20
87.1185627443828139
 30
0.0
  0
VERTEX
  5
3D93
  8
0
 10
145.3530782820380125
 20
87.1623821141539139
 30
0.0
  0
VERTEX
  5
3D94
  8
0
 10
145.3602125171964872
 20
87.2066821994283856
 30
0.0
  0
VERTEX
  5
3D95
  8
0
 10
145.3666259941250871
 20
87.2514318916619942
 30
0.0
  0
VERTEX
  5
3D96
  8
0
 10
145.3722969177308073
 20
87.2965986835780114
 30
0.0
  0
VERTEX
  5
3D97
  8
0
 10
145.3748475183064954
 20
87.3193279917056344
 30
0.0
  0
VERTEX
  5
3D98
  8
0
 10
145.3772049926151055
 20
87.3421488372551522
 30
0.0
  0
VERTEX
  5
3D99
  8
0
 10
145.3813315227938858
 20
87.3880475786347262
 30
0.0
  0
VERTEX
  5
3D9A
  8
0
 10
145.3846594944616015
 20
87.4342593123833041
 30
0.0
  0
VERTEX
  5
3D9B
  8
0
 10
145.3871736394405048
 20
87.4807478584165921
 30
0.0
  0
VERTEX
  5
3D9C
  8
0
 10
145.3888604767147967
 20
87.5274767110534668
 30
0.0
  0
VERTEX
  5
3D9D
  8
0
 10
145.389708331463595
 20
87.5744095683227926
 30
0.0
  0
VERTEX
  5
3D9E
  8
0
 10
145.3898144782608028
 20
87.5979453090120046
 30
0.0
  0
VERTEX
  5
3D9F
  8
0
 10
145.3897071836028942
 20
87.621523648969827
 30
0.0
  0
VERTEX
  5
3DA0
  8
0
 10
145.3888480019865881
 20
87.6687886972436701
 30
0.0
  0
VERTEX
  5
3DA1
  8
0
 10
145.3871234785870001
 20
87.7161655113151966
 30
0.0
  0
VERTEX
  5
3DA2
  8
0
 10
145.3859349726205892
 20
87.7398834780825183
 30
0.0
  0
SEQEND
  5
3DA3
  8
0
  0
POLYLINE
  5
2EF5
  8
0
 66
     1
 10
0.0
 20
0.0
 30
0.0
  0
VERTEX
  5
3DA4
  8
0
 10
145.3859349726205892
 20
87.7398834780825183
 30
0.0
  0
VERTEX
  5
3DA5
  8
0
 10
145.3846775031059053
 20
87.7628414683146758
 30
0.0
  0
VERTEX
  5
3DA6
  8
0
 10
145.3821481218575968
 20
87.808811334038154
 30
0.0
  0
VERTEX
  5
3DA7
  8
0
 10
145.3796001489249079
 20
87.854839985405718
 30
0.0
  0
VERTEX
  5
3DA8
  8
0
 10
145.3783194460611128
 20
87.8778714330097159
 30
0.0
  0
VERTEX
  5
3DA9
  8
0
 10
145.3770344045715035
 20
87.9009116681459801
 30
0.0
  0
VERTEX
  5
3DAA
  8
0
 10
145.3744517149297906
 20
87.9470108972332838
 30
0.0
  0
VERTEX
  5
3DAB
  8
0
 10
145.371852928415791
 20
87.9931221592771067
 30
0.0
  0
VERTEX
  5
3DAC
  8
0
 10
145.3692389320821974
 20
88.0392296261976099
 30
0.0
  0
VERTEX
  5
3DAD
  8
0
 10
145.3666106464160919
 20
88.0853172555321891
 30
0.0
  0
VERTEX
  5
3DAE
  8
0
 10
145.36396902382441
 20
88.1313688227805443
 30
0.0
  0
VERTEX
  5
3DAF
  8
0
 10
145.3626435171451874
 20
88.1543759711607464
 30
0.0
  0
VERTEX
  5
3DB0
  8
0
 10
145.3613150470357027
 20
88.1773679537972868
 30
0.0
  0
VERTEX
  5
3DB1
  8
0
 10
145.3586497274116027
 20
88.2232981572290669
 30
0.0
  0
VERTEX
  5
3DB2
  8
0
 10
145.3559741031727128
 20
88.2691428570004319
 30
0.0
  0
VERTEX
  5
3DB3
  8
0
 10
145.3532892375328061
 20
88.3148854248665458
 30
0.0
  0
VERTEX
  5
3DB4
  8
0
 10
145.3505962167440941
 20
88.360509213063736
 30
0.0
  0
VERTEX
  5
3DB5
  8
0
 10
145.3478961480475107
 20
88.4059975870929549
 30
0.0
  0
VERTEX
  5
3DB6
  8
0
 10
145.3465438219598127
 20
88.4286858072494653
 30
0.0
  0
VERTEX
  5
3DB7
  8
0
 10
145.3451901575272132
 20
88.4513339586887639
 30
0.0
  0
VERTEX
  5
3DB8
  8
0
 10
145.3424793878658932
 20
88.4965018190308257
 30
0.0
  0
VERTEX
  5
3DB9
  8
0
 10
145.3397649959975126
 20
88.5414847722673386
 30
0.0
  0
VERTEX
  5
3DBA
  8
0
 10
145.3384068065720101
 20
88.5639018242440699
 30
0.0
  0
SEQEND
  5
3DBB
  8
0
  0
POLYLINE
  5
2EF6
  8
0
 66
     1
 10
0.0
 20
0.0
 30
0.0
  0
VERTEX
  5
3DBC
  8
0
 10
137.0643967402577061
 20
88.5639018242440699
 30
0.0
  0
VERTEX
  5
3DBD
  8
0
 10
137.0780389436544908
 20
88.5354097085344875
 30
0.0
  0
VERTEX
  5
3DBE
  8
0
 10
137.1058082858857858
 20
88.4785447896698116
 30
0.0
  0
VERTEX
  5
3DBF
  8
0
 10
137.1342210008542111
 20
88.4218533362389536
 30
0.0
  0
VERTEX
  5
3DC0
  8
0
 10
137.148667289964294
 20
88.3935780534581852
 30
0.0
  0
VERTEX
  5
3DC1
  8
0
 10
137.1632727544796921
 20
88.3653526057884733
 30
0.0
  0
VERTEX
  5
3DC2
  8
0
 10
137.192958674198195
 20
88.3090598026623894
 30
0.0
  0
VERTEX
  5
3DC3
  8
0
 10
137.223273368248698
 20
88.2529920224451985
 30
0.0
  0
VERTEX
  5
3DC4
  8
0
 10
137.2542109470967091
 20
88.1971661993017761
 30
0.0
  0
VERTEX
  5
3DC5
  8
0
 10
137.2857650467537951
 20
88.1415990564076566
 30
0.0
  0
VERTEX
  5
3DC6
  8
0
 10
137.3179288537756122
 20
88.0863070596112294
 30
0.0
  0
VERTEX
  5
3DC7
  8
0
 10
137.3342371519335927
 20
88.0587693055575187
 30
0.0
  0
VERTEX
  5
3DC8
  8
0
 10
137.350695131721011
 20
88.0313063744092261
 30
0.0
  0
VERTEX
  5
3DC9
  8
0
 10
137.3840562488753108
 20
87.976612826275371
 30
0.0
  0
VERTEX
  5
3DCA
  8
0
 10
137.4180042070510979
 20
87.9222418643350636
 30
0.0
  0
VERTEX
  5
3DCB
  8
0
 10
137.4525306713007922
 20
87.8682085283475658
 30
0.0
  0
VERTEX
  5
3DCC
  8
0
 10
137.487627000384407
 20
87.8145274189274261
 30
0.0
  0
VERTEX
  5
3DCD
  8
0
 10
137.5232842778607107
 20
87.7612126709088329
 30
0.0
  0
VERTEX
  5
3DCE
  8
0
 10
137.5413204183223002
 20
87.7346969664042291
 30
0.0
  0
VERTEX
  5
3DCF
  8
0
 10
137.5594933390802908
 20
87.7082779363862244
 30
0.0
  0
VERTEX
  5
3DD0
  8
0
 10
137.596244698702094
 20
87.6557365109948279
 30
0.0
  0
VERTEX
  5
3DD1
  8
0
 10
137.6335284168492024
 20
87.6036015289700458
 30
0.0
  0
VERTEX
  5
3DD2
  8
0
 10
137.652366679068507
 20
87.5776905127916763
 30
0.0
  0
VERTEX
  5
3DD3
  8
0
 10
137.6713340983797025
 20
87.551885952624346
 30
0.0
  0
VERTEX
  5
3DD4
  8
0
 10
137.7096509150765087
 20
87.5006025318045459
 30
0.0
  0
VERTEX
  5
3DD5
  8
0
 10
137.7484676283719978
 20
87.4497637668348062
 30
0.0
  0
VERTEX
  5
3DD6
  8
0
 10
137.7680598276851924
 20
87.424514960038394
 30
0.0
  0
VERTEX
  5
3DD7
  8
0
 10
137.7877726125325069
 20
87.3993818747397455
 30
0.0
  0
VERTEX
  5
3DD8
  8
0
 10
137.8275538781639966
 20
87.3494687586362062
 30
0.0
  0
VERTEX
  5
3DD9
  8
0
 10
137.867799095929513
 20
87.3000359801605583
 30
0.0
  0
VERTEX
  5
3DDA
  8
0
 10
137.908495620381899
 20
87.2510947347809207
 30
0.0
  0
VERTEX
  5
3DDB
  8
0
 10
137.9496305138389118
 20
87.2026558298342138
 30
0.0
  0
VERTEX
  5
3DDC
  8
0
 10
137.9911905702446973
 20
87.154729665121252
 30
0.0
  0
VERTEX
  5
3DDD
  8
0
 10
138.0121258401377133
 20
87.1309619946200229
 30
0.0
  0
VERTEX
  5
3DDE
  8
0
 10
138.0331623389762967
 20
87.1073262158875679
 30
0.0
  0
VERTEX
  5
3DDF
  8
0
 10
138.0755321485711988
 20
87.0604550180201642
 30
0.0
  0
VERTEX
  5
3DE0
  8
0
 10
138.118286130364794
 20
87.0141251552898467
 30
0.0
  0
VERTEX
  5
3DE1
  8
0
 10
138.1614127371572067
 20
86.9683426267275337
 30
0.0
  0
VERTEX
  5
3DE2
  8
0
 10
138.2049020262516024
 20
86.9231113651142806
 30
0.0
  0
VERTEX
  5
3DE3
  8
0
 10
138.2487397285997019
 20
86.8784394053628404
 30
0.0
  0
VERTEX
  5
3DE4
  8
0
 10
138.2707846603979931
 20
86.8563156239518435
 30
0.0
  0
VERTEX
  5
3DE5
  8
0
 10
138.2929111646851084
 20
86.8343345849214785
 30
0.0
  0
VERTEX
  5
3DE6
  8
0
 10
138.3374013280919996
 20
86.7908044510969177
 30
0.0
  0
VERTEX
  5
3DE7
  8
0
 10
138.3821949053233027
 20
86.7478562390841148
 30
0.0
  0
VERTEX
  5
3DE8
  8
0
 10
138.5411341995965984
 20
86.6022166117708849
 30
0.0
  0
VERTEX
  5
3DE9
  8
0
 10
138.8197862389600061
 20
86.3700416306520111
 30
0.0
  0
VERTEX
  5
3DEA
  8
0
 10
139.1030495349997977
 20
86.1607041643116673
 30
0.0
  0
VERTEX
  5
3DEB
  8
0
 10
139.2451827637922008
 20
86.064756795296006
 30
0.0
  0
VERTEX
  5
3DEC
  8
0
 10
139.386960855636687
 20
85.9746516550267899
 30
0.0
  0
VERTEX
  5
3DED
  8
0
 10
139.6698922564409884
 20
85.8104627584310293
 30
0.0
  0
VERTEX
  5
3DEE
  8
0
 10
139.9577867509113105
 20
85.6631920727991911
 30
0.0
  0
VERTEX
  5
3DEF
  8
0
 10
140.2480492052565921
 20
85.5333575489140259
 30
0.0
  0
VERTEX
  5
3DF0
  8
0
 10
140.5369902534737037
 20
85.4214624036810193
 30
0.0
  0
VERTEX
  5
3DF1
  8
0
 10
140.8208002112880877
 20
85.3274450568246436
 30
0.0
  0
VERTEX
  5
3DF2
  8
0
 10
140.9595431008089861
 20
85.2869815761526553
 30
0.0
  0
VERTEX
  5
3DF3
  8
0
 10
141.0954995005585886
 20
85.2507348487646937
 30
0.0
  0
VERTEX
  5
3DF4
  8
0
 10
141.3580919884211085
 20
85.1900428459556025
 30
0.0
  0
VERTEX
  5
3DF5
  8
0
 10
141.6081832788941028
 20
85.1433780349712492
 30
0.0
  0
VERTEX
  5
3DF6
  8
0
 10
141.7270222567325959
 20
85.1249359260527427
 30
0.0
  0
SEQEND
  5
3DF7
  8
0
  0
POLYLINE
  5
2EF7
  8
0
 66
     1
 10
0.0
 20
0.0
 30
0.0
  0
VERTEX
  5
3DF8
  8
0
 10
141.7270222567325959
 20
85.1249359260527427
 30
0.0
  0
VERTEX
  5
3DF9
  8
0
 10
141.7499914705840069
 20
85.1216014552770304
 30
0.0
  0
VERTEX
  5
3DFA
  8
0
 10
141.7940093715911019
 20
85.115211319094513
 30
0.0
  0
VERTEX
  5
3DFB
  8
0
 10
141.8354626390971021
 20
85.1091934941071742
 30
0.0
  0
VERTEX
  5
3DFC
  8
0
 10
141.8552261259646912
 20
85.1063244029049457
 30
0.0
  0
VERTEX
  5
3DFD
  8
0
 10
141.8743467979211061
 20
85.103548629982896
 30
0.0
  0
VERTEX
  5
3DFE
  8
0
 10
141.9106576502348958
 20
85.0982773361256051
 30
0.0
  0
VERTEX
  5
3DFF
  8
0
 10
141.944391276018905
 20
85.0933801816099447
 30
0.0
  0
VERTEX
  5
3E00
  8
0
 10
141.9755440334826915
 20
85.0888576951192164
 30
0.0
  0
VERTEX
  5
3E01
  8
0
 10
142.0041125594597986
 20
85.0847103648887639
 30
0.0
  0
VERTEX
  5
3E02
  8
0
 10
142.0300937697703887
 20
85.0809386386529951
 30
0.0
  0
VERTEX
  5
3E03
  8
0
 10
142.0421132441126133
 20
85.0791937558637557
 30
0.0
  0
VERTEX
  5
3E04
  8
0
 10
142.053484859554402
 20
85.0775429235972638
 30
0.0
  0
VERTEX
  5
3E05
  8
0
 10
142.074283303573111
 20
85.0745235863134468
 30
0.0
  0
VERTEX
  5
3E06
  8
0
 10
142.0924868564837027
 20
85.0718809527612194
 30
0.0
  0
VERTEX
  5
3E07
  8
0
 10
142.1080935530804084
 20
85.0696153082318034
 30
0.0
  0
VERTEX
  5
3E08
  8
0
 10
142.1211017085068136
 20
85.0677268973180958
 30
0.0
  0
VERTEX
  5
3E09
  8
0
 10
142.1315099184382973
 20
85.0662159238879241
 30
0.0
  0
VERTEX
  5
3E0A
  8
0
 10
142.1357386817375925
 20
85.065602028796377
 30
0.0
  0
VERTEX
  5
3E0B
  8
0
 10
142.1363802464929904
 20
85.0655088920028248
 30
0.0
  0
VERTEX
  5
3E0C
  8
0
 10
142.1376091751583033
 20
85.0653304868233846
 30
0.0
  0
VERTEX
  5
3E0D
  8
0
 10
142.138765832980198
 20
85.0651625732966181
 30
0.0
  0
VERTEX
  5
3E0E
  8
0
 10
142.1393170592326953
 20
85.0650825510616215
 30
0.0
  0
VERTEX
  5
3E0F
  8
0
 10
142.1398502164904016
 20
85.065005151926087
 30
0.0
  0
VERTEX
  5
3E10
  8
0
 10
142.1408623224371865
 20
85.0648582231838901
 30
0.0
  0
VERTEX
  5
3E11
  8
0
 10
142.1418021477850004
 20
85.0647217875105781
 30
0.0
  0
VERTEX
  5
3E12
  8
0
 10
142.1426696897158024
 20
85.0645958453154236
 30
0.0
  0
VERTEX
  5
3E13
  8
0
 10
142.1434649456274997
 20
85.0644803969759806
 30
0.0
  0
VERTEX
  5
3E14
  8
0
 10
142.1441879131357098
 20
85.0643754428384256
 30
0.0
  0
VERTEX
  5
3E15
  8
0
 10
142.1445222880527126
 20
85.0643269011951162
 30
0.0
  0
VERTEX
  5
3E16
  8
0
 10
142.144838590072311
 20
85.0642809832176852
 30
0.0
  0
VERTEX
  5
3E17
  8
0
 10
142.1454169744858973
 20
85.0641970183969107
 30
0.0
  0
VERTEX
  5
3E18
  8
0
 10
142.1459230646420906
 20
85.0641235486279612
 30
0.0
  0
VERTEX
  5
3E19
  8
0
 10
142.1463568590228874
 20
85.0640605741311333
 30
0.0
  0
VERTEX
  5
3E1A
  8
0
 10
142.1467183563279093
 20
85.064008095095204
 30
0.0
  0
VERTEX
  5
3E1B
  8
0
 10
142.1470075554728112
 20
85.0639661116775443
 30
0.0
  0
VERTEX
  5
3E1C
  8
0
 10
142.1471250429555937
 20
85.0639490558662175
 30
0.0
  0
VERTEX
  5
3E1D
  8
0
 10
142.1472244555901909
 20
85.063934624004176
 30
0.0
  0
VERTEX
  5
3E1E
  8
0
 10
142.1473690560299019
 20
85.0639136321695446
 30
0.0
  0
VERTEX
  5
3E1F
  8
0
 10
142.1474413563583141
 20
85.0639031362364477
 30
0.0
  0
VERTEX
  5
3E20
  8
0
 10
142.1474503939043075
 20
85.0639018242440699
 30
0.0
  0
SEQEND
  5
3E21
  8
0
  0
POLYLINE
  5
2EF8
  8
0
 66
     1
 10
0.0
 20
0.0
 30
0.0
  0
VERTEX
  5
3E22
  8
0
 10
145.3384068065720101
 20
88.5639018242440699
 30
0.0
  0
VERTEX
  5
3E23
  8
0
 10
145.1536021463055022
 20
91.1952288828071858
 30
0.0
  0
VERTEX
  5
3E24
  8
0
 10
144.6338401792623074
 20
96.4449396362843601
 30
0.0
  0
VERTEX
  5
3E25
  8
0
 10
143.9145333195976946
 20
101.6710484314778
 30
0.0
  0
VERTEX
  5
3E26
  8
0
 10
143.4803654008144065
 20
104.2728810682709053
 30
0.0
  0
SEQEND
  5
3E27
  8
0
  0
LINE
  5
2EF9
  8
0
 10
133.5227730595846936
 20
107.3134780039247005
 30
0.0
 11
133.5227730595846936
 21
102.0172332398717003
 31
0.0
  0
POLYLINE
  5
2EFA
  8
0
 66
     1
 10
0.0
 20
0.0
 30
0.0
  0
VERTEX
  5
3E28
  8
0
 10
133.5227730595846936
 20
102.0172332398717003
 30
0.0
  0
VERTEX
  5
3E29
  8
0
 10
133.5230385692698007
 20
101.9479104095509996
 30
0.0
  0
VERTEX
  5
3E2A
  8
0
 10
133.5251625532764024
 20
101.8092810190643007
 30
0.0
  0
VERTEX
  5
3E2B
  8
0
 10
133.5294100227879142
 20
101.6707004352240062
 30
0.0
  0
VERTEX
  5
3E2C
  8
0
 10
133.5323297725435054
 20
101.6014386105264009
 30
0.0
  0
VERTEX
  5
3E2D
  8
0
 10
133.5357799809177948
 20
101.5322011830665048
 30
0.0
  0
VERTEX
  5
3E2E
  8
0
 10
133.544270932629388
 20
101.3938157685395964
 30
0.0
  0
VERTEX
  5
3E2F
  8
0
 10
133.5548808850851117
 20
101.2555766708729976
 30
0.0
  0
VERTEX
  5
3E30
  8
0
 10
133.5676073481160984
 20
101.1175163349562069
 30
0.0
  0
VERTEX
  5
3E31
  8
0
 10
133.5824473348056927
 20
100.9796671637224961
 30
0.0
  0
VERTEX
  5
3E32
  8
0
 10
133.5993973621901034
 20
100.842061510544994
 30
0.0
  0
VERTEX
  5
3E33
  8
0
 10
133.6086624172781114
 20
100.7733600982355
 30
0.0
  0
VERTEX
  5
3E34
  8
0
 10
133.618453452077091
 20
100.7047316716425058
 30
0.0
  0
VERTEX
  5
3E35
  8
0
 10
133.6396111319781994
 20
100.567709878499997
 30
0.0
  0
VERTEX
  5
3E36
  8
0
 10
133.662865436159791
 20
100.431028290303999
 30
0.0
  0
VERTEX
  5
3E37
  8
0
 10
133.6882109068071998
 20
100.2947189863940025
 30
0.0
  0
VERTEX
  5
3E38
  8
0
 10
133.7156415953070052
 20
100.1588139587343989
 30
0.0
  0
VERTEX
  5
3E39
  8
0
 10
133.7451510636423961
 20
100.0233451044048962
 30
0.0
  0
VERTEX
  5
3E3A
  8
0
 10
133.7606831949161972
 20
99.9557841822888378
 30
0.0
  0
VERTEX
  5
3E3B
  8
0
 10
133.7767323859040971
 20
99.8883442181153924
 30
0.0
  0
VERTEX
  5
3E3C
  8
0
 10
133.810378149916005
 20
99.753842984742576
 30
0.0
  0
VERTEX
  5
3E3D
  8
0
 10
133.8460804589757913
 20
99.6198729718942957
 30
0.0
  0
VERTEX
  5
3E3E
  8
0
 10
133.8647002181446055
 20
99.5530970041545089
 30
0.0
  0
SEQEND
  5
3E3F
  8
0
  0
LINE
  5
2EFB
  8
0
 10
133.8647002181446055
 20
99.5530970041545089
 30
0.0
 11
136.7011090043181127
 21
89.529440860438811
 31
0.0
  0
POLYLINE
  5
2EFC
  8
0
 66
     1
 10
0.0
 20
0.0
 30
0.0
  0
VERTEX
  5
3E40
  8
0
 10
136.7011090043181127
 20
89.529440860438811
 30
0.0
  0
VERTEX
  5
3E41
  8
0
 10
136.7502948651182919
 20
89.3644834720625738
 30
0.0
  0
VERTEX
  5
3E42
  8
0
 10
136.8624386459611912
 20
89.0390280373967045
 30
0.0
  0
VERTEX
  5
3E43
  8
0
 10
136.9926454320903133
 20
88.7203688771939625
 30
0.0
  0
VERTEX
  5
3E44
  8
0
 10
137.0643967402577061
 20
88.5639018242440699
 30
0.0
  0
SEQEND
  5
3E45
  8
0
  0
POLYLINE
  5
2EFD
  8
0
 66
     1
 10
0.0
 20
0.0
 30
0.0
  0
VERTEX
  5
3E46
  8
0
 10
143.4803654008144065
 20
104.2728810682709053
 30
0.0
  0
VERTEX
  5
3E47
  8
0
 10
143.4506842337937087
 20
104.4402809367173006
 30
0.0
  0
VERTEX
  5
3E48
  8
0
 10
143.3905441426985874
 20
104.7758651004437951
 30
0.0
  0
VERTEX
  5
3E49
  8
0
 10
143.3286671055356862
 20
105.1162775074950986
 30
0.0
  0
VERTEX
  5
3E4A
  8
0
 10
143.2972520868434003
 20
105.2872806243353949
 30
0.0
  0
SEQEND
  5
3E4B
  8
0
  0
POLYLINE
  5
2EFE
  8
0
 66
     1
 10
0.0
 20
0.0
 30
0.0
  0
VERTEX
  5
3E4C
  8
0
 10
139.5313423608602079
 20
120.7011159979569044
 30
0.0
  0
VERTEX
  5
3E4D
  8
0
 10
139.5207904137309924
 20
120.7355850248384996
 30
0.0
  0
VERTEX
  5
3E4E
  8
0
 10
139.4994771420809059
 20
120.8051094868303039
 30
0.0
  0
VERTEX
  5
3E4F
  8
0
 10
139.4778882433706997
 20
120.8754005924716068
 30
0.0
  0
VERTEX
  5
3E50
  8
0
 10
139.4669918167419098
 20
120.9108277674261984
 30
0.0
  0
VERTEX
  5
3E51
  8
0
 10
139.4560281710371044
 20
120.946439480021894
 30
0.0
  0
VERTEX
  5
3E52
  8
0
 10
139.4339016017783877
 20
121.0182066578226028
 30
0.0
  0
VERTEX
  5
3E53
  8
0
 10
139.4115134265165921
 20
121.0906820434124995
 30
0.0
  0
VERTEX
  5
3E54
  8
0
 10
139.3888687409157114
 20
121.1638450037174977
 30
0.0
  0
VERTEX
  5
3E55
  8
0
 10
139.3659728354373044
 20
121.2376743963278045
 30
0.0
  0
VERTEX
  5
3E56
  8
0
 10
139.3428311849177135
 20
121.3121486118792944
 30
0.0
  0
VERTEX
  5
3E57
  8
0
 10
139.3311699638908863
 20
121.3496206583328956
 30
0.0
  0
VERTEX
  5
3E58
  8
0
 10
139.3194494376438968
 20
121.3872456175637069
 30
0.0
  0
VERTEX
  5
3E59
  8
0
 10
139.2958334039090005
 20
121.4629430017974983
 30
0.0
  0
VERTEX
  5
3E5A
  8
0
 10
139.2719890440197901
 20
121.5392180200844052
 30
0.0
  0
VERTEX
  5
3E5B
  8
0
 10
139.2479224557343969
 20
121.6160476421115959
 30
0.0
  0
VERTEX
  5
3E5C
  8
0
 10
139.2236398611028108
 20
121.693408600122595
 30
0.0
  0
VERTEX
  5
3E5D
  8
0
 10
139.1991475926822091
 20
121.7712774386142058
 30
0.0
  0
VERTEX
  5
3E5E
  8
0
 10
139.186824836402991
 20
121.8103949443974017
 30
0.0
  0
VERTEX
  5
3E5F
  8
0
 10
139.1744518332243103
 20
121.8496313447073049
 30
0.0
  0
VERTEX
  5
3E60
  8
0
 10
139.1495558256009986
 20
121.928456969484202
 30
0.0
  0
VERTEX
  5
3E61
  8
0
 10
139.1244651586657142
 20
122.0077336485412047
 30
0.0
  0
VERTEX
  5
3E62
  8
0
 10
139.1118489479547122
 20
122.0475335397271976
 30
0.0
  0
VERTEX
  5
3E63
  8
0
 10
139.0991866432561892
 20
122.087437020532505
 30
0.0
  0
VERTEX
  5
3E64
  8
0
 10
139.0737273017481925
 20
122.1675422444895958
 30
0.0
  0
VERTEX
  5
3E65
  8
0
 10
139.048094357254314
 20
122.2480240416333999
 30
0.0
  0
VERTEX
  5
3E66
  8
0
 10
139.0352150932652933
 20
122.2883981462090048
 30
0.0
  0
VERTEX
  5
3E67
  8
0
 10
139.0222952224852975
 20
122.3288567376360021
 30
0.0
  0
VERTEX
  5
3E68
  8
0
 10
138.9963374882651976
 20
122.410014305345797
 30
0.0
  0
VERTEX
  5
3E69
  8
0
 10
138.9702289116833072
 20
122.4914704079908034
 30
0.0
  0
VERTEX
  5
3E6A
  8
0
 10
138.9439774038677911
 20
122.5731984428941956
 30
0.0
  0
VERTEX
  5
3E6B
  8
0
 10
138.9175910173601096
 20
122.6551715857396943
 30
0.0
  0
VERTEX
  5
3E6C
  8
0
 10
138.8910779330639969
 20
122.7373628354397965
 30
0.0
  0
VERTEX
  5
3E6D
  8
0
 10
138.877776467564189
 20
122.7785317753741055
 30
0.0
  0
VERTEX
  5
3E6E
  8
0
 10
138.8644464467458874
 20
122.8197450596642994
 30
0.0
  0
VERTEX
  5
3E6F
  8
0
 10
138.8377049550553863
 20
122.9022910411007956
 30
0.0
  0
VERTEX
  5
3E70
  8
0
 10
138.8108619410365918
 20
122.984973524522303
 30
0.0
  0
VERTEX
  5
3E71
  8
0
 10
138.7839259594888972
 20
123.0677652635264963
 30
0.0
  0
VERTEX
  5
3E72
  8
0
 10
138.7569056552648874
 20
123.150638965590602
 30
0.0
  0
VERTEX
  5
3E73
  8
0
 10
138.7298098550305951
 20
123.2335670130398029
 30
0.0
  0
VERTEX
  5
3E74
  8
0
 10
138.7162364586313004
 20
123.2750426775307062
 30
0.0
  0
VERTEX
  5
3E75
  8
0
 10
138.7026475904204119
 20
123.3165213966994003
 30
0.0
  0
VERTEX
  5
3E76
  8
0
 10
138.6754280852466934
 20
123.3994737596386955
 30
0.0
  0
VERTEX
  5
3E77
  8
0
 10
138.6481607420165858
 20
123.4823954422730026
 30
0.0
  0
VERTEX
  5
3E78
  8
0
 10
138.5524877739242129
 20
123.7719604257134023
 30
0.0
  0
VERTEX
  5
3E79
  8
0
 10
138.3886127534788102
 20
124.263045607838194
 30
0.0
  0
VERTEX
  5
3E7A
  8
0
 10
138.2214784513789141
 20
124.7577058106409993
 30
0.0
  0
VERTEX
  5
3E7B
  8
0
 10
138.1354911614714069
 20
125.0098297551301982
 30
0.0
  0
VERTEX
  5
3E7C
  8
0
 10
138.0481801945884115
 20
125.2642245288282936
 30
0.0
  0
VERTEX
  5
3E7D
  8
0
 10
137.9449418626502109
 20
125.5629698044149052
 30
0.0
  0
VERTEX
  5
3E7E
  8
0
 10
137.9152197143885132
 20
125.6485707590740049
 30
0.0
  0
VERTEX
  5
3E7F
  8
0
 10
137.8854126430624092
 20
125.7342352905598943
 30
0.0
  0
VERTEX
  5
3E80
  8
0
 10
137.8704799136395991
 20
125.777083626810807
 30
0.0
  0
VERTEX
  5
3E81
  8
0
 10
137.8555291491142896
 20
125.8199385216856996
 30
0.0
  0
VERTEX
  5
3E82
  8
0
 10
137.8255778312183963
 20
125.9056555025807
 30
0.0
  0
VERTEX
  5
3E83
  8
0
 10
137.7955673724920871
 20
125.9913612513048946
 30
0.0
  0
VERTEX
  5
3E84
  8
0
 10
137.7655065267248915
 20
126.0770307937558954
 30
0.0
  0
VERTEX
  5
3E85
  8
0
 10
137.7354041045996098
 20
126.162639202948597
 30
0.0
  0
VERTEX
  5
3E86
  8
0
 10
137.7052689598789925
 20
126.2481616377427969
 30
0.0
  0
VERTEX
  5
3E87
  8
0
 10
137.6901918917153012
 20
126.2908828847800038
 30
0.0
  0
VERTEX
  5
3E88
  8
0
 10
137.6751099755400958
 20
126.3335733810965991
 30
0.0
  0
VERTEX
  5
3E89
  8
0
 10
137.6449360498286012
 20
126.4188498779119953
 30
0.0
  0
VERTEX
  5
3E8A
  8
0
 10
137.6147560822159903
 20
126.5039667725419008
 30
0.0
  0
VERTEX
  5
3E8B
  8
0
 10
137.5845789592405879
 20
126.5888999460183015
 30
0.0
  0
VERTEX
  5
3E8C
  8
0
 10
137.5544135402143979
 20
126.6736255530602051
 30
0.0
  0
VERTEX
  5
3E8D
  8
0
 10
137.5242686427833974
 20
126.7581200589100945
 30
0.0
  0
VERTEX
  5
3E8E
  8
0
 10
137.5092066301972125
 20
126.8002733882224931
 30
0.0
  0
VERTEX
  5
3E8F
  8
0
 10
137.4941525158610034
 20
126.8423617080673012
 30
0.0
  0
VERTEX
  5
3E90
  8
0
 10
137.4640702918235888
 20
126.9263376103165939
 30
0.0
  0
VERTEX
  5
3E91
  8
0
 10
137.4340300574197045
 20
127.0100267543438974
 30
0.0
  0
VERTEX
  5
3E92
  8
0
 10
137.4040406608991987
 20
127.0934061792812031
 30
0.0
  0
VERTEX
  5
3E93
  8
0
 10
137.3741110019485916
 20
127.1764529612187005
 30
0.0
  0
VERTEX
  5
3E94
  8
0
 10
137.3442500164480862
 20
127.2591442535412938
 30
0.0
  0
VERTEX
  5
3E95
  8
0
 10
137.3293480748706941
 20
127.3003494823964985
 30
0.0
  0
VERTEX
  5
3E96
  8
0
 10
137.3144666613208926
 20
127.3414573264052052
 30
0.0
  0
VERTEX
  5
3E97
  8
0
 10
137.2847698994578138
 20
127.4233696054225931
 30
0.0
  0
VERTEX
  5
3E98
  8
0
 10
137.2551686846985888
 20
127.5048587096215016
 30
0.0
  0
VERTEX
  5
3E99
  8
0
 10
137.2256719468500137
 20
127.5859024887492978
 30
0.0
  0
VERTEX
  5
3E9A
  8
0
 10
137.1962885767283922
 20
127.6664790599862016
 30
0.0
  0
VERTEX
  5
3E9B
  8
0
 10
137.1670274112059076
 20
127.7465668441341933
 30
0.0
  0
VERTEX
  5
3E9C
  8
0
 10
137.152445398258493
 20
127.7864207893730963
 30
0.0
  0
VERTEX
  5
3E9D
  8
0
 10
137.1378972182438076
 20
127.8261446013458027
 30
0.0
  0
VERTEX
  5
3E9E
  8
0
 10
137.1089066819004074
 20
127.9051914664537009
 30
0.0
  0
VERTEX
  5
3E9F
  8
0
 10
137.0800643872956073
 20
127.9836869839607942
 30
0.0
  0
VERTEX
  5
3EA0
  8
0
 10
137.0657014827293096
 20
128.0227217155868118
 30
0.0
  0
VERTEX
  5
3EA1
  8
0
 10
136.9804052738107032
 20
128.2537938025303959
 30
0.0
  0
VERTEX
  5
3EA2
  8
0
 10
136.8150546994569936
 20
128.6981763004218919
 30
0.0
  0
VERTEX
  5
3EA3
  8
0
 10
136.6581449183277073
 20
129.1156261574228949
 30
0.0
  0
VERTEX
  5
3EA4
  8
0
 10
136.5824045328554064
 20
129.3156809541573864
 30
0.0
  0
SEQEND
  5
3EA5
  8
0
  0
LINE
  5
2EFF
  8
0
 10
118.522773059584793
 20
131.4239244759544079
 30
0.0
 11
118.522773059584793
 21
118.5739018242440039
 31
0.0
  0
POLYLINE
  5
2F00
  8
0
 66
     1
 10
0.0
 20
0.0
 30
0.0
  0
VERTEX
  5
3EA6
  8
0
 10
129.0227730595848072
 20
118.5739018242440039
 30
0.0
  0
VERTEX
  5
3EA7
  8
0
 10
129.1354033588222023
 20
118.3733747982333995
 30
0.0
  0
VERTEX
  5
3EA8
  8
0
 10
129.3605539705718002
 20
117.9680794758273947
 30
0.0
  0
VERTEX
  5
3EA9
  8
0
 10
129.5853050429597886
 20
117.5574345146734032
 30
0.0
  0
VERTEX
  5
3EAA
  8
0
 10
129.6974377758124035
 20
117.350222231221295
 30
0.0
  0
VERTEX
  5
3EAB
  8
0
 10
129.8093603702401992
 20
117.1418125181451018
 30
0.0
  0
VERTEX
  5
3EAC
  8
0
 10
130.0324326818962959
 20
116.7215924866755046
 30
0.0
  0
VERTEX
  5
3EAD
  8
0
 10
130.2542413375142019
 20
116.2971648219026974
 30
0.0
  0
VERTEX
  5
3EAE
  8
0
 10
130.4745132684273869
 20
115.8689303905640031
 30
0.0
  0
VERTEX
  5
3EAF
  8
0
 10
130.6929839243275069
 20
115.437299423308005
 30
0.0
  0
VERTEX
  5
3EB0
  8
0
 10
130.9093981872578922
 20
115.0026903054751983
 30
0.0
  0
VERTEX
  5
3EB1
  8
0
 10
131.0167572463244028
 20
114.7844015856305049
 30
0.0
  0
VERTEX
  5
3EB2
  8
0
 10
131.1235112648726044
 20
114.565528223779495
 30
0.0
  0
VERTEX
  5
3EB3
  8
0
 10
131.3350982578810999
 20
114.1262254480776051
 30
0.0
  0
VERTEX
  5
3EB4
  8
0
 10
131.5439519005059879
 20
113.6851847055629037
 30
0.0
  0
VERTEX
  5
3EB5
  8
0
 10
131.7498565057485109
 20
113.2428544377980018
 30
0.0
  0
VERTEX
  5
3EB6
  8
0
 10
131.9526054347986133
 20
112.7996938859361933
 30
0.0
  0
VERTEX
  5
3EB7
  8
0
 10
132.1520024125017869
 20
112.3561705741885959
 30
0.0
  0
VERTEX
  5
3EB8
  8
0
 10
132.2503856165305933
 20
112.1344208350907934
 30
0.0
  0
VERTEX
  5
3EB9
  8
0
 10
132.3478623310294893
 20
111.9127586170248065
 30
0.0
  0
VERTEX
  5
3EBA
  8
0
 10
132.5400119904417977
 20
111.469936918315895
 30
0.0
  0
VERTEX
  5
3EBB
  8
0
 10
132.7282908035269884
 20
111.0281871900265003
 30
0.0
  0
VERTEX
  5
3EBC
  8
0
 10
132.8209315791569054
 20
110.8078662668539067
 30
0.0
  0
SEQEND
  5
3EBD
  8
0
  0
POLYLINE
  5
2F01
  8
0
 66
     1
 10
0.0
 20
0.0
 30
0.0
  0
VERTEX
  5
3EBE
  8
0
 10
118.522773059584793
 20
131.4239244759544079
 30
0.0
  0
VERTEX
  5
3EBF
  8
0
 10
118.5309594043561958
 20
131.4321108207261091
 30
0.0
  0
VERTEX
  5
3EC0
  8
0
 10
118.5466499901053936
 20
131.4478014064750937
 30
0.0
  0
VERTEX
  5
3EC1
  8
0
 10
118.5614292481706968
 20
131.4625806645402974
 30
0.0
  0
VERTEX
  5
3EC2
  8
0
 10
118.5684764638770048
 20
131.4696278802466907
 30
0.0
  0
VERTEX
  5
3EC3
  8
0
 10
118.575295065442802
 20
131.476446481812502
 30
0.0
  0
VERTEX
  5
3EC4
  8
0
 10
118.5882454594144946
 20
131.4893968757843083
 30
0.0
  0
VERTEX
  5
3EC5
  8
0
 10
118.6002785784637013
 20
131.5014299948333871
 30
0.0
  0
VERTEX
  5
3EC6
  8
0
 10
118.6113927021188061
 20
131.5125441184885062
 30
0.0
  0
VERTEX
  5
3EC7
  8
0
 10
118.6215862413039019
 20
131.5227376576735878
 30
0.0
  0
VERTEX
  5
3EC8
  8
0
 10
118.6308577385668031
 20
131.5320091549365031
 30
0.0
  0
VERTEX
  5
3EC9
  8
0
 10
118.6351473020661018
 20
131.5362987184356882
 30
0.0
  0
VERTEX
  5
3ECA
  8
0
 10
118.639205868286993
 20
131.5403572846566931
 30
0.0
  0
VERTEX
  5
3ECB
  8
0
 10
118.6466294368650978
 20
131.5477808532349968
 30
0.0
  0
VERTEX
  5
3ECC
  8
0
 10
118.6531273828942972
 20
131.5542787992638978
 30
0.0
  0
VERTEX
  5
3ECD
  8
0
 10
118.6586987773105051
 20
131.5598501936800915
 30
0.0
  0
VERTEX
  5
3ECE
  8
0
 10
118.6633428235266052
 20
131.5644942398963053
 30
0.0
  0
VERTEX
  5
3ECF
  8
0
 10
118.6670588575463938
 20
131.5682102739160086
 30
0.0
  0
VERTEX
  5
3ED0
  8
0
 10
118.6685686987623001
 20
131.5697201151320996
 30
0.0
  0
VERTEX
  5
3ED1
  8
0
 10
118.6698463480581012
 20
131.5709977644278865
 30
0.0
  0
VERTEX
  5
3ED2
  8
0
 10
118.6717048965121961
 20
131.5728563128818962
 30
0.0
  0
VERTEX
  5
3ED3
  8
0
 10
118.6726342371768936
 20
131.5737856535465937
 30
0.0
  0
VERTEX
  5
3ED4
  8
0
 10
118.6727504078744033
 20
131.5739018242439897
 30
0.0
  0
SEQEND
  5
3ED5
  8
0
  0
POLYLINE
  5
2F02
  8
0
 66
     1
 10
0.0
 20
0.0
 30
0.0
  0
VERTEX
  5
3ED6
  8
0
 10
136.5824045328554064
 20
129.3156809541573864
 30
0.0
  0
VERTEX
  5
3ED7
  8
0
 10
136.5367808180672
 20
129.4298234178571931
 30
0.0
  0
VERTEX
  5
3ED8
  8
0
 10
136.4348949765467012
 20
129.6504959578223861
 30
0.0
  0
VERTEX
  5
3ED9
  8
0
 10
136.3199007606783084
 20
129.8602647092351958
 30
0.0
  0
VERTEX
  5
3EDA
  8
0
 10
136.2579230689675001
 20
129.9607861011828049
 30
0.0
  0
VERTEX
  5
3EDB
  8
0
 10
136.1932043047744969
 20
130.0582664175894934
 30
0.0
  0
VERTEX
  5
3EDC
  8
0
 10
136.05630630689339
 20
130.2437738276117045
 30
0.0
  0
VERTEX
  5
3EDD
  8
0
 10
135.9107644058458106
 20
130.4162379612758969
 30
0.0
  0
VERTEX
  5
3EDE
  8
0
 10
135.7581967828323002
 20
130.5752647384611009
 30
0.0
  0
VERTEX
  5
3EDF
  8
0
 10
135.6000097267200886
 20
130.7208449855864956
 30
0.0
  0
VERTEX
  5
3EE0
  8
0
 10
135.4315375750794885
 20
130.8576937820093065
 30
0.0
  0
VERTEX
  5
3EE1
  8
0
 10
135.342816659763713
 20
130.9231224610585969
 30
0.0
  0
VERTEX
  5
3EE2
  8
0
 10
135.251277961511903
 20
130.9862588750710017
 30
0.0
  0
VERTEX
  5
3EE3
  8
0
 10
135.060241129477987
 20
131.1049085781961878
 30
0.0
  0
VERTEX
  5
3EE4
  8
0
 10
134.8593304812804945
 20
131.2123538790542057
 30
0.0
  0
VERTEX
  5
3EE5
  8
0
 10
134.6492326434355959
 20
131.3075871271256858
 30
0.0
  0
VERTEX
  5
3EE6
  8
0
 10
134.5226671693723972
 20
131.3571438241461919
 30
0.0
  0
VERTEX
  5
3EE7
  8
0
 10
134.4859968017840117
 20
131.3704551708918871
 30
0.0
  0
VERTEX
  5
3EE8
  8
0
 10
134.4490960172601888
 20
131.383385985638995
 30
0.0
  0
VERTEX
  5
3EE9
  8
0
 10
134.4305580099689905
 20
131.3897080961812094
 30
0.0
  0
VERTEX
  5
3EEA
  8
0
 10
134.4119608539483011
 20
131.3959343477241077
 30
0.0
  0
VERTEX
  5
3EEB
  8
0
 10
134.3745865915878142
 20
131.4080982509825049
 30
0.0
  0
VERTEX
  5
3EEC
  8
0
 10
134.3369677362742891
 20
131.4198755622967099
 30
0.0
  0
VERTEX
  5
3EED
  8
0
 10
134.2990980157892125
 20
131.4312639757972931
 30
0.0
  0
VERTEX
  5
3EEE
  8
0
 10
134.2609703878189862
 20
131.4422609628257135
 30
0.0
  0
VERTEX
  5
3EEF
  8
0
 10
134.2225770636796085
 20
131.4528637178966903
 30
0.0
  0
VERTEX
  5
3EF0
  8
0
 10
134.2032781374333865
 20
131.4580162919222062
 30
0.0
  0
VERTEX
  5
3EF1
  8
0
 10
134.183909550424687
 20
131.4630691010727048
 30
0.0
  0
VERTEX
  5
3EF2
  8
0
 10
134.144958714422188
 20
131.472873577376788
 30
0.0
  0
VERTEX
  5
3EF3
  8
0
 10
134.1057148696085903
 20
131.4822731541441101
 30
0.0
  0
VERTEX
  5
3EF4
  8
0
 10
134.0859799188986017
 20
131.486819716712688
 30
0.0
  0
VERTEX
  5
3EF5
  8
0
 10
134.0661678935881866
 20
131.4912633175316046
 30
0.0
  0
VERTEX
  5
3EF6
  8
0
 10
134.0263073745265956
 20
131.4998389697879873
 30
0.0
  0
VERTEX
  5
3EF7
  8
0
 10
133.9861241598719062
 20
131.5079940998813868
 30
0.0
  0
VERTEX
  5
3EF8
  8
0
 10
133.9659098650247131
 20
131.5119116977658962
 30
0.0
  0
VERTEX
  5
3EF9
  8
0
 10
133.9456116261123952
 20
131.5157216176010877
 30
0.0
  0
VERTEX
  5
3EFA
  8
0
 10
133.9047557210402886
 20
131.5230152154867937
 30
0.0
  0
VERTEX
  5
3EFB
  8
0
 10
133.8635404051919977
 20
131.5298680315881086
 30
0.0
  0
VERTEX
  5
3EFC
  8
0
 10
133.8219483769686917
 20
131.5362724058635138
 30
0.0
  0
VERTEX
  5
3EFD
  8
0
 10
133.7799612603861874
 20
131.5422197594174065
 30
0.0
  0
VERTEX
  5
3EFE
  8
0
 10
133.7375598617227013
 20
131.5477004754364998
 30
0.0
  0
VERTEX
  5
3EFF
  8
0
 10
133.7161976639056036
 20
131.5502625275709079
 30
0.0
  0
VERTEX
  5
3F00
  8
0
 10
133.6947244958801093
 20
131.5527037874992118
 30
0.0
  0
VERTEX
  5
3F01
  8
0
 10
133.6514353721842951
 20
131.5572176823168036
 30
0.0
  0
VERTEX
  5
3F02
  8
0
 10
133.6076725396432892
 20
131.5612288649998902
 30
0.0
  0
VERTEX
  5
3F03
  8
0
 10
133.5634147836742045
 20
131.5647227920387934
 30
0.0
  0
VERTEX
  5
3F04
  8
0
 10
133.518639443871507
 20
131.5676835595085095
 30
0.0
  0
VERTEX
  5
3F05
  8
0
 10
133.4733227657901864
 20
131.5700937451493928
 30
0.0
  0
VERTEX
  5
3F06
  8
0
 10
133.4504538086995922
 20
131.5710864749067071
 30
0.0
  0
VERTEX
  5
3F07
  8
0
 10
133.4274403378144029
 20
131.5719342671004881
 30
0.0
  0
VERTEX
  5
3F08
  8
0
 10
133.380967584621402
 20
131.5731842678403041
 30
0.0
  0
VERTEX
  5
3F09
  8
0
 10
133.3338802851135085
 20
131.573821029388796
 30
0.0
  0
VERTEX
  5
3F0A
  8
0
 10
133.3100988331214012
 20
131.5739018242439897
 30
0.0
  0
SEQEND
  5
3F0B
  8
0
  0
POLYLINE
  5
2F03
  8
0
 66
     1
 10
0.0
 20
0.0
 30
0.0
  0
VERTEX
  5
3F0C
  8
0
 10
136.5636319469763009
 20
129.3640654871371964
 30
0.0
  0
VERTEX
  5
3F0D
  8
0
 10
136.5563352029548128
 20
129.3823166786270065
 30
0.0
  0
VERTEX
  5
3F0E
  8
0
 10
136.5456162026582092
 20
129.408603046025803
 30
0.0
  0
VERTEX
  5
3F0F
  8
0
 10
136.5402548491929053
 20
129.4215264425401131
 30
0.0
  0
VERTEX
  5
3F10
  8
0
 10
136.5395913292061039
 20
129.4231157501031078
 30
0.0
  0
SEQEND
  5
3F11
  8
0
  0
POLYLINE
  5
2F04
  8
0
 66
     1
 10
0.0
 20
0.0
 30
0.0
  0
VERTEX
  5
3F12
  8
0
 10
139.612214165576404
 20
120.4358682329117016
 30
0.0
  0
VERTEX
  5
3F13
  8
0
 10
139.6117557501866031
 20
120.437377151330395
 30
0.0
  0
VERTEX
  5
3F14
  8
0
 10
139.6080279671120934
 20
120.4496452155702002
 30
0.0
  0
VERTEX
  5
3F15
  8
0
 10
139.6004430171460058
 20
120.4745945483333998
 30
0.0
  0
VERTEX
  5
3F16
  8
0
 10
139.5951743452411904
 20
120.4919149724641017
 30
0.0
  0
VERTEX
  5
3F17
  8
0
 10
139.5889114033238911
 20
120.5124934255701987
 30
0.0
  0
VERTEX
  5
3F18
  8
0
 10
139.5733880235804918
 20
120.5634499597485956
 30
0.0
  0
VERTEX
  5
3F19
  8
0
 10
139.5538697017084075
 20
120.6274206092263057
 30
0.0
  0
VERTEX
  5
3F1A
  8
0
 10
139.5303971200621049
 20
120.7042050322848041
 30
0.0
  0
VERTEX
  5
3F1B
  8
0
 10
139.5030533077296866
 20
120.793453028550104
 30
0.0
  0
VERTEX
  5
3F1C
  8
0
 10
139.4719428541341131
 20
120.8947348131762993
 30
0.0
  0
VERTEX
  5
3F1D
  8
0
 10
139.4550159329698999
 20
120.9497256775730989
 30
0.0
  0
VERTEX
  5
3F1E
  8
0
 10
139.4372041557934949
 20
121.0075036461423963
 30
0.0
  0
VERTEX
  5
3F1F
  8
0
 10
139.399030917596491
 20
121.1310296317706019
 30
0.0
  0
VERTEX
  5
3F20
  8
0
 10
139.3576571192473068
 20
121.2644529850140032
 30
0.0
  0
VERTEX
  5
3F21
  8
0
 10
139.3133530437436889
 20
121.4068012270948032
 30
0.0
  0
VERTEX
  5
3F22
  8
0
 10
139.2664321160584109
 20
121.5569717376872063
 30
0.0
  0
VERTEX
  5
3F23
  8
0
 10
139.2172532743354054
 20
121.7137290856643972
 30
0.0
  0
VERTEX
  5
3F24
  8
0
 10
139.1919383047849976
 20
121.7941675947657956
 30
0.0
  0
VERTEX
  5
3F25
  8
0
 10
139.165939377174908
 20
121.8766018799581019
 30
0.0
  0
VERTEX
  5
3F26
  8
0
 10
139.1114193505814001
 20
122.0488880416630053
 30
0.0
  0
VERTEX
  5
3F27
  8
0
 10
139.0536660717143036
 20
122.2305445161318005
 30
0.0
  0
VERTEX
  5
3F28
  8
0
 10
139.0236329023884991
 20
122.3246697775107066
 30
0.0
  0
SEQEND
  5
3F29
  8
0
  0
LINE
  5
2F05
  8
0
 10
114.522773059584793
 20
120.363901824243996
 30
0.0
 11
114.522773059584793
 21
129.7639018242441011
 31
0.0
  0
LINE
  5
2F06
  8
0
 10
139.0227730595848072
 20
122.3269669379999982
 30
0.0
 11
139.0227730595848072
 21
129.3639018242440102
 31
0.0
  0
LINE
  5
2F07
  8
0
 10
114.8227730595847049
 20
120.0639018242439988
 30
0.0
 11
114.8227730595847049
 21
130.0639018242439988
 31
0.0
  0
LINE
  5
2F08
  8
1
 10
86.7227730595848243
 20
218.5639018242441125
 30
0.0
 11
86.7227730595848243
 21
199.5639018242441125
 31
0.0
  0
LINE
  5
2F09
  8
1
 10
97.2227730595848243
 20
219.2639018242441011
 30
0.0
 11
97.2227730595848243
 21
198.8639018242440955
 31
0.0
  0
LINE
  5
2F0A
  8
1
 10
107.7227730595847959
 20
218.5639018242441125
 30
0.0
 11
107.7227730595847959
 21
199.5639018242441125
 31
0.0
  0
LINE
  5
2F0B
  8
0
 10
145.3898144786006981
 20
205.6998496864054005
 30
0.0
 11
145.3898144786006981
 21
212.4279539620831088
 31
0.0
  0
LINE
  5
2F0C
  8
0
 10
143.4475579365675912
 20
213.1488371462266969
 30
0.0
 11
140.9765437870445908
 21
213.1488371462266969
 31
0.0
  0
LINE
  5
2F0D
  8
0
 10
129.0227730595848072
 20
202.0639018242441978
 30
0.0
 11
138.1169792619261898
 21
202.0639018242441978
 31
0.0
  0
LINE
  5
2F0E
  8
0
 10
138.1169792619261898
 20
216.0639018242441978
 30
0.0
 11
129.0227730595848072
 21
216.0639018242441978
 31
0.0
  0
LINE
  5
2F0F
  8
0
 10
140.9765437870447897
 20
204.9789665022616987
 30
0.0
 11
143.4475579365675912
 21
204.9789665022616987
 31
0.0
  0
LINE
  5
2F10
  8
0
 10
129.0227730595848072
 20
215.5639018242441978
 30
0.0
 11
118.522773059584793
 21
215.5639018242441978
 31
0.0
  0
LINE
  5
2F11
  8
0
 10
118.522773059584793
 20
202.5639018242441978
 30
0.0
 11
129.0227730595848072
 21
202.5639018242441978
 31
0.0
  0
LINE
  5
2F12
  8
0
 10
114.522773059584793
 20
204.3639018242442091
 30
0.0
 11
114.8227730595849039
 21
204.0639018242441978
 31
0.0
  0
LINE
  5
2F13
  8
0
 10
114.8227730595849039
 20
214.0639018242441978
 30
0.0
 11
114.522773059584793
 21
213.7639018242443001
 31
0.0
  0
LINE
  5
2F14
  8
0
 10
137.7056640904465894
 20
204.7639018242443001
 30
0.0
 11
139.0227730595848072
 21
204.7639018242443001
 31
0.0
  0
LINE
  5
2F15
  8
0
 10
139.0227730595848072
 20
213.3639018242442091
 30
0.0
 11
137.7056624451475102
 21
213.3639018242442091
 31
0.0
  0
LINE
  5
2F16
  8
0
 10
114.8227730595849039
 20
204.0639018242441978
 30
0.0
 11
118.522773059584793
 21
204.0639018242441978
 31
0.0
  0
LINE
  5
2F17
  8
0
 10
118.522773059584793
 20
214.0639018242441978
 30
0.0
 11
114.8227730595849039
 21
214.0639018242441978
 31
0.0
  0
POLYLINE
  5
2F18
  8
0
 66
     1
 10
0.0
 20
0.0
 30
0.0
  0
VERTEX
  5
3F2A
  8
0
 10
143.2972520868434003
 20
213.0795606716577026
 30
0.0
  0
VERTEX
  5
3F2B
  8
0
 10
143.1426023879662068
 20
212.9525806551918095
 30
0.0
  0
VERTEX
  5
3F2C
  8
0
 10
142.8156531007606986
 20
212.7675726220656998
 30
0.0
  0
VERTEX
  5
3F2D
  8
0
 10
142.466870520152014
 20
212.6753518480217906
 30
0.0
  0
VERTEX
  5
3F2E
  8
0
 10
142.2850882425449868
 20
212.6639018242443058
 30
0.0
  0
SEQEND
  5
3F2F
  8
0
  0
POLYLINE
  5
2F19
  8
0
 66
     1
 10
0.0
 20
0.0
 30
0.0
  0
VERTEX
  5
3F30
  8
0
 10
142.2850882425449868
 20
212.6639018242443058
 30
0.0
  0
VERTEX
  5
3F31
  8
0
 10
142.2162272980189925
 20
212.6654805094835865
 30
0.0
  0
VERTEX
  5
3F32
  8
0
 10
142.0767667226795936
 20
212.6780498178985965
 30
0.0
  0
VERTEX
  5
3F33
  8
0
 10
141.9351473492195055
 20
212.7030138006817026
 30
0.0
  0
VERTEX
  5
3F34
  8
0
 10
141.8635903330061865
 20
212.7200765749520883
 30
0.0
  0
VERTEX
  5
3F35
  8
0
 10
141.7915694717366932
 20
212.7401525177585881
 30
0.0
  0
VERTEX
  5
3F36
  8
0
 10
141.646243470411207
 20
212.7892074036163876
 30
0.0
  0
VERTEX
  5
3F37
  8
0
 10
141.4993919878324959
 20
212.8498808753313085
 30
0.0
  0
VERTEX
  5
3F38
  8
0
 10
141.3512499984798865
 20
212.9218358637901929
 30
0.0
  0
VERTEX
  5
3F39
  8
0
 10
141.2020636074871049
 20
213.0046959263353017
 30
0.0
  0
VERTEX
  5
3F3A
  8
0
 10
141.0520887572070023
 20
213.0980457606324023
 30
0.0
  0
VERTEX
  5
3F3B
  8
0
 10
140.9768879974876086
 20
213.1485141448501963
 30
0.0
  0
VERTEX
  5
3F3C
  8
0
 10
140.9015898633504094
 20
213.2014320889751957
 30
0.0
  0
VERTEX
  5
3F3D
  8
0
 10
140.7507878873433924
 20
213.3144042542265879
 30
0.0
  0
VERTEX
  5
3F3E
  8
0
 10
140.5977407968111947
 20
213.4383075176066882
 30
0.0
  0
VERTEX
  5
3F3F
  8
0
 10
140.4414455518626141
 20
213.574129688340804
 30
0.0
  0
VERTEX
  5
3F40
  8
0
 10
140.2820608433488871
 20
213.7219957390030913
 30
0.0
  0
VERTEX
  5
3F41
  8
0
 10
140.1197557808129091
 20
213.8819950734855979
 30
0.0
  0
VERTEX
  5
3F42
  8
0
 10
140.0375635869021949
 20
213.966563126698901
 30
0.0
  0
VERTEX
  5
3F43
  8
0
 10
139.9547089687474966
 20
214.0541823331064961
 30
0.0
  0
VERTEX
  5
3F44
  8
0
 10
139.787107491428003
 20
214.2385785327005863
 30
0.0
  0
VERTEX
  5
3F45
  8
0
 10
139.6171458010578021
 20
214.435172533463799
 30
0.0
  0
VERTEX
  5
3F46
  8
0
 10
139.5313423608604069
 20
214.538031876951095
 30
0.0
  0
SEQEND
  5
3F47
  8
0
  0
POLYLINE
  5
2F1A
  8
0
 66
     1
 10
0.0
 20
0.0
 30
0.0
  0
VERTEX
  5
3F48
  8
0
 10
143.4803654008146054
 20
204.9823887931167121
 30
0.0
  0
VERTEX
  5
3F49
  8
0
 10
143.9145333195978935
 20
205.0787031086177024
 30
0.0
  0
VERTEX
  5
3F4A
  8
0
 10
144.6338401792623074
 20
205.2721625510986883
 30
0.0
  0
VERTEX
  5
3F4B
  8
0
 10
145.1536021463057011
 20
205.466495687922901
 30
0.0
  0
VERTEX
  5
3F4C
  8
0
 10
145.338406806572209
 20
205.5639018242441978
 30
0.0
  0
SEQEND
  5
3F4D
  8
0
  0
POLYLINE
  5
2F1B
  8
0
 66
     1
 10
0.0
 20
0.0
 30
0.0
  0
VERTEX
  5
3F4E
  8
0
 10
145.338406806572209
 20
205.5639018242441978
 30
0.0
  0
VERTEX
  5
3F4F
  8
0
 10
145.339764976812603
 20
205.5639736121237888
 30
0.0
  0
VERTEX
  5
3F50
  8
0
 10
145.3424793353090081
 20
205.5645508334143017
 30
0.0
  0
VERTEX
  5
3F51
  8
0
 10
145.3451900778904928
 20
205.5657124675622924
 30
0.0
  0
VERTEX
  5
3F52
  8
0
 10
145.3465437310042034
 20
205.5665146508173109
 30
0.0
  0
VERTEX
  5
3F53
  8
0
 10
145.3478960471807113
 20
205.5674655260891086
 30
0.0
  0
VERTEX
  5
3F54
  8
0
 10
145.3505961000616935
 20
205.5698165007885052
 30
0.0
  0
VERTEX
  5
3F55
  8
0
 10
145.353289110020313
 20
205.5727713609502132
 30
0.0
  0
VERTEX
  5
3F56
  8
0
 10
145.3559739693968993
 20
205.5763355526667056
 30
0.0
  0
VERTEX
  5
3F57
  8
0
 10
145.35864959152849
 20
205.5805140002190967
 30
0.0
  0
VERTEX
  5
3F58
  8
0
 10
145.3613149128024986
 20
205.5853111095456995
 30
0.0
  0
VERTEX
  5
3F59
  8
0
 10
145.3626433850245121
 20
205.5879428988212112
 30
0.0
  0
VERTEX
  5
3F5A
  8
0
 10
145.3639688946109061
 20
205.590730773803898
 30
0.0
  0
VERTEX
  5
3F5B
  8
0
 10
145.36661052521751
 20
205.5967763810479028
 30
0.0
  0
VERTEX
  5
3F5C
  8
0
 10
145.369238821533088
 20
205.6034508240512935
 30
0.0
  0
VERTEX
  5
3F5D
  8
0
 10
145.3718528308039879
 20
205.6107565123083134
 30
0.0
  0
VERTEX
  5
3F5E
  8
0
 10
145.3744516322132938
 20
205.6186953862572011
 30
0.0
  0
VERTEX
  5
3F5F
  8
0
 10
145.3770343383939121
 20
205.6272689337702104
 30
0.0
  0
VERTEX
  5
3F60
  8
0
 10
145.378319388694706
 20
205.6317940585026918
 30
0.0
  0
VERTEX
  5
3F61
  8
0
 10
145.3796001006647032
 20
205.6364782231514141
 30
0.0
  0
VERTEX
  5
3F62
  8
0
 10
145.3821480924752905
 20
205.6463238579621873
 30
0.0
  0
VERTEX
  5
3F63
  8
0
 10
145.3846774932212043
 20
205.6568059061862073
 30
0.0
  0
VERTEX
  5
3F64
  8
0
 10
145.3859349726205892
 20
205.6622854782714001
 30
0.0
  0
SEQEND
  5
3F65
  8
0
  0
POLYLINE
  5
2F1C
  8
0
 66
     1
 10
0.0
 20
0.0
 30
0.0
  0
VERTEX
  5
3F66
  8
0
 10
145.3859349726205892
 20
205.6622854782714001
 30
0.0
  0
VERTEX
  5
3F67
  8
0
 10
145.3871237996879131
 20
205.6681204433714925
 30
0.0
  0
VERTEX
  5
3F68
  8
0
 10
145.3888485778105917
 20
205.6803039333568961
 30
0.0
  0
VERTEX
  5
3F69
  8
0
 10
145.3897075022123033
 20
205.6931664108194866
 30
0.0
  0
VERTEX
  5
3F6A
  8
0
 10
145.3898144786006981
 20
205.6998496864125059
 30
0.0
  0
SEQEND
  5
3F6B
  8
0
  0
POLYLINE
  5
2F1D
  8
0
 66
     1
 10
0.0
 20
0.0
 30
0.0
  0
VERTEX
  5
3F6C
  8
0
 10
145.3898144786006981
 20
212.4279539620758896
 30
0.0
  0
VERTEX
  5
3F6D
  8
0
 10
145.3897075022123033
 20
212.4346372376689942
 30
0.0
  0
VERTEX
  5
3F6E
  8
0
 10
145.3888485778105917
 20
212.4474997151316131
 30
0.0
  0
VERTEX
  5
3F6F
  8
0
 10
145.3871237996879131
 20
212.4596832051169031
 30
0.0
  0
VERTEX
  5
3F70
  8
0
 10
145.3859349726205892
 20
212.4655181702169955
 30
0.0
  0
SEQEND
  5
3F71
  8
0
  0
POLYLINE
  5
2F1E
  8
0
 66
     1
 10
0.0
 20
0.0
 30
0.0
  0
VERTEX
  5
3F72
  8
0
 10
145.3859349726205892
 20
212.4655181702169955
 30
0.0
  0
VERTEX
  5
3F73
  8
0
 10
145.3846775031061043
 20
212.470997699936305
 30
0.0
  0
VERTEX
  5
3F74
  8
0
 10
145.3821481218579095
 20
212.481479672896711
 30
0.0
  0
VERTEX
  5
3F75
  8
0
 10
145.3796001489249079
 20
212.4913252455191071
 30
0.0
  0
VERTEX
  5
3F76
  8
0
 10
145.3783194460611128
 20
212.496009384083095
 30
0.0
  0
VERTEX
  5
3F77
  8
0
 10
145.3770344045717025
 20
212.5005344861556864
 30
0.0
  0
VERTEX
  5
3F78
  8
0
 10
145.3744517149297906
 20
212.5091079986511886
 30
0.0
  0
VERTEX
  5
3F79
  8
0
 10
145.3718529284159899
 20
212.5170468507469081
 30
0.0
  0
VERTEX
  5
3F7A
  8
0
 10
145.3692389320821974
 20
212.52435252965779
 30
0.0
  0
VERTEX
  5
3F7B
  8
0
 10
145.3666106464160919
 20
212.5310269749406018
 30
0.0
  0
VERTEX
  5
3F7C
  8
0
 10
145.3639690238246089
 20
212.5370725949730115
 30
0.0
  0
VERTEX
  5
3F7D
  8
0
 10
145.3626435171453863
 20
212.5398604798753013
 30
0.0
  0
VERTEX
  5
3F7E
  8
0
 10
145.3613150470357027
 20
212.5424922811675117
 30
0.0
  0
VERTEX
  5
3F7F
  8
0
 10
145.3586497274118017
 20
212.5472894199643008
 30
0.0
  0
VERTEX
  5
3F80
  8
0
 10
145.3559741031727128
 20
212.5514679026476017
 30
0.0
  0
VERTEX
  5
3F81
  8
0
 10
145.3532892375328061
 20
212.555032133018301
 30
0.0
  0
VERTEX
  5
3F82
  8
0
 10
145.3505962167440941
 20
212.5579870329528944
 30
0.0
  0
VERTEX
  5
3F83
  8
0
 10
145.3478961480477096
 20
212.5603380458690026
 30
0.0
  0
VERTEX
  5
3F84
  8
0
 10
145.3465438219598127
 20
212.5612889387552968
 30
0.0
  0
VERTEX
  5
3F85
  8
0
 10
145.3451901575272132
 20
212.5620911381099063
 30
0.0
  0
VERTEX
  5
3F86
  8
0
 10
145.3424793878662058
 20
212.5632527982531883
 30
0.0
  0
VERTEX
  5
3F87
  8
0
 10
145.3397649959975126
 20
212.5638300343337903
 30
0.0
  0
VERTEX
  5
3F88
  8
0
 10
145.338406806572209
 20
212.5639018242441978
 30
0.0
  0
SEQEND
  5
3F89
  8
0
  0
POLYLINE
  5
2F1F
  8
0
 66
     1
 10
0.0
 20
0.0
 30
0.0
  0
VERTEX
  5
3F8A
  8
0
 10
145.338406806572209
 20
212.5639018242441978
 30
0.0
  0
VERTEX
  5
3F8B
  8
0
 10
145.1536021463057011
 20
212.6613079605654946
 30
0.0
  0
VERTEX
  5
3F8C
  8
0
 10
144.6338401792623074
 20
212.8556410973897073
 30
0.0
  0
VERTEX
  5
3F8D
  8
0
 10
143.9145333195978935
 20
213.0491005398708069
 30
0.0
  0
VERTEX
  5
3F8E
  8
0
 10
143.4803654008146054
 20
213.1454148553717118
 30
0.0
  0
SEQEND
  5
3F8F
  8
0
  0
POLYLINE
  5
2F20
  8
0
 66
     1
 10
0.0
 20
0.0
 30
0.0
  0
VERTEX
  5
3F90
  8
0
 10
143.4803654008146054
 20
213.1454148553717118
 30
0.0
  0
VERTEX
  5
3F91
  8
0
 10
143.4748884230752992
 20
213.1464655149011094
 30
0.0
  0
VERTEX
  5
3F92
  8
0
 10
143.4639438400926963
 20
213.1479870180550904
 30
0.0
  0
VERTEX
  5
3F93
  8
0
 10
143.4530151007610925
 20
213.1487431072181096
 30
0.0
  0
VERTEX
  5
3F94
  8
0
 10
143.4475579365675912
 20
213.1488371462266969
 30
0.0
  0
SEQEND
  5
3F95
  8
0
  0
POLYLINE
  5
2F21
  8
0
 66
     1
 10
0.0
 20
0.0
 30
0.0
  0
VERTEX
  5
3F96
  8
0
 10
143.4475579365675912
 20
213.1488371462266969
 30
0.0
  0
VERTEX
  5
3F97
  8
0
 10
143.4232293307019859
 20
213.1469810166709067
 30
0.0
  0
VERTEX
  5
3F98
  8
0
 10
143.3735919767586893
 20
213.1318532835811084
 30
0.0
  0
VERTEX
  5
3F99
  8
0
 10
143.3228984092243081
 20
213.1010086630948877
 30
0.0
  0
VERTEX
  5
3F9A
  8
0
 10
143.2972520868434003
 20
213.0795606716577026
 30
0.0
  0
SEQEND
  5
3F9B
  8
0
  0
LINE
  5
2F22
  8
0
 10
129.0227730595848072
 20
206.4909851913157013
 30
0.0
 11
133.3100988331216001
 21
206.4909851913157013
 31
0.0
  0
POLYLINE
  5
2F23
  8
0
 66
     1
 10
0.0
 20
0.0
 30
0.0
  0
VERTEX
  5
3F9C
  8
0
 10
136.5824045328554064
 20
203.5031128307261099
 30
0.0
  0
VERTEX
  5
3F9D
  8
0
 10
136.6197792381840088
 20
203.4290886001807905
 30
0.0
  0
VERTEX
  5
3F9E
  8
0
 10
136.6951170173445007
 20
203.2873952184802135
 30
0.0
  0
VERTEX
  5
3F9F
  8
0
 10
136.7726132208451872
 20
203.151579058609201
 30
0.0
  0
VERTEX
  5
3FA0
  8
0
 10
136.8121881582324022
 20
203.0859179479301133
 30
0.0
  0
VERTEX
  5
3FA1
  8
0
 10
136.8522808326480913
 20
203.0218520519603942
 30
0.0
  0
VERTEX
  5
3FA2
  8
0
 10
136.9339152899574117
 20
202.8987784179996936
 30
0.0
  0
VERTEX
  5
3FA3
  8
0
 10
137.017304225829804
 20
202.7828693347383933
 30
0.0
  0
VERTEX
  5
3FA4
  8
0
 10
137.1022313466519051
 20
202.6745801046363908
 30
0.0
  0
VERTEX
  5
3FA5
  8
0
 10
137.1884778756802916
 20
202.5743116237034087
 30
0.0
  0
VERTEX
  5
3FA6
  8
0
 10
137.2758185296856936
 20
202.4824172184472104
 30
0.0
  0
VERTEX
  5
3FA7
  8
0
 10
137.3198271288142109
 20
202.4397074911962022
 30
0.0
  0
VERTEX
  5
3FA8
  8
0
 10
137.3640224254594955
 20
202.3992015126096931
 30
0.0
  0
VERTEX
  5
3FA9
  8
0
 10
137.4528564764200098
 20
202.3249171148285086
 30
0.0
  0
VERTEX
  5
3FAA
  8
0
 10
137.5420918896037961
 20
202.259760570320509
 30
0.0
  0
VERTEX
  5
3FAB
  8
0
 10
137.6315308280744887
 20
202.2038600561990052
 30
0.0
  0
VERTEX
  5
3FAC
  8
0
 10
137.7209512701201106
 20
202.1573172834214915
 30
0.0
  0
VERTEX
  5
3FAD
  8
0
 10
137.8101216968929918
 20
202.1201887347233139
 30
0.0
  0
VERTEX
  5
3FAE
  8
0
 10
137.8545411913646035
 20
202.1051576207707114
 30
0.0
  0
VERTEX
  5
3FAF
  8
0
 10
137.8988123212265862
 20
202.0924764937074087
 30
0.0
  0
VERTEX
  5
3FB0
  8
0
 10
137.9867982612609012
 20
202.0741267601827929
 30
0.0
  0
VERTEX
  5
3FB1
  8
0
 10
138.0738613029593012
 20
202.0650298649597971
 30
0.0
  0
VERTEX
  5
3FB2
  8
0
 10
138.1169792619261898
 20
202.0639018242441978
 30
0.0
  0
SEQEND
  5
3FB3
  8
0
  0
POLYLINE
  5
2F24
  8
0
 66
     1
 10
0.0
 20
0.0
 30
0.0
  0
VERTEX
  5
3FB4
  8
0
 10
138.1169792619261898
 20
202.0639018242441978
 30
0.0
  0
VERTEX
  5
3FB5
  8
0
 10
138.160807779919395
 20
202.0650747409513031
 30
0.0
  0
VERTEX
  5
3FB6
  8
0
 10
138.2473701287622134
 20
202.0743560075721064
 30
0.0
  0
VERTEX
  5
3FB7
  8
0
 10
138.3322859412637058
 20
202.0926229954195037
 30
0.0
  0
VERTEX
  5
3FB8
  8
0
 10
138.3740582796204137
 20
202.1050124279796023
 30
0.0
  0
VERTEX
  5
3FB9
  8
0
 10
138.4154283724055858
 20
202.1195375661471019
 30
0.0
  0
VERTEX
  5
3FBA
  8
0
 10
138.4983246012293137
 20
202.1555397972531978
 30
0.0
  0
VERTEX
  5
3FBB
  8
0
 10
138.5813729948386026
 20
202.2011056397099082
 30
0.0
  0
VERTEX
  5
3FBC
  8
0
 10
138.6642905623529884
 20
202.2564537368305082
 30
0.0
  0
VERTEX
  5
3FBD
  8
0
 10
138.7468041826764136
 20
202.3217324086782867
 30
0.0
  0
VERTEX
  5
3FBE
  8
0
 10
138.8286542340568133
 20
202.3970232638988875
 30
0.0
  0
VERTEX
  5
3FBF
  8
0
 10
138.8692534909449989
 20
202.4384315749126984
 30
0.0
  0
VERTEX
  5
3FC0
  8
0
 10
138.9095958588017936
 20
202.4823447017352862
 30
0.0
  0
VERTEX
  5
3FC1
  8
0
 10
138.9893937110273043
 20
202.5776480759157039
 30
0.0
  0
VERTEX
  5
3FC2
  8
0
 10
139.0678218746786001
 20
202.6828164044187872
 30
0.0
  0
VERTEX
  5
3FC3
  8
0
 10
139.1446671829343984
 20
202.7976677562431007
 30
0.0
  0
VERTEX
  5
3FC4
  8
0
 10
139.2197373178040891
 20
202.921969548125503
 30
0.0
  0
VERTEX
  5
3FC5
  8
0
 10
139.2928801585175904
 20
203.0554824433382066
 30
0.0
  0
VERTEX
  5
3FC6
  8
0
 10
139.3286760034289102
 20
203.1255899257241992
 30
0.0
  0
VERTEX
  5
3FC7
  8
0
 10
139.3639268723754867
 20
203.1978663708580939
 30
0.0
  0
VERTEX
  5
3FC8
  8
0
 10
139.432714823385993
 20
203.3487071270477884
 30
0.0
  0
VERTEX
  5
3FC9
  8
0
 10
139.4990959571356939
 20
203.5075300530124025
 30
0.0
  0
VERTEX
  5
3FCA
  8
0
 10
139.5313423608604069
 20
203.5897717715373858
 30
0.0
  0
SEQEND
  5
3FCB
  8
0
  0
LINE
  5
2F25
  8
0
 10
129.0227730595848072
 20
202.0639018242441978
 30
0.0
 11
129.0227730595848072
 21
216.0639018242441978
 31
0.0
  0
POLYLINE
  5
2F26
  8
0
 66
     1
 10
0.0
 20
0.0
 30
0.0
  0
VERTEX
  5
3FCC
  8
0
 10
139.5313423608604069
 20
214.538031876951095
 30
0.0
  0
VERTEX
  5
3FCD
  8
0
 10
139.499095957135097
 20
214.6202735954780962
 30
0.0
  0
VERTEX
  5
3FCE
  8
0
 10
139.4327148233853109
 20
214.7790965214425114
 30
0.0
  0
VERTEX
  5
3FCF
  8
0
 10
139.3639268723750035
 20
214.9299372776318933
 30
0.0
  0
VERTEX
  5
3FD0
  8
0
 10
139.3286760034283986
 20
215.0022137227657879
 30
0.0
  0
VERTEX
  5
3FD1
  8
0
 10
139.2928801585167093
 20
215.07232120515161
 30
0.0
  0
VERTEX
  5
3FD2
  8
0
 10
139.219737317803208
 20
215.2058341003641999
 30
0.0
  0
VERTEX
  5
3FD3
  8
0
 10
139.1446671829338868
 20
215.3301358922464033
 30
0.0
  0
VERTEX
  5
3FD4
  8
0
 10
139.0678218746780033
 20
215.4449872440706031
 30
0.0
  0
VERTEX
  5
3FD5
  8
0
 10
138.9893937110267927
 20
215.5501555725734875
 30
0.0
  0
VERTEX
  5
3FD6
  8
0
 10
138.9095958588013104
 20
215.6454589467537062
 30
0.0
  0
VERTEX
  5
3FD7
  8
0
 10
138.869253490944601
 20
215.6893720735764077
 30
0.0
  0
VERTEX
  5
3FD8
  8
0
 10
138.8286542340563017
 20
215.7307803845899912
 30
0.0
  0
VERTEX
  5
3FD9
  8
0
 10
138.7468041826759872
 20
215.8060712398105068
 30
0.0
  0
VERTEX
  5
3FDA
  8
0
 10
138.6642905623525053
 20
215.8713499116583137
 30
0.0
  0
VERTEX
  5
3FDB
  8
0
 10
138.581372994838091
 20
215.9266980087787999
 30
0.0
  0
VERTEX
  5
3FDC
  8
0
 10
138.4983246012290863
 20
215.9722638512353967
 30
0.0
  0
VERTEX
  5
3FDD
  8
0
 10
138.4154283724053016
 20
216.0082660823414926
 30
0.0
  0
VERTEX
  5
3FDE
  8
0
 10
138.3740582796204137
 20
216.0227912205089069
 30
0.0
  0
VERTEX
  5
3FDF
  8
0
 10
138.3322859412637058
 20
216.0351806530688918
 30
0.0
  0
VERTEX
  5
3FE0
  8
0
 10
138.2473701287622134
 20
216.0534476409164029
 30
0.0
  0
VERTEX
  5
3FE1
  8
0
 10
138.160807779919196
 20
216.0627289075370925
 30
0.0
  0
VERTEX
  5
3FE2
  8
0
 10
138.1169792619261898
 20
216.0639018242441978
 30
0.0
  0
SEQEND
  5
3FE3
  8
0
  0
POLYLINE
  5
2F27
  8
0
 66
     1
 10
0.0
 20
0.0
 30
0.0
  0
VERTEX
  5
3FE4
  8
0
 10
138.1169792619261898
 20
216.0639018242441978
 30
0.0
  0
VERTEX
  5
3FE5
  8
0
 10
138.0738613029593012
 20
216.0627737835285984
 30
0.0
  0
VERTEX
  5
3FE6
  8
0
 10
137.9867982612609012
 20
216.0536768883056027
 30
0.0
  0
VERTEX
  5
3FE7
  8
0
 10
137.8988123212265862
 20
216.0353271547811005
 30
0.0
  0
VERTEX
  5
3FE8
  8
0
 10
137.8545411913646035
 20
216.0226460277177978
 30
0.0
  0
VERTEX
  5
3FE9
  8
0
 10
137.8101216968929918
 20
216.00761491376511
 30
0.0
  0
VERTEX
  5
3FEA
  8
0
 10
137.7209512701201106
 20
215.970486365066904
 30
0.0
  0
VERTEX
  5
3FEB
  8
0
 10
137.6315308280744887
 20
215.9239435922895041
 30
0.0
  0
VERTEX
  5
3FEC
  8
0
 10
137.5420918896037961
 20
215.8680430781680002
 30
0.0
  0
VERTEX
  5
3FED
  8
0
 10
137.4528564764200098
 20
215.8028865336598869
 30
0.0
  0
VERTEX
  5
3FEE
  8
0
 10
137.3640224254594955
 20
215.7286021358787877
 30
0.0
  0
VERTEX
  5
3FEF
  8
0
 10
137.3198271288142109
 20
215.6880961572921933
 30
0.0
  0
VERTEX
  5
3FF0
  8
0
 10
137.2758185296856936
 20
215.6453864300412988
 30
0.0
  0
VERTEX
  5
3FF1
  8
0
 10
137.1884778756802916
 20
215.5534920247849868
 30
0.0
  0
VERTEX
  5
3FF2
  8
0
 10
137.1022313466519051
 20
215.4532235438520047
 30
0.0
  0
VERTEX
  5
3FF3
  8
0
 10
137.017304225829804
 20
215.3449343137500875
 30
0.0
  0
VERTEX
  5
3FF4
  8
0
 10
136.9339152899574117
 20
215.2290252304887872
 30
0.0
  0
VERTEX
  5
3FF5
  8
0
 10
136.8522808326480913
 20
215.1059515965280013
 30
0.0
  0
VERTEX
  5
3FF6
  8
0
 10
136.8121881582324022
 20
215.0418857005583959
 30
0.0
  0
VERTEX
  5
3FF7
  8
0
 10
136.7726132208451872
 20
214.9762245898793083
 30
0.0
  0
VERTEX
  5
3FF8
  8
0
 10
136.6951170173445007
 20
214.8404084300082104
 30
0.0
  0
VERTEX
  5
3FF9
  8
0
 10
136.6197792381840088
 20
214.6987150483076903
 30
0.0
  0
VERTEX
  5
3FFA
  8
0
 10
136.5824045328554064
 20
214.6246908177623993
 30
0.0
  0
SEQEND
  5
3FFB
  8
0
  0
LINE
  5
2F28
  8
0
 10
133.3100988331216001
 20
211.6368184571726943
 30
0.0
 11
129.0227730595848072
 21
211.6368184571726943
 31
0.0
  0
POLYLINE
  5
2F29
  8
0
 66
     1
 10
0.0
 20
0.0
 30
0.0
  0
VERTEX
  5
3FFC
  8
0
 10
143.2972520868434003
 20
205.0482429768306929
 30
0.0
  0
VERTEX
  5
3FFD
  8
0
 10
143.3228984092243081
 20
205.0267949853935079
 30
0.0
  0
VERTEX
  5
3FFE
  8
0
 10
143.3735919767586893
 20
204.9959503649072872
 30
0.0
  0
VERTEX
  5
3FFF
  8
0
 10
143.4232293307019859
 20
204.9808226318174889
 30
0.0
  0
VERTEX
  5
4000
  8
0
 10
143.4475579365675912
 20
204.9789665022616987
 30
0.0
  0
SEQEND
  5
4001
  8
0
  0
POLYLINE
  5
2F2A
  8
0
 66
     1
 10
0.0
 20
0.0
 30
0.0
  0
VERTEX
  5
4002
  8
0
 10
143.4475579365675912
 20
204.9789665022616987
 30
0.0
  0
VERTEX
  5
4003
  8
0
 10
143.4530151007610925
 20
204.979060541270286
 30
0.0
  0
VERTEX
  5
4004
  8
0
 10
143.4639438400926963
 20
204.9798166304333051
 30
0.0
  0
VERTEX
  5
4005
  8
0
 10
143.4748884230752992
 20
204.9813381335872862
 30
0.0
  0
VERTEX
  5
4006
  8
0
 10
143.4803654008146054
 20
204.9823887931167121
 30
0.0
  0
SEQEND
  5
4007
  8
0
  0
POLYLINE
  5
2F2B
  8
0
 66
     1
 10
0.0
 20
0.0
 30
0.0
  0
VERTEX
  5
4008
  8
0
 10
139.5313423608604069
 20
203.5897717715373858
 30
0.0
  0
VERTEX
  5
4009
  8
0
 10
139.6171458010639981
 20
203.6926311150322135
 30
0.0
  0
VERTEX
  5
400A
  8
0
 10
139.7871074914341989
 20
203.8892251157944884
 30
0.0
  0
VERTEX
  5
400B
  8
0
 10
139.9547089687530104
 20
204.0736213153876975
 30
0.0
  0
VERTEX
  5
400C
  8
0
 10
140.0375635869077087
 20
204.1612405217950084
 30
0.0
  0
VERTEX
  5
400D
  8
0
 10
140.1197557808181955
 20
204.2458085750077998
 30
0.0
  0
VERTEX
  5
400E
  8
0
 10
140.2820608433536904
 20
204.4058079094897948
 30
0.0
  0
VERTEX
  5
400F
  8
0
 10
140.4414455518667069
 20
204.5536739601514
 30
0.0
  0
VERTEX
  5
4010
  8
0
 10
140.5977407968150033
 20
204.6894961308848906
 30
0.0
  0
VERTEX
  5
4011
  8
0
 10
140.7507878873466041
 20
204.8133993942645077
 30
0.0
  0
VERTEX
  5
4012
  8
0
 10
140.9015898633533084
 20
204.9263715595153883
 30
0.0
  0
VERTEX
  5
4013
  8
0
 10
140.9768879974903939
 20
204.9792895036403024
 30
0.0
  0
VERTEX
  5
4014
  8
0
 10
141.0520887572097024
 20
205.0297578878578122
 30
0.0
  0
VERTEX
  5
4015
  8
0
 10
141.2020636074896061
 20
205.1231077221544865
 30
0.0
  0
VERTEX
  5
4016
  8
0
 10
141.3512499984817055
 20
205.2059677846993111
 30
0.0
  0
VERTEX
  5
4017
  8
0
 10
141.4993919878342865
 20
205.2779227731579113
 30
0.0
  0
VERTEX
  5
4018
  8
0
 10
141.6462434704125997
 20
205.3385962448724911
 30
0.0
  0
VERTEX
  5
4019
  8
0
 10
141.7915694717376027
 20
205.3876511307300916
 30
0.0
  0
VERTEX
  5
401A
  8
0
 10
141.863590333007096
 20
205.4077270735365062
 30
0.0
  0
VERTEX
  5
401B
  8
0
 10
141.9351473492201876
 20
205.4247898478070056
 30
0.0
  0
VERTEX
  5
401C
  8
0
 10
142.0767667226801052
 20
205.4497538305899127
 30
0.0
  0
VERTEX
  5
401D
  8
0
 10
142.2162272980189925
 20
205.4623231390048943
 30
0.0
  0
VERTEX
  5
401E
  8
0
 10
142.2850882425449868
 20
205.4639018242442035
 30
0.0
  0
SEQEND
  5
401F
  8
0
  0
POLYLINE
  5
2F2C
  8
0
 66
     1
 10
0.0
 20
0.0
 30
0.0
  0
VERTEX
  5
4020
  8
0
 10
142.2850882425449868
 20
205.4639018242442035
 30
0.0
  0
VERTEX
  5
4021
  8
0
 10
142.466870520152014
 20
205.4524518004666049
 30
0.0
  0
VERTEX
  5
4022
  8
0
 10
142.8156531007606986
 20
205.3602310264226958
 30
0.0
  0
VERTEX
  5
4023
  8
0
 10
143.1426023879662068
 20
205.1752229932965861
 30
0.0
  0
VERTEX
  5
4024
  8
0
 10
143.2972520868434003
 20
205.0482429768306929
 30
0.0
  0
SEQEND
  5
4025
  8
0
  0
LINE
  5
2F2D
  8
0
 10
118.522773059584793
 20
202.5639018242441978
 30
0.0
 11
118.522773059584793
 21
215.5639018242441978
 31
0.0
  0
LINE
  5
2F2E
  8
0
 10
136.5824045328554064
 20
203.5031128307261099
 30
0.0
 11
136.5824045328554064
 21
208.0852340229668869
 31
0.0
  0
POLYLINE
  5
2F2F
  8
0
 66
     1
 10
0.0
 20
0.0
 30
0.0
  0
VERTEX
  5
4026
  8
0
 10
133.3100988331216001
 20
206.4909851913157013
 30
0.0
  0
VERTEX
  5
4027
  8
0
 10
133.3338802851135085
 20
206.4907807733632126
 30
0.0
  0
VERTEX
  5
4028
  8
0
 10
133.380967584621601
 20
206.4891703684434958
 30
0.0
  0
VERTEX
  5
4029
  8
0
 10
133.4274403378144029
 20
206.486012431208195
 30
0.0
  0
VERTEX
  5
402A
  8
0
 10
133.4504538086999048
 20
206.4838731573142923
 30
0.0
  0
VERTEX
  5
402B
  8
0
 10
133.4733227657901864
 20
206.4813707618278897
 30
0.0
  0
VERTEX
  5
402C
  8
0
 10
133.518639443871507
 20
206.4753070046481014
 30
0.0
  0
VERTEX
  5
402D
  8
0
 10
133.5634147836744887
 20
206.4678804944628041
 30
0.0
  0
VERTEX
  5
402E
  8
0
 10
133.6076725396432892
 20
206.4591482225646928
 30
0.0
  0
VERTEX
  5
402F
  8
0
 10
133.6514353721844941
 20
206.4491649030030942
 30
0.0
  0
VERTEX
  5
4030
  8
0
 10
133.6947244958803083
 20
206.4379831123156066
 30
0.0
  0
VERTEX
  5
4031
  8
0
 10
133.7161976639058025
 20
206.4319586587604931
 30
0.0
  0
VERTEX
  5
4032
  8
0
 10
133.7375598617227013
 20
206.4256533426197109
 30
0.0
  0
VERTEX
  5
4033
  8
0
 10
133.7799612603863864
 20
206.4122237271116944
 30
0.0
  0
VERTEX
  5
4034
  8
0
 10
133.8219483769688907
 20
206.3977399660315086
 30
0.0
  0
VERTEX
  5
4035
  8
0
 10
133.8635404051919977
 20
206.3822454321081068
 30
0.0
  0
VERTEX
  5
4036
  8
0
 10
133.9047557210406012
 20
206.3657813304434967
 30
0.0
  0
VERTEX
  5
4037
  8
0
 10
133.9456116261125942
 20
206.3483868907472072
 30
0.0
  0
VERTEX
  5
4038
  8
0
 10
133.9659098650249121
 20
206.3393525640977941
 30
0.0
  0
VERTEX
  5
4039
  8
0
 10
133.9861241598721051
 20
206.3300995740675035
 30
0.0
  0
VERTEX
  5
403A
  8
0
 10
134.0263073745267945
 20
206.3109555736598111
 30
0.0
  0
VERTEX
  5
403B
  8
0
 10
134.0661678935884993
 20
206.2909928400538035
 30
0.0
  0
VERTEX
  5
403C
  8
0
 10
134.0859799188988006
 20
206.2807155662648881
 30
0.0
  0
VERTEX
  5
403D
  8
0
 10
134.1057148696085903
 20
206.2702466072360039
 30
0.0
  0
VERTEX
  5
403E
  8
0
 10
134.1449587144225006
 20
206.2487497737243132
 30
0.0
  0
VERTEX
  5
403F
  8
0
 10
134.183909550424687
 20
206.2265336487749892
 30
0.0
  0
VERTEX
  5
4040
  8
0
 10
134.2032781374336992
 20
206.2151652316073012
 30
0.0
  0
VERTEX
  5
4041
  8
0
 10
134.2225770636798075
 20
206.2036280748534978
 30
0.0
  0
VERTEX
  5
4042
  8
0
 10
134.2609703878192988
 20
206.1800615548688995
 30
0.0
  0
VERTEX
  5
4043
  8
0
 10
134.2990980157892125
 20
206.1558613790359971
 30
0.0
  0
VERTEX
  5
4044
  8
0
 10
134.3369677362742891
 20
206.1310537475131071
 30
0.0
  0
VERTEX
  5
4045
  8
0
 10
134.3745865915878142
 20
206.1056638860520991
 30
0.0
  0
VERTEX
  5
4046
  8
0
 10
134.4119608539486137
 20
206.0797161528103913
 30
0.0
  0
VERTEX
  5
4047
  8
0
 10
134.4305580099691895
 20
206.0665404830108116
 30
0.0
  0
VERTEX
  5
4048
  8
0
 10
134.4490960172603877
 20
206.0532341351959928
 30
0.0
  0
VERTEX
  5
4049
  8
0
 10
134.4859968017840117
 20
206.0262407361890098
 30
0.0
  0
VERTEX
  5
404A
  8
0
 10
134.5226671693725962
 20
205.9987582500104111
 30
0.0
  0
VERTEX
  5
404B
  8
0
 10
134.6492326434359086
 20
205.8990331320898122
 30
0.0
  0
VERTEX
  5
404C
  8
0
 10
134.8593304812806934
 20
205.7177790934256905
 30
0.0
  0
VERTEX
  5
404D
  8
0
 10
135.060241129477987
 20
205.5274859269403009
 30
0.0
  0
VERTEX
  5
404E
  8
0
 10
135.2512779615121872
 20
205.3321881478588864
 30
0.0
  0
VERTEX
  5
404F
  8
0
 10
135.342816659763912
 20
205.2338191189849965
 30
0.0
  0
VERTEX
  5
4050
  8
0
 10
135.4315375750798012
 20
205.1355466022544931
 30
0.0
  0
VERTEX
  5
4051
  8
0
 10
135.6000097267202875
 20
204.9409181874418096
 30
0.0
  0
VERTEX
  5
4052
  8
0
 10
135.7581967828324991
 20
204.7482467374940995
 30
0.0
  0
VERTEX
  5
4053
  8
0
 10
135.9107644058460096
 20
204.5525275462418051
 30
0.0
  0
VERTEX
  5
4054
  8
0
 10
136.05630630689339
 20
204.3555129247660886
 30
0.0
  0
VERTEX
  5
4055
  8
0
 10
136.1932043047746959
 20
204.1591773356784927
 30
0.0
  0
VERTEX
  5
4056
  8
0
 10
136.2579230689675001
 20
204.0618498074944966
 30
0.0
  0
VERTEX
  5
4057
  8
0
 10
136.3199007606785926
 20
203.9653821297171987
 30
0.0
  0
VERTEX
  5
4058
  8
0
 10
136.4348949765467012
 20
203.7758819440032028
 30
0.0
  0
VERTEX
  5
4059
  8
0
 10
136.5367808180672
 20
203.5922723924915942
 30
0.0
  0
VERTEX
  5
405A
  8
0
 10
136.5824045328554064
 20
203.5031128307261099
 30
0.0
  0
SEQEND
  5
405B
  8
0
  0
LINE
  5
2F30
  8
0
 10
133.3100988331216001
 20
206.4909851913157013
 30
0.0
 11
133.3100988331216001
 21
211.6368184571726943
 31
0.0
  0
POLYLINE
  5
2F31
  8
0
 66
     1
 10
0.0
 20
0.0
 30
0.0
  0
VERTEX
  5
405C
  8
0
 10
136.5824045328554064
 20
214.6246908177623993
 30
0.0
  0
VERTEX
  5
405D
  8
0
 10
136.5367808180672
 20
214.5355312559968013
 30
0.0
  0
VERTEX
  5
405E
  8
0
 10
136.4348949765467012
 20
214.3519217044851928
 30
0.0
  0
VERTEX
  5
405F
  8
0
 10
136.3199007606785926
 20
214.1624215187711968
 30
0.0
  0
VERTEX
  5
4060
  8
0
 10
136.2579230689675001
 20
214.0659538409940126
 30
0.0
  0
VERTEX
  5
4061
  8
0
 10
136.1932043047746959
 20
213.9686263128099881
 30
0.0
  0
VERTEX
  5
4062
  8
0
 10
136.05630630689339
 20
213.7722907237223069
 30
0.0
  0
VERTEX
  5
4063
  8
0
 10
135.9107644058460096
 20
213.5752761022467041
 30
0.0
  0
VERTEX
  5
4064
  8
0
 10
135.7581967828324991
 20
213.379556910994296
 30
0.0
  0
VERTEX
  5
4065
  8
0
 10
135.6000097267202875
 20
213.1868854610466997
 30
0.0
  0
VERTEX
  5
4066
  8
0
 10
135.4315375750798012
 20
212.9922570462339024
 30
0.0
  0
VERTEX
  5
4067
  8
0
 10
135.342816659763912
 20
212.893984529503399
 30
0.0
  0
VERTEX
  5
4068
  8
0
 10
135.2512779615121872
 20
212.7956155006295091
 30
0.0
  0
VERTEX
  5
4069
  8
0
 10
135.060241129477987
 20
212.6003177215482083
 30
0.0
  0
VERTEX
  5
406A
  8
0
 10
134.8593304812806934
 20
212.4100245550627903
 30
0.0
  0
VERTEX
  5
406B
  8
0
 10
134.6492326434359086
 20
212.2287705163986118
 30
0.0
  0
VERTEX
  5
406C
  8
0
 10
134.5226671693725962
 20
212.1290453984780129
 30
0.0
  0
VERTEX
  5
406D
  8
0
 10
134.4859968017840117
 20
212.1015629122994142
 30
0.0
  0
VERTEX
  5
406E
  8
0
 10
134.4490960172603877
 20
212.0745695132924027
 30
0.0
  0
VERTEX
  5
406F
  8
0
 10
134.4305580099691895
 20
212.0612631654776123
 30
0.0
  0
VERTEX
  5
4070
  8
0
 10
134.4119608539486137
 20
212.0480874956780042
 30
0.0
  0
VERTEX
  5
4071
  8
0
 10
134.3745865915878142
 20
212.0221397624364101
 30
0.0
  0
VERTEX
  5
4072
  8
0
 10
134.3369677362742891
 20
211.9967499009754022
 30
0.0
  0
VERTEX
  5
4073
  8
0
 10
134.2990980157892125
 20
211.9719422694525122
 30
0.0
  0
VERTEX
  5
4074
  8
0
 10
134.2609703878192988
 20
211.9477420936196097
 30
0.0
  0
VERTEX
  5
4075
  8
0
 10
134.2225770636798075
 20
211.9241755736348978
 30
0.0
  0
VERTEX
  5
4076
  8
0
 10
134.2032781374336992
 20
211.9126384168812081
 30
0.0
  0
VERTEX
  5
4077
  8
0
 10
134.183909550424687
 20
211.9012699997134916
 30
0.0
  0
VERTEX
  5
4078
  8
0
 10
134.1449587144225006
 20
211.8790538747641961
 30
0.0
  0
VERTEX
  5
4079
  8
0
 10
134.1057148696085903
 20
211.8575570412525053
 30
0.0
  0
VERTEX
  5
407A
  8
0
 10
134.0859799188988006
 20
211.8470880822235927
 30
0.0
  0
VERTEX
  5
407B
  8
0
 10
134.0661678935884993
 20
211.836810808434592
 30
0.0
  0
VERTEX
  5
407C
  8
0
 10
134.0263073745267945
 20
211.8168480748286129
 30
0.0
  0
VERTEX
  5
407D
  8
0
 10
133.9861241598721051
 20
211.7977040744210058
 30
0.0
  0
VERTEX
  5
407E
  8
0
 10
133.9659098650249121
 20
211.7884510843906867
 30
0.0
  0
VERTEX
  5
407F
  8
0
 10
133.9456116261125942
 20
211.779416757741302
 30
0.0
  0
VERTEX
  5
4080
  8
0
 10
133.9047557210406012
 20
211.7620223180450125
 30
0.0
  0
VERTEX
  5
4081
  8
0
 10
133.8635404051919977
 20
211.7455582163802887
 30
0.0
  0
VERTEX
  5
4082
  8
0
 10
133.8219483769688907
 20
211.7300636824568869
 30
0.0
  0
VERTEX
  5
4083
  8
0
 10
133.7799612603863864
 20
211.7155799213767011
 30
0.0
  0
VERTEX
  5
4084
  8
0
 10
133.7375598617227013
 20
211.7021503058687131
 30
0.0
  0
VERTEX
  5
4085
  8
0
 10
133.7161976639058025
 20
211.6958449897279024
 30
0.0
  0
VERTEX
  5
4086
  8
0
 10
133.6947244958803083
 20
211.6898205361729026
 30
0.0
  0
VERTEX
  5
4087
  8
0
 10
133.6514353721844941
 20
211.6786387454855003
 30
0.0
  0
VERTEX
  5
4088
  8
0
 10
133.6076725396432892
 20
211.668655425923788
 30
0.0
  0
VERTEX
  5
4089
  8
0
 10
133.5634147836744887
 20
211.6599231540255914
 30
0.0
  0
VERTEX
  5
408A
  8
0
 10
133.518639443871507
 20
211.6524966438402942
 30
0.0
  0
VERTEX
  5
408B
  8
0
 10
133.4733227657901864
 20
211.6464328866605911
 30
0.0
  0
VERTEX
  5
408C
  8
0
 10
133.4504538086999048
 20
211.6439304911741885
 30
0.0
  0
VERTEX
  5
408D
  8
0
 10
133.4274403378144029
 20
211.6417912172802005
 30
0.0
  0
VERTEX
  5
408E
  8
0
 10
133.380967584621601
 20
211.6386332800448997
 30
0.0
  0
VERTEX
  5
408F
  8
0
 10
133.3338802851135085
 20
211.6370228751252967
 30
0.0
  0
VERTEX
  5
4090
  8
0
 10
133.3100988331216001
 20
211.6368184571726943
 30
0.0
  0
SEQEND
  5
4091
  8
0
  0
LINE
  5
2F32
  8
0
 10
136.5824045328554064
 20
210.0425696255215087
 30
0.0
 11
136.5824045328554064
 21
214.6246908177623993
 31
0.0
  0
POLYLINE
  5
2F33
  8
0
 66
     1
 10
0.0
 20
0.0
 30
0.0
  0
VERTEX
  5
4092
  8
0
 10
136.5824045328554064
 20
208.0852340229668869
 30
0.0
  0
VERTEX
  5
4093
  8
0
 10
136.577914501658114
 20
208.1396975740416053
 30
0.0
  0
VERTEX
  5
4094
  8
0
 10
136.569600570689488
 20
208.2488317764363899
 30
0.0
  0
VERTEX
  5
4095
  8
0
 10
136.5622237513194079
 20
208.3581396775865926
 30
0.0
  0
VERTEX
  5
4096
  8
0
 10
136.5589028322100944
 20
208.4128197181807991
 30
0.0
  0
VERTEX
  5
4097
  8
0
 10
136.555834236977006
 20
208.467495744697203
 30
0.0
  0
VERTEX
  5
4098
  8
0
 10
136.5504721171894005
 20
208.5767701399394127
 30
0.0
  0
VERTEX
  5
4099
  8
0
 10
136.5461668978350076
 20
208.6858299158766954
 30
0.0
  0
VERTEX
  5
409A
  8
0
 10
136.5429371915510899
 20
208.7945402707084099
 30
0.0
  0
VERTEX
  5
409B
  8
0
 10
136.540790597256489
 20
208.9027658748227907
 30
0.0
  0
VERTEX
  5
409C
  8
0
 10
136.5397237824103911
 20
209.0103722632821928
 30
0.0
  0
VERTEX
  5
409D
  8
0
 10
136.5395913292063028
 20
209.0639018242441978
 30
0.0
  0
VERTEX
  5
409E
  8
0
 10
136.5397237824103911
 20
209.117431385206288
 30
0.0
  0
VERTEX
  5
409F
  8
0
 10
136.540790597256489
 20
209.2250377736656901
 30
0.0
  0
VERTEX
  5
40A0
  8
0
 10
136.5429371915510899
 20
209.3332633777800993
 30
0.0
  0
VERTEX
  5
40A1
  8
0
 10
136.5461668978350076
 20
209.4419737326117001
 30
0.0
  0
VERTEX
  5
40A2
  8
0
 10
136.5504721171894005
 20
209.5510335085490112
 30
0.0
  0
VERTEX
  5
40A3
  8
0
 10
136.555834236977006
 20
209.6603079037913062
 30
0.0
  0
VERTEX
  5
40A4
  8
0
 10
136.5589028322100944
 20
209.7149839303077101
 30
0.0
  0
VERTEX
  5
40A5
  8
0
 10
136.5622237513194079
 20
209.7696639709018882
 30
0.0
  0
VERTEX
  5
40A6
  8
0
 10
136.569600570689488
 20
209.8789718720520057
 30
0.0
  0
VERTEX
  5
40A7
  8
0
 10
136.577914501658114
 20
209.9881060744467902
 30
0.0
  0
VERTEX
  5
40A8
  8
0
 10
136.5824045328554064
 20
210.0425696255215087
 30
0.0
  0
SEQEND
  5
40A9
  8
0
  0
POLYLINE
  5
2F34
  8
0
 66
     1
 10
0.0
 20
0.0
 30
0.0
  0
VERTEX
  5
40AA
  8
0
 10
136.5824045328554064
 20
210.0425696255215087
 30
0.0
  0
VERTEX
  5
40AB
  8
0
 10
136.5847901877496042
 20
210.0703982117802866
 30
0.0
  0
VERTEX
  5
40AC
  8
0
 10
136.5897649832890863
 20
210.1259784394715098
 30
0.0
  0
VERTEX
  5
40AD
  8
0
 10
136.5950103246736944
 20
210.1814417874500123
 30
0.0
  0
VERTEX
  5
40AE
  8
0
 10
136.5977341115176102
 20
210.2091242723680011
 30
0.0
  0
VERTEX
  5
40AF
  8
0
 10
136.6005251018586932
 20
210.2367711088845965
 30
0.0
  0
VERTEX
  5
40B0
  8
0
 10
136.6063079917541927
 20
210.2919492888505033
 30
0.0
  0
VERTEX
  5
40B1
  8
0
 10
136.6123574608349998
 20
210.3469592824631036
 30
0.0
  0
VERTEX
  5
40B2
  8
0
 10
136.6186717685799863
 20
210.4017841519460035
 30
0.0
  0
VERTEX
  5
40B3
  8
0
 10
136.6252489717280127
 20
210.4564071026599947
 30
0.0
  0
VERTEX
  5
40B4
  8
0
 10
136.6320869293307965
 20
210.5108115181189987
 30
0.0
  0
VERTEX
  5
40B5
  8
0
 10
136.6356029693729113
 20
210.5379266395841
 30
0.0
  0
VERTEX
  5
40B6
  8
0
 10
136.6391833085939993
 20
210.5649809940196917
 30
0.0
  0
VERTEX
  5
40B7
  8
0
 10
136.6465355914911015
 20
210.6188993713074069
 30
0.0
  0
VERTEX
  5
40B8
  8
0
 10
136.6541410821382101
 20
210.672550768299601
 30
0.0
  0
VERTEX
  5
40B9
  8
0
 10
136.661996914930512
 20
210.725919611887889
 30
0.0
  0
VERTEX
  5
40BA
  8
0
 10
136.6701003094439955
 20
210.7789922505149889
 30
0.0
  0
VERTEX
  5
40BB
  8
0
 10
136.678449601546987
 20
210.8317630549854016
 30
0.0
  0
VERTEX
  5
40BC
  8
0
 10
136.6827155627678962
 20
210.8580312113535058
 30
0.0
  0
VERTEX
  5
40BD
  8
0
 10
136.6870418525955131
 20
210.8842187425265138
 30
0.0
  0
VERTEX
  5
40BE
  8
0
 10
136.6958737002051123
 20
210.9363445730174078
 30
0.0
  0
VERTEX
  5
40BF
  8
0
 10
136.7049415882208905
 20
210.9881258986395949
 30
0.0
  0
VERTEX
  5
40C0
  8
0
 10
136.7095628840810946
 20
211.0138828289651087
 30
0.0
  0
VERTEX
  5
40C1
  8
0
 10
136.7142417707667903
 20
211.0395482005039014
 30
0.0
  0
VERTEX
  5
40C2
  8
0
 10
136.7237703169716951
 20
211.0905971237827998
 30
0.0
  0
VERTEX
  5
40C3
  8
0
 10
136.7335231163501135
 20
211.14125851138391
 30
0.0
  0
VERTEX
  5
40C4
  8
0
 10
136.738482278804895
 20
211.1664395172481932
 30
0.0
  0
VERTEX
  5
40C5
  8
0
 10
136.7434958848089082
 20
211.1915184362048876
 30
0.0
  0
VERTEX
  5
40C6
  8
0
 10
136.7536841712669116
 20
211.241363232013498
 30
0.0
  0
VERTEX
  5
40C7
  8
0
 10
136.7640833648638079
 20
211.2907795229990882
 30
0.0
  0
VERTEX
  5
40C8
  8
0
 10
136.7746887027473974
 20
211.3397542520413879
 30
0.0
  0
VERTEX
  5
40C9
  8
0
 10
136.7854952784304885
 20
211.3882747077468025
 30
0.0
  0
VERTEX
  5
40CA
  8
0
 10
136.7964980507022119
 20
211.4363285502963095
 30
0.0
  0
VERTEX
  5
40CB
  8
0
 10
136.8020714006611058
 20
211.4601767431504982
 30
0.0
  0
VERTEX
  5
40CC
  8
0
 10
136.807691853098305
 20
211.4839038361571966
 30
0.0
  0
VERTEX
  5
40CD
  8
0
 10
136.8190714039185139
 20
211.5309890416828864
 30
0.0
  0
VERTEX
  5
40CE
  8
0
 10
136.8306313095667974
 20
211.5775730569118025
 30
0.0
  0
VERTEX
  5
40CF
  8
0
 10
136.8423660271245978
 20
211.6236450225954115
 30
0.0
  0
VERTEX
  5
40D0
  8
0
 10
136.8542698395390005
 20
211.6691942398655044
 30
0.0
  0
VERTEX
  5
40D1
  8
0
 10
136.8663368596249086
 20
211.7142102006145876
 30
0.0
  0
VERTEX
  5
40D2
  8
0
 10
136.8724296877593929
 20
211.7365149867744094
 30
0.0
  0
VERTEX
  5
40D3
  8
0
 10
136.8785610361217095
 20
211.7586826222899958
 30
0.0
  0
VERTEX
  5
40D4
  8
0
 10
136.8909361602333945
 20
211.8026014807279864
 30
0.0
  0
VERTEX
  5
40D5
  8
0
 10
136.903455872628399
 20
211.8459570410819026
 30
0.0
  0
VERTEX
  5
40D6
  8
0
 10
136.9161136708696063
 20
211.8887398869098035
 30
0.0
  0
VERTEX
  5
40D7
  8
0
 10
136.9289029172527989
 20
211.9309409474871018
 30
0.0
  0
VERTEX
  5
40D8
  8
0
 10
136.9418168470415083
 20
211.9725515234142961
 30
0.0
  0
VERTEX
  5
40D9
  8
0
 10
136.9483184216095992
 20
211.9931327685389135
 30
0.0
  0
VERTEX
  5
40DA
  8
0
 10
136.9548485770824016
 20
212.0135633105944919
 30
0.0
  0
VERTEX
  5
40DB
  8
0
 10
136.9679911147985933
 20
212.0539684226544921
 30
0.0
  0
VERTEX
  5
40DC
  8
0
 10
136.9812373675567869
 20
212.0937594118852019
 30
0.0
  0
VERTEX
  5
40DD
  8
0
 10
136.9945801524127091
 20
212.1329292887778877
 30
0.0
  0
VERTEX
  5
40DE
  8
0
 10
137.0080122062431087
 20
212.1714715402335969
 30
0.0
  0
VERTEX
  5
40DF
  8
0
 10
137.0215751988249906
 20
212.2095160569562893
 30
0.0
  0
VERTEX
  5
40E0
  8
0
 10
137.0284311961059132
 20
212.2284230440021986
 30
0.0
  0
VERTEX
  5
40E1
  8
0
 10
137.0353365997331991
 20
212.2472512229059873
 30
0.0
  0
VERTEX
  5
40E2
  8
0
 10
137.0492941549171064
 20
212.2846635620333871
 30
0.0
  0
VERTEX
  5
40E3
  8
0
 10
137.063444835881711
 20
212.3217380414529885
 30
0.0
  0
VERTEX
  5
40E4
  8
0
 10
137.0777854812511123
 20
212.3584598914816013
 30
0.0
  0
VERTEX
  5
40E5
  8
0
 10
137.0923128043050099
 20
212.3948146248299054
 30
0.0
  0
VERTEX
  5
40E6
  8
0
 10
137.1070234007343061
 20
212.4307880543738918
 30
0.0
  0
VERTEX
  5
40E7
  8
0
 10
137.114446332423114
 20
212.4486274328849049
 30
0.0
  0
VERTEX
  5
40E8
  8
0
 10
137.1219137566164932
 20
212.4663663095641937
 30
0.0
  0
VERTEX
  5
40E9
  8
0
 10
137.1369802566117926
 20
212.5015358515234993
 30
0.0
  0
VERTEX
  5
40EA
  8
0
 10
137.1522191923776859
 20
212.5362834868776929
 30
0.0
  0
VERTEX
  5
40EB
  8
0
 10
137.1599021415071888
 20
212.5534950642473859
 30
0.0
  0
VERTEX
  5
40EC
  8
0
 10
137.1676267712032029
 20
212.5705963803553971
 30
0.0
  0
VERTEX
  5
40ED
  8
0
 10
137.1831991248658937
 20
212.6044620661866134
 30
0.0
  0
VERTEX
  5
40EE
  8
0
 10
137.1989323187098933
 20
212.6378684583229983
 30
0.0
  0
VERTEX
  5
40EF
  8
0
 10
137.2068579852384005
 20
212.6543957484489056
 30
0.0
  0
VERTEX
  5
40F0
  8
0
 10
137.2148223609451065
 20
212.6708038594975108
 30
0.0
  0
VERTEX
  5
40F1
  8
0
 10
137.2308652121687089
 20
212.7032569691311039
 30
0.0
  0
VERTEX
  5
40F2
  8
0
 10
137.2470567951102112
 20
212.7352168900933975
 30
0.0
  0
VERTEX
  5
40F3
  8
0
 10
137.2633930022956861
 20
212.7666731299329967
 30
0.0
  0
VERTEX
  5
40F4
  8
0
 10
137.2798696686000142
 20
212.7976155360867949
 30
0.0
  0
VERTEX
  5
40F5
  8
0
 10
137.2964825319623117
 20
212.8280342186139933
 30
0.0
  0
VERTEX
  5
40F6
  8
0
 10
137.3048386794071121
 20
212.8430441460984071
 30
0.0
  0
VERTEX
  5
40F7
  8
0
 10
137.3132272350894141
 20
212.8579195568995033
 30
0.0
  0
VERTEX
  5
40F8
  8
0
 10
137.3300993327638935
 20
212.8872622160149035
 30
0.0
  0
VERTEX
  5
40F9
  8
0
 10
137.3470942992312018
 20
212.9160531617592085
 30
0.0
  0
VERTEX
  5
40FA
  8
0
 10
137.3642075356723922
 20
212.9442836744412091
 30
0.0
  0
VERTEX
  5
40FB
  8
0
 10
137.3814343777615079
 20
212.9719453614422946
 30
0.0
  0
VERTEX
  5
40FC
  8
0
 10
137.3987701033101985
 20
212.9990301686032126
 30
0.0
  0
VERTEX
  5
40FD
  8
0
 10
137.4074773077772988
 20
213.0123538204094871
 30
0.0
  0
VERTEX
  5
40FE
  8
0
 10
137.416209940000499
 20
213.0255303904654909
 30
0.0
  0
VERTEX
  5
40FF
  8
0
 10
137.4337490732085882
 20
213.0514386793996948
 30
0.0
  0
VERTEX
  5
4100
  8
0
 10
137.4513826539264016
 20
213.0767480536439962
 30
0.0
  0
VERTEX
  5
4101
  8
0
 10
137.4691058067818972
 20
213.1014519042738016
 30
0.0
  0
VERTEX
  5
4102
  8
0
 10
137.4869136381626049
 20
213.1255440011169924
 30
0.0
  0
VERTEX
  5
4103
  8
0
 10
137.5048012444530912
 20
213.1490184976262015
 30
0.0
  0
VERTEX
  5
4104
  8
0
 10
137.5137734301264913
 20
213.1605224245716954
 30
0.0
  0
VERTEX
  5
4105
  8
0
 10
137.5227637203846882
 20
213.1718699347125892
 30
0.0
  0
VERTEX
  5
4106
  8
0
 10
137.5407969098878027
 20
213.194094143793194
 30
0.0
  0
VERTEX
  5
4107
  8
0
 10
137.5588980842481135
 20
213.2156888886306092
 30
0.0
  0
VERTEX
  5
4108
  8
0
 10
137.5770624504729938
 20
213.2366496227610071
 30
0.0
  0
VERTEX
  5
4109
  8
0
 10
137.5952850149427888
 20
213.2569719315116004
 30
0.0
  0
VERTEX
  5
410A
  8
0
 10
137.6135607283335958
 20
213.2766517187727118
 30
0.0
  0
VERTEX
  5
410B
  8
0
 10
137.6227169245194091
 20
213.2862494771790125
 30
0.0
  0
VERTEX
  5
410C
  8
0
 10
137.6318844928943861
 20
213.2956852201508013
 30
0.0
  0
VERTEX
  5
410D
  8
0
 10
137.6502511697486
 20
213.314069014923291
 30
0.0
  0
VERTEX
  5
410E
  8
0
 10
137.6686555862102068
 20
213.3318000368207095
 30
0.0
  0
VERTEX
  5
410F
  8
0
 10
137.733293028210511
 20
213.3886823965711983
 30
0.0
  0
VERTEX
  5
4110
  8
0
 10
137.7888439511947922
 20
213.4309896864585028
 30
0.0
  0
VERTEX
  5
4111
  8
0
 10
137.8443825729686978
 20
213.4673262738643018
 30
0.0
  0
VERTEX
  5
4112
  8
0
 10
137.9548649681678114
 20
213.5221834151737141
 30
0.0
  0
VERTEX
  5
4113
  8
0
 10
138.0636108438424969
 20
213.5537589220942891
 30
0.0
  0
VERTEX
  5
4114
  8
0
 10
138.1169792619261898
 20
213.5611193121989118
 30
0.0
  0
SEQEND
  5
4115
  8
0
  0
POLYLINE
  5
2F35
  8
0
 66
     1
 10
0.0
 20
0.0
 30
0.0
  0
VERTEX
  5
4116
  8
0
 10
138.1169792619261898
 20
213.5611193121989118
 30
0.0
  0
VERTEX
  5
4117
  8
0
 10
138.1304635554967888
 20
213.5621266648805943
 30
0.0
  0
VERTEX
  5
4118
  8
0
 10
138.157529121203595
 20
213.5631056914168084
 30
0.0
  0
VERTEX
  5
4119
  8
0
 10
138.1847084559636016
 20
213.5626814996556107
 30
0.0
  0
VERTEX
  5
411A
  8
0
 10
138.1983349446749969
 20
213.5619353450071003
 30
0.0
  0
VERTEX
  5
411B
  8
0
 10
138.2119828621048043
 20
213.5608292405208033
 30
0.0
  0
VERTEX
  5
411C
  8
0
 10
138.2393336361251102
 20
213.557526284899609
 30
0.0
  0
VERTEX
  5
411D
  8
0
 10
138.2667421305631876
 20
213.552752230089709
 30
0.0
  0
VERTEX
  5
411E
  8
0
 10
138.2941898147282132
 20
213.5464888915284973
 30
0.0
  0
VERTEX
  5
411F
  8
0
 10
138.3216583345079016
 20
213.5387202796711961
 30
0.0
  0
VERTEX
  5
4120
  8
0
 10
138.3491295714310922
 20
213.5294325617335005
 30
0.0
  0
VERTEX
  5
4121
  8
0
 10
138.3628606256274907
 20
213.5242152920640137
 30
0.0
  0
VERTEX
  5
4122
  8
0
 10
138.37658570111671
 20
213.5186140078837127
 30
0.0
  0
VERTEX
  5
4123
  8
0
 10
138.4040092511881994
 20
213.5062549213498926
 30
0.0
  0
VERTEX
  5
4124
  8
0
 10
138.4313831549235942
 20
213.492347553824402
 30
0.0
  0
VERTEX
  5
4125
  8
0
 10
138.4586906686845111
 20
213.4768860855594141
 30
0.0
  0
VERTEX
  5
4126
  8
0
 10
138.4859151291138915
 20
213.4598667414961142
 30
0.0
  0
VERTEX
  5
4127
  8
0
 10
138.5130399436357038
 20
213.4412878308988866
 30
0.0
  0
VERTEX
  5
4128
  8
0
 10
138.5265598321529978
 20
213.4314135791759952
 30
0.0
  0
VERTEX
  5
4129
  8
0
 10
138.5400486484161036
 20
213.4211497439584946
 30
0.0
  0
VERTEX
  5
412A
  8
0
 10
138.5669249646180106
 20
213.3994549345482028
 30
0.0
  0
VERTEX
  5
412B
  8
0
 10
138.5936528528185931
 20
213.3762078891707858
 30
0.0
  0
VERTEX
  5
412C
  8
0
 10
138.6069562025774928
 20
213.3640042250212048
 30
0.0
  0
SEQEND
  5
412D
  8
0
  0
POLYLINE
  5
2F36
  8
0
 66
     1
 10
0.0
 20
0.0
 30
0.0
  0
VERTEX
  5
412E
  8
0
 10
139.0226476675838967
 20
212.732337045379694
 30
0.0
  0
VERTEX
  5
412F
  8
0
 10
139.0327590539359051
 20
212.7096189569984119
 30
0.0
  0
VERTEX
  5
4130
  8
0
 10
139.0527318443627962
 20
212.6634449575601877
 30
0.0
  0
VERTEX
  5
4131
  8
0
 10
139.0723651724520096
 20
212.616314703797002
 30
0.0
  0
VERTEX
  5
4132
  8
0
 10
139.0820522965418036
 20
212.5924016560232985
 30
0.0
  0
VERTEX
  5
4133
  8
0
 10
139.0916519035268095
 20
212.5682625401431096
 30
0.0
  0
VERTEX
  5
4134
  8
0
 10
139.1105852209009015
 20
212.5193242800534108
 30
0.0
  0
VERTEX
  5
4135
  8
0
 10
139.1291586616397922
 20
212.4695371358770899
 30
0.0
  0
VERTEX
  5
4136
  8
0
 10
139.1473661501827053
 20
212.4189396384657016
 30
0.0
  0
VERTEX
  5
4137
  8
0
 10
139.165202029903412
 20
212.3675715462202049
 30
0.0
  0
VERTEX
  5
4138
  8
0
 10
139.1826610926877947
 20
212.3154737431761134
 30
0.0
  0
VERTEX
  5
4139
  8
0
 10
139.1912478196790914
 20
212.2891642564997881
 30
0.0
  0
VERTEX
  5
413A
  8
0
 10
139.1997486407460087
 20
212.2626565613032881
 30
0.0
  0
VERTEX
  5
413B
  8
0
 10
139.2165985078895005
 20
212.2087095996299979
 30
0.0
  0
VERTEX
  5
413C
  8
0
 10
139.2332417220167997
 20
212.1535073736596928
 30
0.0
  0
VERTEX
  5
413D
  8
0
 10
139.249663021624599
 20
212.0970680543537128
 30
0.0
  0
VERTEX
  5
413E
  8
0
 10
139.2658475643889062
 20
212.0394116235387969
 30
0.0
  0
VERTEX
  5
413F
  8
0
 10
139.2817809643817952
 20
211.9805597627193947
 30
0.0
  0
VERTEX
  5
4140
  8
0
 10
139.2896491233964014
 20
211.9506927564505929
 30
0.0
  0
VERTEX
  5
4141
  8
0
 10
139.2974493257729023
 20
211.9205357308954092
 30
0.0
  0
VERTEX
  5
4142
  8
0
 10
139.3128392731211989
 20
211.8593642307914138
 30
0.0
  0
VERTEX
  5
4143
  8
0
 10
139.3279379783176921
 20
211.7970712629245895
 30
0.0
  0
VERTEX
  5
4144
  8
0
 10
139.3353742618602951
 20
211.7655126698363119
 30
0.0
  0
VERTEX
  5
4145
  8
0
 10
139.3427331841735111
 20
211.7336839669686128
 30
0.0
  0
VERTEX
  5
4146
  8
0
 10
139.357213224606312
 20
211.6692304499208035
 30
0.0
  0
VERTEX
  5
4147
  8
0
 10
139.3713670413148975
 20
211.6037396006724123
 30
0.0
  0
VERTEX
  5
4148
  8
0
 10
139.3783183275027113
 20
211.5706143790106069
 30
0.0
  0
VERTEX
  5
4149
  8
0
 10
139.3851841766544908
 20
211.5372409895227008
 30
0.0
  0
VERTEX
  5
414A
  8
0
 10
139.3986546402925057
 20
211.4697654034150958
 30
0.0
  0
VERTEX
  5
414B
  8
0
 10
139.4117688319670094
 20
211.4013452333047098
 30
0.0
  0
VERTEX
  5
414C
  8
0
 10
139.4245175708246904
 20
211.3320143771233859
 30
0.0
  0
VERTEX
  5
414D
  8
0
 10
139.43689212732599
 20
211.2618081050009948
 30
0.0
  0
VERTEX
  5
414E
  8
0
 10
139.4488842512278097
 20
211.1907629164780076
 30
0.0
  0
VERTEX
  5
414F
  8
0
 10
139.4547344598302061
 20
211.154937433837091
 30
0.0
  0
VERTEX
  5
4150
  8
0
 10
139.4604861957274977
 20
211.1189163894376009
 30
0.0
  0
VERTEX
  5
4151
  8
0
 10
139.4716907378142139
 20
211.0463070204791052
 30
0.0
  0
VERTEX
  5
4152
  8
0
 10
139.4824911948412023
 20
210.9729740564501981
 30
0.0
  0
VERTEX
  5
4153
  8
0
 10
139.4928814373002126
 20
210.8989573168751122
 30
0.0
  0
VERTEX
  5
4154
  8
0
 10
139.5028558977373905
 20
210.8242970070355113
 30
0.0
  0
VERTEX
  5
4155
  8
0
 10
139.5124108032096046
 20
210.7490235942042034
 30
0.0
  0
VERTEX
  5
4156
  8
0
 10
139.5170300769430014
 20
210.7111644310647023
 30
0.0
  0
VERTEX
  5
4157
  8
0
 10
139.5215431242953912
 20
210.6731638274013108
 30
0.0
  0
VERTEX
  5
4158
  8
0
 10
139.5302483640232083
 20
210.596759478214409
 30
0.0
  0
VERTEX
  5
4159
  8
0
 10
139.5385224502132928
 20
210.5198536455287979
 30
0.0
  0
VERTEX
  5
415A
  8
0
 10
139.5463617777710965
 20
210.4424905006335109
 30
0.0
  0
VERTEX
  5
415B
  8
0
 10
139.5537632339029983
 20
210.3647151248997034
 30
0.0
  0
VERTEX
  5
415C
  8
0
 10
139.5607242191103978
 20
210.2865733419108096
 30
0.0
  0
VERTEX
  5
415D
  8
0
 10
139.5640388673521102
 20
210.2473795279312014
 30
0.0
  0
VERTEX
  5
415E
  8
0
 10
139.5672426640070967
 20
210.208111543946103
 30
0.0
  0
VERTEX
  5
415F
  8
0
 10
139.57331704198441
 20
210.1293765126586948
 30
0.0
  0
VERTEX
  5
4160
  8
0
 10
139.578946377725913
 20
210.050415233762692
 30
0.0
  0
VERTEX
  5
4161
  8
0
 10
139.5841302515281939
 20
209.9712747054998943
 30
0.0
  0
VERTEX
  5
4162
  8
0
 10
139.5888687986121113
 20
209.8920017540218907
 30
0.0
  0
VERTEX
  5
4163
  8
0
 10
139.5931626804145083
 20
209.8126433122857861
 30
0.0
  0
VERTEX
  5
4164
  8
0
 10
139.59514321056119
 20
209.7729469490460019
 30
0.0
  0
VERTEX
  5
4165
  8
0
 10
139.5970130425135096
 20
209.7332472409323998
 30
0.0
  0
VERTEX
  5
4166
  8
0
 10
139.6004215329153055
 20
209.653862368109003
 30
0.0
  0
VERTEX
  5
4167
  8
0
 10
139.6033903306206128
 20
209.5745383016117103
 30
0.0
  0
VERTEX
  5
4168
  8
0
 10
139.6059221691953098
 20
209.4953252384017048
 30
0.0
  0
VERTEX
  5
4169
  8
0
 10
139.6080203554047046
 20
209.4162737725453098
 30
0.0
  0
VERTEX
  5
416A
  8
0
 10
139.6096887830055948
 20
209.3374347015956971
 30
0.0
  0
VERTEX
  5
416B
  8
0
 10
139.6103632169464959
 20
209.2981106960635032
 30
0.0
  0
VERTEX
  5
416C
  8
0
 10
139.6109319417560073
 20
209.2588588312929971
 30
0.0
  0
VERTEX
  5
416D
  8
0
 10
139.611754921684593
 20
209.1805967783230074
 30
0.0
  0
VERTEX
  5
416E
  8
0
 10
139.6121634126118067
 20
209.1026987707500098
 30
0.0
  0
VERTEX
  5
416F
  8
0
 10
139.612214165576404
 20
209.0639018242511895
 30
0.0
  0
VERTEX
  5
4170
  8
0
 10
139.6121634126118067
 20
209.0251048777523977
 30
0.0
  0
VERTEX
  5
4171
  8
0
 10
139.6117549216851046
 20
208.9472068701792864
 30
0.0
  0
VERTEX
  5
4172
  8
0
 10
139.6109319417560073
 20
208.8689448172094956
 30
0.0
  0
VERTEX
  5
4173
  8
0
 10
139.6103632169470075
 20
208.8296929524389896
 30
0.0
  0
VERTEX
  5
4174
  8
0
 10
139.6096887830057938
 20
208.7903689469067103
 30
0.0
  0
VERTEX
  5
4175
  8
0
 10
139.6080203554051877
 20
208.7115298759572113
 30
0.0
  0
VERTEX
  5
4176
  8
0
 10
139.6059221691955088
 20
208.6324784101007879
 30
0.0
  0
VERTEX
  5
4177
  8
0
 10
139.6033903306210959
 20
208.5532653468908109
 30
0.0
  0
VERTEX
  5
4178
  8
0
 10
139.6004215329157887
 20
208.4739412803936887
 30
0.0
  0
VERTEX
  5
4179
  8
0
 10
139.5970130425139075
 20
208.3945564075700929
 30
0.0
  0
VERTEX
  5
417A
  8
0
 10
139.5951432105617016
 20
208.3548566994566045
 30
0.0
  0
VERTEX
  5
417B
  8
0
 10
139.5931626804149062
 20
208.3151603362167918
 30
0.0
  0
VERTEX
  5
417C
  8
0
 10
139.5888687986125092
 20
208.2358018944808009
 30
0.0
  0
VERTEX
  5
417D
  8
0
 10
139.5841302515291034
 20
208.1565289430027121
 30
0.0
  0
VERTEX
  5
417E
  8
0
 10
139.578946377726794
 20
208.077388414739886
 30
0.0
  0
VERTEX
  5
417F
  8
0
 10
139.5733170419852911
 20
207.9984271358437979
 30
0.0
  0
VERTEX
  5
4180
  8
0
 10
139.5672426640080062
 20
207.9196921045563897
 30
0.0
  0
VERTEX
  5
4181
  8
0
 10
139.5640388673531902
 20
207.880424120571206
 30
0.0
  0
VERTEX
  5
4182
  8
0
 10
139.5607242191117052
 20
207.8412303065915125
 30
0.0
  0
VERTEX
  5
4183
  8
0
 10
139.553763233904192
 20
207.7630885236027041
 30
0.0
  0
VERTEX
  5
4184
  8
0
 10
139.5463617777722902
 20
207.6853131478688113
 30
0.0
  0
VERTEX
  5
4185
  8
0
 10
139.5385224502147139
 20
207.6079500029734106
 30
0.0
  0
VERTEX
  5
4186
  8
0
 10
139.5302483640247999
 20
207.5310441702877995
 30
0.0
  0
VERTEX
  5
4187
  8
0
 10
139.5215431242972954
 20
207.4546398211006988
 30
0.0
  0
VERTEX
  5
4188
  8
0
 10
139.517030076944593
 20
207.4166392174371936
 30
0.0
  0
VERTEX
  5
4189
  8
0
 10
139.5124108032113952
 20
207.3787800542976925
 30
0.0
  0
VERTEX
  5
418A
  8
0
 10
139.5028558977392095
 20
207.3035066414662992
 30
0.0
  0
VERTEX
  5
418B
  8
0
 10
139.4928814373020032
 20
207.2288463316266984
 30
0.0
  0
VERTEX
  5
418C
  8
0
 10
139.4824911948431065
 20
207.1548295920512999
 30
0.0
  0
VERTEX
  5
418D
  8
0
 10
139.4716907378160045
 20
207.0814966280225065
 30
0.0
  0
VERTEX
  5
418E
  8
0
 10
139.4604861957294872
 20
207.0088872590636981
 30
0.0
  0
VERTEX
  5
418F
  8
0
 10
139.4547344598321956
 20
206.972866214664208
 30
0.0
  0
VERTEX
  5
4190
  8
0
 10
139.4488842512299982
 20
206.9370407320232061
 30
0.0
  0
VERTEX
  5
4191
  8
0
 10
139.436892127328008
 20
206.8659955435001052
 30
0.0
  0
VERTEX
  5
4192
  8
0
 10
139.4245175708269926
 20
206.7957892713776005
 30
0.0
  0
VERTEX
  5
4193
  8
0
 10
139.4117688319693116
 20
206.7264584151959923
 30
0.0
  0
VERTEX
  5
4194
  8
0
 10
139.3986546402948079
 20
206.6580382450854927
 30
0.0
  0
VERTEX
  5
4195
  8
0
 10
139.3851841766573045
 20
206.5905626589776887
 30
0.0
  0
VERTEX
  5
4196
  8
0
 10
139.3783183275052124
 20
206.5571892694896974
 30
0.0
  0
VERTEX
  5
4197
  8
0
 10
139.3713670413175976
 20
206.524064047827892
 30
0.0
  0
VERTEX
  5
4198
  8
0
 10
139.3572132246088131
 20
206.4585731985793018
 30
0.0
  0
VERTEX
  5
4199
  8
0
 10
139.3427331841762111
 20
206.3941196815310946
 30
0.0
  0
VERTEX
  5
419A
  8
0
 10
139.3353742618627962
 20
206.3622909786635091
 30
0.0
  0
VERTEX
  5
419B
  8
0
 10
139.3279379783203069
 20
206.3307323855750894
 30
0.0
  0
VERTEX
  5
419C
  8
0
 10
139.3128392731238989
 20
206.2684394177080947
 30
0.0
  0
VERTEX
  5
419D
  8
0
 10
139.2974493257756876
 20
206.2072679176039003
 30
0.0
  0
VERTEX
  5
419E
  8
0
 10
139.2896491233991014
 20
206.1771108920484892
 30
0.0
  0
VERTEX
  5
419F
  8
0
 10
139.2817809643846942
 20
206.1472438857796021
 30
0.0
  0
VERTEX
  5
41A0
  8
0
 10
139.2658475643916063
 20
206.088392024960001
 30
0.0
  0
VERTEX
  5
41A1
  8
0
 10
139.2496630216274127
 20
206.0307355941448861
 30
0.0
  0
VERTEX
  5
41A2
  8
0
 10
139.2332417220194998
 20
205.9742962748387072
 30
0.0
  0
VERTEX
  5
41A3
  8
0
 10
139.2165985078927122
 20
205.9190940488682031
 30
0.0
  0
VERTEX
  5
41A4
  8
0
 10
139.199748640748993
 20
205.865147087194714
 30
0.0
  0
VERTEX
  5
41A5
  8
0
 10
139.1912478196821041
 20
205.8386393919981003
 30
0.0
  0
VERTEX
  5
41A6
  8
0
 10
139.1826610926904948
 20
205.8123299053216897
 30
0.0
  0
VERTEX
  5
41A7
  8
0
 10
139.1652020299065953
 20
205.7602321022773992
 30
0.0
  0
VERTEX
  5
41A8
  8
0
 10
139.1473661501860875
 20
205.7088640100317889
 30
0.0
  0
VERTEX
  5
41A9
  8
0
 10
139.1291586616432028
 20
205.6582665126204006
 30
0.0
  0
VERTEX
  5
41AA
  8
0
 10
139.1105852209043121
 20
205.6084793684439092
 30
0.0
  0
VERTEX
  5
41AB
  8
0
 10
139.0916519035301917
 20
205.5595411083540114
 30
0.0
  0
VERTEX
  5
41AC
  8
0
 10
139.0820522965449868
 20
205.5354019924737088
 30
0.0
  0
VERTEX
  5
41AD
  8
0
 10
139.0723651724555907
 20
205.5114889447000053
 30
0.0
  0
VERTEX
  5
41AE
  8
0
 10
139.0527318443662068
 20
205.4643586909365922
 30
0.0
  0
VERTEX
  5
41AF
  8
0
 10
139.0327590539394862
 20
205.4181846914981975
 30
0.0
  0
VERTEX
  5
41B0
  8
0
 10
139.0226476675875062
 20
205.3954666031168017
 30
0.0
  0
SEQEND
  5
41B1
  8
0
  0
POLYLINE
  5
2F37
  8
0
 66
     1
 10
0.0
 20
0.0
 30
0.0
  0
VERTEX
  5
41B2
  8
0
 10
138.6069562025768107
 20
204.7637994234667076
 30
0.0
  0
VERTEX
  5
41B3
  8
0
 10
138.5936528528258975
 20
204.7515957593238909
 30
0.0
  0
VERTEX
  5
41B4
  8
0
 10
138.5669249646402932
 20
204.7283487139590932
 30
0.0
  0
VERTEX
  5
41B5
  8
0
 10
138.5400486484543023
 20
204.706653904559488
 30
0.0
  0
VERTEX
  5
41B6
  8
0
 10
138.5265598321988989
 20
204.6963900693467906
 30
0.0
  0
VERTEX
  5
41B7
  8
0
 10
138.5130399436893072
 20
204.6865158176281909
 30
0.0
  0
VERTEX
  5
41B8
  8
0
 10
138.4859151291836952
 20
204.6679369070382108
 30
0.0
  0
VERTEX
  5
41B9
  8
0
 10
138.4586906687704868
 20
204.6509175629801121
 30
0.0
  0
VERTEX
  5
41BA
  8
0
 10
138.4313831550252871
 20
204.6354560947187053
 30
0.0
  0
VERTEX
  5
41BB
  8
0
 10
138.4040092513060074
 20
204.6215487271950906
 30
0.0
  0
VERTEX
  5
41BC
  8
0
 10
138.3765857012504057
 20
204.6091896406612989
 30
0.0
  0
VERTEX
  5
41BD
  8
0
 10
138.3628606257690876
 20
204.603588356480202
 30
0.0
  0
VERTEX
  5
41BE
  8
0
 10
138.3491295715807041
 20
204.5983710868096921
 30
0.0
  0
VERTEX
  5
41BF
  8
0
 10
138.3216583346734012
 20
204.5890833688685859
 30
0.0
  0
VERTEX
  5
41C0
  8
0
 10
138.2941898149097142
 20
204.5813147570063961
 30
0.0
  0
VERTEX
  5
41C1
  8
0
 10
138.2667421307600932
 20
204.5750514184383917
 30
0.0
  0
VERTEX
  5
41C2
  8
0
 10
138.2393336363375056
 20
204.5702773636201073
 30
0.0
  0
VERTEX
  5
41C3
  8
0
 10
138.2119828623324054
 20
204.5669744079891927
 30
0.0
  0
VERTEX
  5
41C4
  8
0
 10
138.1983349449101013
 20
204.5658683034972967
 30
0.0
  0
VERTEX
  5
41C5
  8
0
 10
138.1847084562058967
 20
204.5651221488429883
 30
0.0
  0
VERTEX
  5
41C6
  8
0
 10
138.1575291214608114
 20
204.5646979570690007
 30
0.0
  0
VERTEX
  5
41C7
  8
0
 10
138.1304635557685003
 20
204.5656769835910893
 30
0.0
  0
VERTEX
  5
41C8
  8
0
 10
138.1169792622048931
 20
204.566684336265098
 30
0.0
  0
SEQEND
  5
41C9
  8
0
  0
POLYLINE
  5
2F38
  8
0
 66
     1
 10
0.0
 20
0.0
 30
0.0
  0
VERTEX
  5
41CA
  8
0
 10
138.1169792622048931
 20
204.566684336265098
 30
0.0
  0
VERTEX
  5
41CB
  8
0
 10
138.0636126208073051
 20
204.574044391914498
 30
0.0
  0
VERTEX
  5
41CC
  8
0
 10
137.9549159972004873
 20
204.6056002109797021
 30
0.0
  0
VERTEX
  5
41CD
  8
0
 10
137.8445251320981129
 20
204.6603916979665883
 30
0.0
  0
VERTEX
  5
41CE
  8
0
 10
137.7890414007111133
 20
204.6966742777489969
 30
0.0
  0
VERTEX
  5
41CF
  8
0
 10
137.7335477913698014
 20
204.7389134578475876
 30
0.0
  0
VERTEX
  5
41D0
  8
0
 10
137.6689764079121971
 20
204.7957006204779873
 30
0.0
  0
VERTEX
  5
41D1
  8
0
 10
137.6505901309417084
 20
204.8134018460347932
 30
0.0
  0
VERTEX
  5
41D2
  8
0
 10
137.632241090272089
 20
204.8317549041200891
 30
0.0
  0
VERTEX
  5
41D3
  8
0
 10
137.6230821225595093
 20
204.8411749676803879
 30
0.0
  0
VERTEX
  5
41D4
  8
0
 10
137.6139343672159043
 20
204.8507568627248929
 30
0.0
  0
VERTEX
  5
41D5
  8
0
 10
137.5956750128291048
 20
204.8704044452778987
 30
0.0
  0
VERTEX
  5
41D6
  8
0
 10
137.5774680408630957
 20
204.8906940407372019
 30
0.0
  0
VERTEX
  5
41D7
  8
0
 10
137.5593184207428123
 20
204.9116217147924033
 30
0.0
  0
VERTEX
  5
41D8
  8
0
 10
137.5412310705673917
 20
204.9331832222032972
 30
0.0
  0
VERTEX
  5
41D9
  8
0
 10
137.5232108501326991
 20
204.9553740203078007
 30
0.0
  0
VERTEX
  5
41DA
  8
0
 10
137.51422726494431
 20
204.9667040962953877
 30
0.0
  0
VERTEX
  5
41DB
  8
0
 10
137.5052615486341949
 20
204.9781905818067003
 30
0.0
  0
VERTEX
  5
41DC
  8
0
 10
137.4873859615995002
 20
205.0016305016831097
 30
0.0
  0
VERTEX
  5
41DD
  8
0
 10
137.4695888391374865
 20
205.0256886511176049
 30
0.0
  0
VERTEX
  5
41DE
  8
0
 10
137.4518749872999877
 20
205.0503594597977042
 30
0.0
  0
VERTEX
  5
41DF
  8
0
 10
137.4342492065702004
 20
205.0756369859714994
 30
0.0
  0
VERTEX
  5
41E0
  8
0
 10
137.4167162838693912
 20
205.1015149206718888
 30
0.0
  0
VERTEX
  5
41E1
  8
0
 10
137.4079861345421136
 20
205.1146769705221118
 30
0.0
  0
VERTEX
  5
41E2
  8
0
 10
137.399280984673112
 20
205.1279865929409993
 30
0.0
  0
VERTEX
  5
41E3
  8
0
 10
137.3819480452285973
 20
205.155044976060708
 30
0.0
  0
VERTEX
  5
41E4
  8
0
 10
137.3647221648743084
 20
205.1826826948042992
 30
0.0
  0
VERTEX
  5
41E5
  8
0
 10
137.3476079984511102
 20
205.2108920337200004
 30
0.0
  0
VERTEX
  5
41E6
  8
0
 10
137.3306101488080913
 20
205.2396649464735106
 30
0.0
  0
VERTEX
  5
41E7
  8
0
 10
137.3137331593956958
 20
205.2689930662685924
 30
0.0
  0
VERTEX
  5
41E8
  8
0
 10
137.305341389060203
 20
205.2838626293716118
 30
0.0
  0
VERTEX
  5
41E9
  8
0
 10
137.2969815069490949
 20
205.2988677173802046
 30
0.0
  0
VERTEX
  5
41EA
  8
0
 10
137.2803595942546053
 20
205.3292799278297025
 30
0.0
  0
VERTEX
  5
41EB
  8
0
 10
137.2638717430062911
 20
205.3602204432426106
 30
0.0
  0
VERTEX
  5
41EC
  8
0
 10
137.2475221867476023
 20
205.3916797419300053
 30
0.0
  0
VERTEX
  5
41ED
  8
0
 10
137.2313150639328967
 20
205.4236480511779916
 30
0.0
  0
VERTEX
  5
41EE
  8
0
 10
137.2152544235846108
 20
205.4561153392673987
 30
0.0
  0
VERTEX
  5
41EF
  8
0
 10
137.2072802869483894
 20
205.4725328707326071
 30
0.0
  0
VERTEX
  5
41F0
  8
0
 10
137.1993442705843051
 20
205.4890712221871922
 30
0.0
  0
VERTEX
  5
41F1
  8
0
 10
137.183588579383013
 20
205.5225049237278938
 30
0.0
  0
VERTEX
  5
41F2
  8
0
 10
137.1679912849355958
 20
205.5564052802162962
 30
0.0
  0
VERTEX
  5
41F3
  8
0
 10
137.1602532530569079
 20
205.5735268611348943
 30
0.0
  0
VERTEX
  5
41F4
  8
0
 10
137.1525562733260983
 20
205.5907607473698135
 30
0.0
  0
VERTEX
  5
41F5
  8
0
 10
137.1372873726068065
 20
205.6255594082618074
 30
0.0
  0
VERTEX
  5
41F6
  8
0
 10
137.1221883438481086
 20
205.6607889824022948
 30
0.0
  0
VERTEX
  5
41F7
  8
0
 10
137.1147036863181086
 20
205.678561427364599
 30
0.0
  0
VERTEX
  5
41F8
  8
0
 10
137.1072628723995876
 20
205.6964368359456898
 30
0.0
  0
VERTEX
  5
41F9
  8
0
 10
137.0925145593652985
 20
205.7324899930403888
 30
0.0
  0
VERTEX
  5
41FA
  8
0
 10
137.0779469132922088
 20
205.7689351483462872
 30
0.0
  0
VERTEX
  5
41FB
  8
0
 10
137.0635633420702106
 20
205.8057586807456119
 30
0.0
  0
VERTEX
  5
41FC
  8
0
 10
137.0493671450475972
 20
205.8429466682866007
 30
0.0
  0
VERTEX
  5
41FD
  8
0
 10
137.0353615053612941
 20
205.8804849043966101
 30
0.0
  0
VERTEX
  5
41FE
  8
0
 10
137.0284311056333877
 20
205.8993808525729889
 30
0.0
  0
VERTEX
  5
41FF
  8
0
 10
137.0215494824805944
 20
205.9183589154195886
 30
0.0
  0
VERTEX
  5
4200
  8
0
 10
137.0079340049732934
 20
205.9565539795272002
 30
0.0
  0
VERTEX
  5
4201
  8
0
 10
136.9945169156428051
 20
205.9950578982355012
 30
0.0
  0
VERTEX
  5
4202
  8
0
 10
136.9812293890373951
 20
206.0340679289257935
 30
0.0
  0
VERTEX
  5
4203
  8
0
 10
136.968032937602203
 20
206.0737081377494064
 30
0.0
  0
VERTEX
  5
4204
  8
0
 10
136.9549349734691077
 20
206.1139716322552999
 30
0.0
  0
VERTEX
  5
4205
  8
0
 10
136.94842521707929
 20
206.1343348241026092
 30
0.0
  0
VERTEX
  5
4206
  8
0
 10
136.9419428223108923
 20
206.1548510331132036
 30
0.0
  0
VERTEX
  5
4207
  8
0
 10
136.9290637128937931
 20
206.1963384932720089
 30
0.0
  0
VERTEX
  5
4208
  8
0
 10
136.9163047670363085
 20
206.2384257185071874
 30
0.0
  0
VERTEX
  5
4209
  8
0
 10
136.9036729899671059
 20
206.2811039894423004
 30
0.0
  0
VERTEX
  5
420A
  8
0
 10
136.8911752610783878
 20
206.3243641851263988
 30
0.0
  0
VERTEX
  5
420B
  8
0
 10
136.8788183250754003
 20
206.3681968082499054
 30
0.0
  0
VERTEX
  5
420C
  8
0
 10
136.8726947232109978
 20
206.3903247158743
 30
0.0
  0
VERTEX
  5
420D
  8
0
 10
136.8666087835308076
 20
206.4125920120820865
 30
0.0
  0
VERTEX
  5
420E
  8
0
 10
136.8545530868572939
 20
206.4575396292057974
 30
0.0
  0
VERTEX
  5
420F
  8
0
 10
136.8426575267143903
 20
206.5030292021286016
 30
0.0
  0
VERTEX
  5
4210
  8
0
 10
136.830928228872807
 20
206.5490500158410896
 30
0.0
  0
VERTEX
  5
4211
  8
0
 10
136.8193711465654872
 20
206.5955911323906946
 30
0.0
  0
VERTEX
  5
4212
  8
0
 10
136.8079920543549974
 20
206.6426414275302079
 30
0.0
  0
VERTEX
  5
4213
  8
0
 10
136.8023710092552108
 20
206.6663539975758113
 30
0.0
  0
VERTEX
  5
4214
  8
0
 10
136.7967965474072116
 20
206.690189608631897
 30
0.0
  0
VERTEX
  5
4215
  8
0
 10
136.7857900778134876
 20
206.7382240699996885
 30
0.0
  0
VERTEX
  5
4216
  8
0
 10
136.7749779807361108
 20
206.7867327682484131
 30
0.0
  0
VERTEX
  5
4217
  8
0
 10
136.7643654662628876
 20
206.8357032357245942
 30
0.0
  0
VERTEX
  5
4218
  8
0
 10
136.7539576092248979
 20
206.8851226057155088
 30
0.0
  0
VERTEX
  5
4219
  8
0
 10
136.7437593395997908
 20
206.9349776387992961
 30
0.0
  0
VERTEX
  5
421A
  8
0
 10
136.7387402988483984
 20
206.960064296522404
 30
0.0
  0
VERTEX
  5
421B
  8
0
 10
136.7337754335061959
 20
206.98525475039051
 30
0.0
  0
VERTEX
  5
421C
  8
0
 10
136.7240105047906127
 20
207.0359400395325906
 30
0.0
  0
VERTEX
  5
421D
  8
0
 10
136.7144689972141975
 20
207.0870193189911106
 30
0.0
  0
VERTEX
  5
421E
  8
0
 10
136.7097833667376108
 20
207.1127022010090002
 30
0.0
  0
VERTEX
  5
421F
  8
0
 10
136.7051551772588027
 20
207.1384781466994127
 30
0.0
  0
VERTEX
  5
4220
  8
0
 10
136.6960731275621015
 20
207.1903018586114911
 30
0.0
  0
VERTEX
  5
4221
  8
0
 10
136.6872267410003019
 20
207.2424756030090123
 30
0.0
  0
VERTEX
  5
4222
  8
0
 10
136.6828930847264019
 20
207.2686890536922135
 30
0.0
  0
VERTEX
  5
4223
  8
0
 10
136.6786197154451088
 20
207.2949843763115894
 30
0.0
  0
VERTEX
  5
4224
  8
0
 10
136.6702555492167903
 20
207.3478130604358114
 30
0.0
  0
VERTEX
  5
4225
  8
0
 10
136.6621375370559122
 20
207.4009464631186859
 30
0.0
  0
VERTEX
  5
4226
  8
0
 10
136.6542678533058108
 20
207.4543756795536922
 30
0.0
  0
VERTEX
  5
4227
  8
0
 10
136.6466486882023048
 20
207.5080911843992055
 30
0.0
  0
VERTEX
  5
4228
  8
0
 10
136.6392829988157871
 20
207.5620771038558985
 30
0.0
  0
VERTEX
  5
4229
  8
0
 10
136.6356960841843886
 20
207.5891664181563101
 30
0.0
  0
VERTEX
  5
422A
  8
0
 10
136.6321735679254914
 20
207.6163172369352878
 30
0.0
  0
VERTEX
  5
422B
  8
0
 10
136.6253229953968003
 20
207.6707950878426061
 30
0.0
  0
VERTEX
  5
422C
  8
0
 10
136.6187336903510072
 20
207.7254938992986979
 30
0.0
  0
VERTEX
  5
422D
  8
0
 10
136.6124078641377935
 20
207.7803966868208079
 30
0.0
  0
VERTEX
  5
422E
  8
0
 10
136.6063475241134881
 20
207.8354862739888063
 30
0.0
  0
VERTEX
  5
422F
  8
0
 10
136.60055446824299
 20
207.8907453287245914
 30
0.0
  0
VERTEX
  5
4230
  8
0
 10
136.5977586753332957
 20
207.9184329567567886
 30
0.0
  0
VERTEX
  5
4231
  8
0
 10
136.5950302805345018
 20
207.946156400616502
 30
0.0
  0
VERTEX
  5
4232
  8
0
 10
136.5897763273237047
 20
208.0017019593153123
 30
0.0
  0
VERTEX
  5
4233
  8
0
 10
136.5847937544232877
 20
208.0573644340406076
 30
0.0
  0
VERTEX
  5
4234
  8
0
 10
136.5824045328554064
 20
208.0852340229668869
 30
0.0
  0
SEQEND
  5
4235
  8
0
  0
LINE
  5
2F39
  8
0
 10
114.522773059584793
 20
213.7639018242443001
 30
0.0
 11
114.522773059584793
 21
204.3639018242442091
 31
0.0
  0
LINE
  5
2F3A
  8
0
 10
139.0227730595848072
 20
213.3639018242442091
 30
0.0
 11
139.0227730595848072
 21
204.7639018242443001
 31
0.0
  0
LINE
  5
2F3B
  8
0
 10
114.8227730595849039
 20
214.0639018242441978
 30
0.0
 11
114.8227730595849039
 21
204.0639018242441978
 31
0.0
  0
LINE
  5
2F3C
  8
1
 10
148.3898144786010107
 20
209.0639018242441978
 30
0.0
 11
84.2227730595850517
 21
209.0639018242443115
 31
0.0
  0
LINE
  5
2F3D
  8
3
 10
95.2227730595848243
 20
126.6849018242439939
 30
0.0
 11
97.2227730595848243
 21
126.6849018242439939
 31
0.0
  0
LINE
  5
2F3E
  8
3
 10
95.2227730595848243
 20
123.4429018242440037
 30
0.0
 11
97.2227730595848243
 21
123.4429018242440037
 31
0.0
  0
LINE
  5
2F3F
  8
0
 10
108.7227730595847959
 20
136.0639018242441125
 30
0.0
 11
104.2227730595847959
 21
136.0639018242441125
 31
0.0
  0
ARC
  5
2F40
  8
0
 10
108.7227730595847959
 20
138.0639018242439988
 30
0.0
 40
2.0
 50
270.0
 51
90.0
  0
LINE
  5
2F41
  8
0
 10
102.9673357061227961
 20
140.0639018242441125
 30
0.0
 11
108.7227730595847959
 21
140.0639018242439988
 31
0.0
  0
ARC
  5
2F42
  8
0
 10
97.2227730595848243
 20
136.0639018242441125
 30
0.0
 40
7.0000000000000027
 50
34.8499045790460329
 51
253.3984504009837053
  0
ARC
  5
2F43
  8
0
 10
97.2227730595848243
 20
136.0639018242441125
 30
0.0
 40
7.0
 50
270.0
 51
0.0
  0
LINE
  5
2F44
  8
2
 10
90.2227730595848243
 20
216.2639018242441011
 30
0.0
 11
90.2227730595848243
 21
201.8639018242440955
 31
0.0
  0
LINE
  5
2F45
  8
2
 10
104.2227730595847959
 20
216.2639018242441011
 30
0.0
 11
104.2227730595847959
 21
201.8639018242440955
 31
0.0
  0
LINE
  5
2F46
  8
1
 10
87.2227730595848243
 20
136.0639018242441125
 30
0.0
 11
107.2227730595847959
 21
136.0639018242441125
 31
0.0
  0
LINE
  5
345A
  8
0
 10
98.7227730807624226
 20
120.563901874412295
 30
0.0
 11
100.5409049788631961
 21
120.563901874412295
 31
0.0
  0
ARC
  5
345B
  8
0
 10
97.2227730595848243
 20
175.5639019191121974
 30
0.0
 40
55.1000002985417581
 50
273.4524510955047845
 51
285.7971452799937992
  0
LINE
  5
345C
  8
0
 10
112.2227728056077041
 20
122.5449423479958995
 30
0.0
 11
112.2227728056077041
 21
127.3139016204350042
 31
0.0
  0
LINE
  5
345D
  8
0
 10
98.7227730807624226
 20
127.3139016204350042
 30
0.0
 11
112.2227728056077041
 21
127.3139016204350042
 31
0.0
  0
LINE
  5
345E
  8
0
 10
98.7227730807624226
 20
127.3139016204350042
 30
0.0
 11
98.7227730807624226
 21
120.563901874412295
 31
0.0
  0
ARC
  5
345F
  8
0
 10
97.2227730595848243
 20
175.5639019191121974
 30
0.0
 40
55.100000298541751
 50
254.2028547200060871
 51
266.358070229004511
  0
LINE
  5
3460
  8
0
 10
93.722772932521579
 20
120.5751755342733986
 30
0.0
 11
93.722772932521579
 21
127.3139016204350042
 31
0.0
  0
LINE
  5
3461
  8
0
 10
93.722772932521579
 20
127.3139016204350042
 30
0.0
 11
82.2227733135623566
 21
127.3139016204350042
 31
0.0
  0
LINE
  5
3462
  8
0
 10
82.2227733135623566
 20
127.3139016204350042
 30
0.0
 11
82.2227733135623566
 21
122.5449423479958995
 31
0.0
  0
LINE
  5
3463
  8
0
 10
86.2227730595850517
 20
125.0639017051441044
 30
0.0
 11
82.2227733135623566
 21
125.0639017051441044
 31
0.0
  0
LINE
  5
3465
  8
0
 10
85.2227728901666524
 20
121.7864900361174989
 30
0.0
 11
85.2227728901666524
 21
127.3139016204350042
 31
0.0
  0
LINE
  5
3468
  8
0
 10
86.2227730595850517
 20
127.3139016204350042
 30
0.0
 11
86.2227730595850517
 21
121.5730690592711056
 31
0.0
  0
TEXT
  5
3594
  8
0
 62
     3
 10
0.0
 20
0.0
 30
0.0
 40
10.0
  1
SKPZN04-14
  7
STANDARD1
  0
CIRCLE
  5
35B9
  8
0
 10
97.2227730595848243
 20
158.0639018242441125
 30
0.0
 40
3.1000000000000001
  0
ENDSEC
  0
EOF
