  0
SECTION
  2
HEADER
  9
$ACADVER
  1
AC1009
  9
$INSBASE
 10
0.0
 20
0.0
 30
0.0
  9
$EXTMIN
 10
0.0
 20
-2.960436562073669
 30
0.0
  9
$EXTMAX
 10
197.1396912511974904
 20
212.3932817350248001
 30
0.0
  9
$LIMMIN
 10
0.0
 20
0.0
  9
$LIMMAX
 10
375.0
 20
270.0
  9
$ORTHOMODE
 70
     1
  9
$REGENMODE
 70
     1
  9
$FILLMODE
 70
     1
  9
$QTEXTMODE
 70
     0
  9
$MIRRTEXT
 70
     0
  9
$DRAGMODE
 70
     2
  9
$LTSCALE
 40
10.0
  9
$OSMODE
 70
    37
  9
$ATTMODE
 70
     1
  9
$TEXTSIZE
 40
4.000000000000048
  9
$TRACEWID
 40
0.05
  9
$TEXTSTYLE
  7
STANDARD
  9
$CLAYER
  8
0
  9
$CELTYPE
  6
BYLAYER
  9
$CECOLOR
 62
   256
  9
$DIMSCALE
 40
1.0
  9
$DIMASZ
 40
3.0
  9
$DIMEXO
 40
2.0
  9
$DIMDLI
 40
0.38
  9
$DIMRND
 40
0.0
  9
$DIMDLE
 40
0.0
  9
$DIMEXE
 40
2.0
  9
$DIMTP
 40
0.0
  9
$DIMTM
 40
0.0
  9
$DIMTXT
 40
3.2000000000000002
  9
$DIMCEN
 40
0.0
  9
$DIMTSZ
 40
0.0
  9
$DIMTOL
 70
     0
  9
$DIMLIM
 70
     0
  9
$DIMTIH
 70
     0
  9
$DIMTOH
 70
     0
  9
$DIMSE1
 70
     0
  9
$DIMSE2
 70
     0
  9
$DIMTAD
 70
     1
  9
$DIMZIN
 70
     0
  9
$DIMBLK
  1

  9
$DIMASO
 70
     0
  9
$DIMSHO
 70
     0
  9
$DIMPOST
  1

  9
$DIMAPOST
  1

  9
$DIMALT
 70
     0
  9
$DIMALTD
 70
     2
  9
$DIMALTF
 40
25.3999999999999986
  9
$DIMLFAC
 40
1.0
  9
$DIMTOFL
 70
     0
  9
$DIMTVP
 40
1.6000000000000001
  9
$DIMTIX
 70
     1
  9
$DIMSOXD
 70
     0
  9
$DIMSAH
 70
     0
  9
$DIMBLK1
  1

  9
$DIMBLK2
  1

  9
$DIMSTYLE
  2
STANDARD
  9
$DIMCLRD
 70
     4
  9
$DIMCLRE
 70
     4
  9
$DIMCLRT
 70
     4
  9
$DIMTFAC
 40
1.0
  9
$DIMGAP
 40
0.09
  9
$LUNITS
 70
     2
  9
$LUPREC
 70
     1
  9
$SKETCHINC
 40
0.1
  9
$FILLETRAD
 40
22.0
  9
$AUNITS
 70
     0
  9
$AUPREC
 70
     0
  9
$MENU
  1
E:\r13\win\SUPPORT\ACAD
  9
$ELEVATION
 40
0.0
  9
$PELEVATION
 40
0.0
  9
$THICKNESS
 40
0.0
  9
$LIMCHECK
 70
     0
  9
$BLIPMODE
 70
     0
  9
$CHAMFERA
 40
1.1999999999999991
  9
$CHAMFERB
 40
1.1999999999999991
  9
$SKPOLY
 70
     0
  9
$TDCREATE
 40
2449954.6020138887688518
  9
$TDUPDATE
 40
2460812.3757754629477859
  9
$TDINDWG
 40
0.670729537
  9
$TDUSRTIMER
 40
0.670729537
  9
$USRTIMER
 70
     1
  9
$ANGBASE
 50
0.0
  9
$ANGDIR
 70
     0
  9
$PDMODE
 70
     0
  9
$PDSIZE
 40
0.0
  9
$PLINEWID
 40
0.0
  9
$COORDS
 70
     1
  9
$SPLFRAME
 70
     0
  9
$SPLINETYPE
 70
     6
  9
$SPLINESEGS
 70
     8
  9
$ATTDIA
 70
     1
  9
$ATTREQ
 70
     1
  9
$HANDLING
 70
     1
  9
$HANDSEED
  5
4246
  9
$SURFTAB1
 70
     6
  9
$SURFTAB2
 70
     6
  9
$SURFTYPE
 70
     6
  9
$SURFU
 70
     6
  9
$SURFV
 70
     6
  9
$UCSNAME
  2

  9
$UCSORG
 10
0.0
 20
0.0
 30
0.0
  9
$UCSXDIR
 10
1.0
 20
0.0
 30
0.0
  9
$UCSYDIR
 10
0.0
 20
1.0
 30
0.0
  9
$PUCSNAME
  2

  9
$PUCSORG
 10
0.0
 20
0.0
 30
0.0
  9
$PUCSXDIR
 10
1.0
 20
0.0
 30
0.0
  9
$PUCSYDIR
 10
0.0
 20
1.0
 30
0.0
  9
$USERI1
 70
     0
  9
$USERI2
 70
     1
  9
$USERI3
 70
     0
  9
$USERI4
 70
     0
  9
$USERI5
 70
     0
  9
$USERR1
 40
0.0
  9
$USERR2
 40
0.0
  9
$USERR3
 40
0.0
  9
$USERR4
 40
0.0
  9
$USERR5
 40
0.0
  9
$WORLDVIEW
 70
     1
  9
$SHADEDGE
 70
     3
  9
$SHADEDIF
 70
    70
  9
$TILEMODE
 70
     1
  9
$MAXACTVP
 70
    16
  9
$PLIMCHECK
 70
     0
  9
$PEXTMIN
 10
1.0000000000000000E+20
 20
1.0000000000000000E+20
 30
1.0000000000000000E+20
  9
$PEXTMAX
 10
-1.0000000000000000E+20
 20
-1.0000000000000000E+20
 30
-1.0000000000000000E+20
  9
$PLIMMIN
 10
0.0
 20
0.0
  9
$PLIMMAX
 10
12.0
 20
9.0
  9
$UNITMODE
 70
     0
  9
$VISRETAIN
 70
     0
  9
$PLINEGEN
 70
     0
  9
$PSLTSCALE
 70
     0
  0
ENDSEC
  0
SECTION
  2
TABLES
  0
TABLE
  2
VPORT
 70
     1
  0
VPORT
  2
*ACTIVE
 70
     0
 10
0.0
 20
0.0
 11
1.0
 21
1.0
 12
428.1021897810218775
 22
182.2857777148346941
 13
0.0
 23
0.0
 14
10.0
 24
10.0
 15
10.0
 25
10.0
 16
0.0
 26
0.0
 36
1.0
 17
0.0
 27
0.0
 37
0.0
 40
364.5715554296695018
 41
2.3485221674876842
 42
50.0
 43
0.0
 44
0.0
 50
0.0
 51
0.0
 71
     0
 72
   500
 73
     1
 74
     0
 75
     0
 76
     0
 77
     0
 78
     2
  0
ENDTAB
  0
TABLE
  2
LTYPE
 70
     3
  0
LTYPE
  2
CONTINUOUS
 70
     0
  3
Solid Line
 72
    65
 73
     0
 40
0.0
  0
LTYPE
  2
CENTER
 70
     0
  3
____ _ ____ _ ____ _ ____ _ ____ _ ____ _ ____
 72
    65
 73
     4
 40
2.0
 49
1.25
 49
-0.25
 49
0.25
 49
-0.25
  0
LTYPE
  2
HIDDEN
 70
     0
  3
_ _ _ _ _ _ _ _ _ _ _ _ _ _ _ _ _ _ _ _ _ _ _
 72
    65
 73
     2
 40
0.375
 49
0.25
 49
-0.125
  0
ENDTAB
  0
TABLE
  2
LAYER
 70
     5
  0
LAYER
  2
0
 70
     0
 62
     7
  6
CONTINUOUS
  0
LAYER
  2
1
 70
     0
 62
     1
  6
CENTER
  0
LAYER
  2
3
 70
     0
 62
     3
  6
CONTINUOUS
  0
LAYER
  2
2
 70
     0
 62
     2
  6
HIDDEN
  0
LAYER
  2
DEFPOINTS
 70
     0
 62
     7
  6
CONTINUOUS
  0
ENDTAB
  0
TABLE
  2
STYLE
 70
     2
  0
STYLE
  2
STANDARD
 70
     0
 40
0.0
 41
1.0
 50
0.0
 71
     0
 42
4.000000000000048
  3
SIMPLEX
  4
BIGFONT
  0
STYLE
  2
STANDARD1
 70
     0
 40
0.0
 41
1.0
 50
0.0
 71
     0
 42
3.0
  3
txt
  4

  0
ENDTAB
  0
TABLE
  2
VIEW
 70
     1
  0
VIEW
  2
ALL
 70
     0
 40
270.0
 10
220.785953177257511
 20
135.0
 41
441.571906354515022
 11
0.0
 21
0.0
 31
1.0
 12
0.0
 22
0.0
 32
0.0
 42
50.0
 43
0.0
 44
0.0
 50
0.0
 71
     0
  0
ENDTAB
  0
TABLE
  2
UCS
 70
     0
  0
ENDTAB
  0
TABLE
  2
APPID
 70
     4
  0
APPID
  2
ACAD
 70
     0
  0
APPID
  2
ACAD_EXEMPT_FROM_CAD_STANDARDS
 70
     0
  0
APPID
  2
ACAD_MLEADERVER
 70
     0
  0
APPID
  2
ACAD_NAV_VCDISPLAY
 70
     0
  0
ENDTAB
  0
TABLE
  2
DIMSTYLE
 70
     1
  0
DIMSTYLE
  2
STANDARD
 70
     0
  3

  4

  5

  6

  7

 40
1.0
 41
0.18
 42
0.0625
 43
0.38
 44
0.18
 45
0.0
 46
0.0
 47
0.0
 48
0.0
140
0.18
141
0.09
142
0.0
143
25.3999999999999986
144
1.0
145
0.0
146
1.0
147
0.09
 71
     0
 72
     0
 73
     1
 74
     1
 75
     0
 76
     0
 77
     0
 78
     0
170
     0
171
     2
172
     0
173
     0
174
     0
175
     0
176
     0
177
     0
178
     0
  0
ENDTAB
  0
ENDSEC
  0
SECTION
  2
BLOCKS
  0
BLOCK
  8
0
  2
$MODEL_SPACE
 70
     0
 10
0.0
 20
0.0
 30
0.0
  3
$MODEL_SPACE
  1

  0
ENDBLK
  5
F3C
  8
0
  0
BLOCK
 67
     1
  8
0
  2
$PAPER_SPACE
 70
     0
 10
0.0
 20
0.0
 30
0.0
  3
$PAPER_SPACE
  1

  0
ENDBLK
  5
F3A
 67
     1
  8
0
  0
ENDSEC
  0
SECTION
  2
ENTITIES
  0
LINE
  5
2CBC
  8
0
 10
106.0240575042102051
 20
113.6932817350246978
 30
0.0
 11
106.8240575042101028
 21
113.6932817350246978
 31
0.0
  0
LINE
  5
2CBD
  8
0
 10
106.8240575042101028
 20
122.6932817350247973
 30
0.0
 11
106.0240575042102051
 21
122.6932817350247973
 31
0.0
  0
LINE
  5
2CBE
  8
0
 10
89.5240575042102051
 20
120.1932817350247973
 30
0.0
 11
87.5240575042006554
 21
120.1932817350247973
 31
0.0
  0
LINE
  5
2CBF
  8
0
 10
87.5240575042006554
 20
116.1932817350247973
 30
0.0
 11
89.5240575042102051
 21
116.1932817350247973
 31
0.0
  0
CIRCLE
  5
2CC0
  8
0
 10
79.0240575042101909
 20
152.6932817350248115
 30
0.0
 40
4.0000000000000284
  0
CIRCLE
  5
2CC1
  8
0
 10
79.0240575042101909
 20
152.6932817350248115
 30
0.0
 40
5.5000000000000284
  0
CIRCLE
  5
2CC2
  8
0
 10
100.0240575042102051
 20
152.6932817350248115
 30
0.0
 40
4.0
  0
CIRCLE
  5
2CC3
  8
0
 10
100.0240575042102051
 20
152.6932817350248115
 30
0.0
 40
5.5
  0
LINE
  5
2CC8
  8
0
 10
75.5240575042101909
 20
112.1932817350247973
 30
0.0
 11
86.0240575042101767
 21
112.1932817350247973
 31
0.0
  0
ARC
  5
2CC9
  8
0
 10
75.5240575042101909
 20
114.6932817350246978
 30
0.0
 40
2.5
 50
179.9999999999984084
 51
270.0
  0
LINE
  5
2CCA
  8
0
 10
73.0240575042101909
 20
155.3290251692002926
 30
0.0
 11
73.0240575042101909
 21
114.6932817350247973
 31
0.0
  0
ARC
  5
2CCB
  8
0
 10
89.5240575042102051
 20
103.6932817350247973
 30
0.0
 40
55.9999999999999929
 50
74.8300960681026055
 51
105.1699039318973945
  0
ARC
  5
2CCC
  8
0
 10
103.5240575042102051
 20
155.3290251692002926
 30
0.0
 40
2.5
 50
0.0
 51
74.8300960681026055
  0
LINE
  5
2CCD
  8
0
 10
106.0240575042102051
 20
114.6932817350247973
 30
0.0
 11
106.0240575042102051
 21
155.3290251692002926
 31
0.0
  0
ARC
  5
2CCE
  8
0
 10
103.5240575042102051
 20
114.6932817350246978
 30
0.0
 40
2.5
 50
270.0
 51
0.0
  0
LINE
  5
2CCF
  8
0
 10
91.0240575042101767
 20
112.1932817350247973
 30
0.0
 11
103.5240575042102051
 21
112.1932817350247973
 31
0.0
  0
ARC
  5
2CD0
  8
0
 10
91.0240575042101767
 20
113.6932817350246978
 30
0.0
 40
1.5
 50
179.9999999999984084
 51
270.0
  0
LINE
  5
2CD1
  8
0
 10
89.5240575042102051
 20
123.1932817350247973
 30
0.0
 11
89.5240575042102051
 21
113.6932817350247973
 31
0.0
  0
ARC
  5
2CD2
  8
0
 10
86.0240575042101767
 20
113.6932817350246978
 30
0.0
 40
1.5
 50
270.0
 51
0.0
  0
LINE
  5
2CD3
  8
0
 10
87.5240575042101909
 20
113.6932817350247973
 30
0.0
 11
87.5240575042103046
 21
123.5364274855323998
 31
0.0
  0
ARC
  5
2CD5
  8
0
 10
75.5240575042101909
 20
155.3290251692002926
 30
0.0
 40
2.4999999999999849
 50
105.1699039318908007
 51
180.0
  0
LINE
  5
2CD7
  8
0
 10
106.0240575042102051
 20
114.6932817350247973
 30
0.0
 11
106.0240575042102051
 21
113.6932817350246978
 31
0.0
  0
CIRCLE
  5
2CD8
  8
0
 10
100.0240575042102051
 20
152.6932817350248115
 30
0.0
 40
2.2499999999999711
  0
CIRCLE
  5
2CD9
  8
0
 10
79.0240575042101909
 20
152.6932817350248115
 30
0.0
 40
2.25
  0
LINE
  5
2CDA
  8
0
 10
73.5240575042101909
 20
209.6932817350248115
 30
0.0
 11
73.5240575042101909
 21
209.3932817350248001
 31
0.0
  0
LINE
  5
2CDB
  8
0
 10
84.5240575042102051
 20
209.3932817350248001
 30
0.0
 11
84.5240575042102051
 21
209.6932817350248115
 31
0.0
  0
LINE
  5
2CDC
  8
0
 10
94.5240575042102051
 20
209.6932817350248115
 30
0.0
 11
94.5240575042102051
 21
209.3932817350248001
 31
0.0
  0
LINE
  5
2CDD
  8
0
 10
105.5240575042102051
 20
209.3932817350248001
 30
0.0
 11
105.5240575042102051
 21
209.6932817350248115
 31
0.0
  0
LINE
  5
2CDE
  8
0
 10
84.5240575042102051
 20
194.6932817350248115
 30
0.0
 11
84.5240575042102051
 21
194.9932817350247944
 31
0.0
  0
LINE
  5
2CDF
  8
0
 10
73.5240575042101909
 20
194.9932817350247944
 30
0.0
 11
73.5240575042101909
 21
194.6932817350248115
 31
0.0
  0
LINE
  5
2CE0
  8
0
 10
105.5240575042102051
 20
194.6932817350248115
 30
0.0
 11
105.5240575042102051
 21
194.9932817350247944
 31
0.0
  0
LINE
  5
2CE1
  8
0
 10
94.5240575042102051
 20
194.9932817350247944
 30
0.0
 11
94.5240575042102051
 21
194.6932817350248115
 31
0.0
  0
LINE
  5
2CE2
  8
0
 10
106.0240575042102051
 20
197.6932817350248968
 30
0.0
 11
106.8240575042101028
 21
197.6932817350248968
 31
0.0
  0
LINE
  5
2CE3
  8
0
 10
106.8240575042101028
 20
206.6932817350248968
 30
0.0
 11
106.0240575042102051
 21
206.6932817350248968
 31
0.0
  0
LINE
  5
2CE4
  8
0
 10
84.5240575042102051
 20
209.6932817350248115
 30
0.0
 11
73.5240575042101909
 21
209.6932817350248115
 31
0.0
  0
LINE
  5
2CE5
  8
0
 10
105.5240575042102051
 20
209.6932817350248115
 30
0.0
 11
94.5240575042102051
 21
209.6932817350248115
 31
0.0
  0
LINE
  5
2CE6
  8
0
 10
73.5240575042101909
 20
194.6932817350248115
 30
0.0
 11
84.5240575042102051
 21
194.6932817350248115
 31
0.0
  0
LINE
  5
2CE7
  8
0
 10
94.5240575042102051
 20
194.6932817350248115
 30
0.0
 11
105.5240575042102051
 21
194.6932817350248115
 31
0.0
  0
LINE
  5
2CE8
  8
0
 10
73.0240575042101909
 20
209.3932817350248001
 30
0.0
 11
73.0240575042101909
 21
194.9932817350247944
 31
0.0
  0
LINE
  5
2CE9
  8
0
 10
106.0240575042102051
 20
194.9932817350247944
 30
0.0
 11
106.0240575042102051
 21
209.3932817350248001
 31
0.0
  0
LINE
  5
2CEA
  8
0
 10
73.0240575042101909
 20
194.9932817350247944
 30
0.0
 11
106.0240575042102051
 21
194.9932817350247944
 31
0.0
  0
LINE
  5
2CEB
  8
0
 10
73.0240575042101909
 20
209.3932817350248001
 30
0.0
 11
106.0240575042102051
 21
209.3932817350248001
 31
0.0
  0
LINE
  5
2CEC
  8
2
 10
96.0240575042102051
 20
204.7932817350248058
 30
0.0
 11
104.0240575042102051
 21
204.7932817350248058
 31
0.0
  0
LINE
  5
2CED
  8
2
 10
75.0240575042101909
 20
204.7932817350248058
 30
0.0
 11
83.0240575042101909
 21
204.7932817350248058
 31
0.0
  0
LINE
  5
2CEE
  8
2
 10
104.0240575042102051
 20
199.5932817350247888
 30
0.0
 11
96.0240575042102051
 21
199.5932817350247888
 31
0.0
  0
LINE
  5
2CEF
  8
2
 10
83.0240575042101909
 20
199.5932817350247888
 30
0.0
 11
75.0240575042101909
 21
199.5932817350247888
 31
0.0
  0
LINE
  5
2CF1
  8
2
 10
96.0240575042102051
 20
209.6932817350248115
 30
0.0
 11
96.0240575042102051
 21
204.7932817350248058
 31
0.0
  0
LINE
  5
2CF2
  8
2
 10
104.0240575042102051
 20
204.7932817350248058
 30
0.0
 11
104.0240575042102051
 21
209.6932817350248115
 31
0.0
  0
LINE
  5
2CF3
  8
2
 10
75.0240575042101909
 20
209.6932817350248115
 30
0.0
 11
75.0240575042101909
 21
204.7932817350248058
 31
0.0
  0
LINE
  5
2CF4
  8
2
 10
83.0240575042101909
 20
204.7932817350248058
 30
0.0
 11
83.0240575042101909
 21
209.6932817350248115
 31
0.0
  0
LINE
  5
2CF5
  8
2
 10
104.0240575042102051
 20
194.6932817350248115
 30
0.0
 11
104.0240575042102051
 21
199.5932817350247888
 31
0.0
  0
LINE
  5
2CF6
  8
2
 10
96.0240575042102051
 20
199.5932817350247888
 30
0.0
 11
96.0240575042102051
 21
194.6932817350248115
 31
0.0
  0
LINE
  5
2CF7
  8
2
 10
83.0240575042101909
 20
194.6932817350248115
 30
0.0
 11
83.0240575042101909
 21
199.5932817350247888
 31
0.0
  0
LINE
  5
2CF8
  8
2
 10
75.0240575042101909
 20
199.5932817350247888
 30
0.0
 11
75.0240575042101909
 21
194.6932817350248115
 31
0.0
  0
LINE
  5
2CF9
  8
2
 10
97.7740575042101909
 20
204.7932817350248058
 30
0.0
 11
97.7740575042101909
 21
199.5932817350247888
 31
0.0
  0
LINE
  5
2CFA
  8
2
 10
102.2740575042102051
 20
199.5932817350247888
 30
0.0
 11
102.2740575042102051
 21
204.7932817350248058
 31
0.0
  0
LINE
  5
2CFB
  8
2
 10
76.7740575042101909
 20
204.7932817350248058
 30
0.0
 11
76.7740575042101909
 21
199.5932817350247888
 31
0.0
  0
LINE
  5
2CFC
  8
2
 10
81.2740575042101909
 20
199.5932817350247888
 30
0.0
 11
81.2740575042101909
 21
204.7932817350248058
 31
0.0
  0
LINE
  5
2CFD
  8
2
 10
86.4240575042101966
 20
209.3932817350248001
 30
0.0
 11
86.4240575042101966
 21
194.9932817350247944
 31
0.0
  0
LINE
  5
2CFE
  8
2
 10
92.6240575042101852
 20
194.9932817350247944
 30
0.0
 11
92.6240575042101852
 21
209.3932817350248001
 31
0.0
  0
LINE
  5
2D00
  8
0
 10
15.52405750420996
 20
147.1932817350248115
 30
0.0
 11
15.82405750421003
 21
147.1932817350248115
 31
0.0
  0
LINE
  5
2D01
  8
0
 10
15.82405750421003
 20
158.1932817350248115
 30
0.0
 11
15.52405750420996
 21
158.1932817350248115
 31
0.0
  0
LINE
  5
2D02
  8
0
 10
30.5240575042099707
 20
158.1932817350248115
 30
0.0
 11
30.224057504210009
 21
158.1932817350248115
 31
0.0
  0
LINE
  5
2D03
  8
0
 10
30.224057504210009
 20
147.1932817350248115
 30
0.0
 11
30.5240575042099707
 21
147.1932817350248115
 31
0.0
  0
LINE
  5
2D04
  8
0
 10
30.224057504210009
 20
159.6932817350248115
 30
0.0
 11
15.82405750421003
 21
159.6932817350248115
 31
0.0
  0
LINE
  5
2D05
  8
0
 10
15.8240575042101401
 20
155.3290251692002926
 30
0.0
 11
30.224057504210009
 21
155.3290251692002926
 31
0.0
  0
LINE
  5
2D06
  8
0
 10
15.8240575042101401
 20
157.7419103764048032
 30
0.0
 11
30.224057504210009
 21
157.7419103764048032
 31
0.0
  0
LINE
  5
2D07
  8
0
 10
15.8240575042101401
 20
112.1932817350247973
 30
0.0
 11
30.224057504210009
 21
112.1932817350247973
 31
0.0
  0
LINE
  5
2D08
  8
0
 10
15.5240575042101892
 20
158.1932817350248115
 30
0.0
 11
15.52405750420996
 21
147.1932817350248115
 31
0.0
  0
LINE
  5
2D09
  8
0
 10
30.5240575042099707
 20
147.1932817350248115
 30
0.0
 11
30.5240575042099707
 21
158.1932817350248115
 31
0.0
  0
LINE
  5
2D0A
  8
0
 10
30.2240575042113804
 20
112.1932817350247973
 30
0.0
 11
30.224057504210009
 21
159.6932817350248115
 31
0.0
  0
LINE
  5
2D0B
  8
0
 10
15.8240575042113907
 20
112.1932817350247973
 30
0.0
 11
15.82405750421003
 21
159.6932817350248115
 31
0.0
  0
LINE
  5
2D0C
  8
0
 10
195.1396912511974904
 20
158.1932817350248115
 30
0.0
 11
194.8396912511973937
 21
158.1932817350248115
 31
0.0
  0
LINE
  5
2D0D
  8
0
 10
194.8396912511973937
 20
147.1932817350248115
 30
0.0
 11
195.1396912511974904
 21
147.1932817350248115
 31
0.0
  0
LINE
  5
2D0E
  8
0
 10
180.1396912511974051
 20
147.1932817350248115
 30
0.0
 11
180.4396912511973881
 21
147.1932817350248115
 31
0.0
  0
LINE
  5
2D0F
  8
0
 10
180.4396912511973881
 20
158.1932817350248115
 30
0.0
 11
180.1396912511974051
 21
158.1932817350248115
 31
0.0
  0
LINE
  5
2D10
  8
0
 10
194.8396912511973937
 20
159.6932817350248115
 30
0.0
 11
180.439691251197587
 21
159.6932817350248115
 31
0.0
  0
LINE
  5
2D11
  8
0
 10
194.8396912511973937
 20
157.7419103764046895
 30
0.0
 11
180.4396912511973881
 21
157.7419103764048032
 31
0.0
  0
LINE
  5
2D12
  8
0
 10
180.4396912511973881
 20
155.3290251692002926
 30
0.0
 11
194.8396912511973937
 21
155.3290251692002926
 31
0.0
  0
LINE
  5
2D13
  8
0
 10
180.4396912511973881
 20
112.1932817350247973
 30
0.0
 11
182.7168081551845944
 21
112.1932817350247973
 31
0.0
  0
LINE
  5
2D14
  8
0
 10
192.5625743472103011
 20
112.1932817350247973
 30
0.0
 11
194.8396912511973937
 21
112.1932817350247973
 31
0.0
  0
LINE
  5
2D15
  8
0
 10
180.439691251197587
 20
159.6932817350248115
 30
0.0
 11
180.4396912511973881
 21
112.1932817350247973
 31
0.0
  0
LINE
  5
2D16
  8
0
 10
194.8396912511973937
 20
159.6932817350248115
 30
0.0
 11
194.8396912511973937
 21
112.1932817350247973
 31
0.0
  0
LINE
  5
2D17
  8
0
 10
195.1396912511974904
 20
147.1932817350248115
 30
0.0
 11
195.1396912511974904
 21
158.1932817350248115
 31
0.0
  0
LINE
  5
2D18
  8
0
 10
180.1396912511974051
 20
158.1932817350248115
 30
0.0
 11
180.1396912511974051
 21
147.1932817350248115
 31
0.0
  0
LINE
  5
2D1A
  8
0
 10
106.0240575042102051
 20
31.193281735024879
 30
0.0
 11
106.8240575042101028
 21
31.193281735024879
 31
0.0
  0
LINE
  5
2D1B
  8
0
 10
106.8240575042101028
 20
40.1932817350248826
 30
0.0
 11
106.0240575042102051
 21
40.1932817350248826
 31
0.0
  0
LINE
  5
2D1C
  8
0
 10
89.5240575042102051
 20
37.6932817350248968
 30
0.0
 11
87.5240575042006554
 21
37.6932817350248968
 31
0.0
  0
LINE
  5
2D1D
  8
0
 10
87.5240575042006554
 20
33.6932817350248826
 30
0.0
 11
89.5240575042102051
 21
33.6932817350248826
 31
0.0
  0
LINE
  5
2D1E
  8
0
 10
84.5240575042102051
 20
28.1932817350247689
 30
0.0
 11
84.5240575042102051
 21
28.4932817350247696
 31
0.0
  0
LINE
  5
2D1F
  8
0
 10
73.5240575042101909
 20
28.4932817350247696
 30
0.0
 11
73.5240575042101909
 21
28.1932817350247689
 31
0.0
  0
LINE
  5
2D20
  8
0
 10
105.5240575042102051
 20
28.1932817350247689
 30
0.0
 11
105.5240575042102051
 21
28.4932817350247696
 31
0.0
  0
LINE
  5
2D21
  8
0
 10
94.5240575042102051
 20
28.4932817350247696
 30
0.0
 11
94.5240575042102051
 21
28.1932817350247689
 31
0.0
  0
LINE
  5
2D22
  8
0
 10
73.5240575042101909
 20
43.1932817350247831
 30
0.0
 11
73.5240575042101909
 21
42.8932817350247717
 31
0.0
  0
LINE
  5
2D23
  8
0
 10
84.5240575042102051
 20
42.8932817350247717
 30
0.0
 11
84.5240575042102051
 21
43.1932817350247831
 31
0.0
  0
LINE
  5
2D24
  8
0
 10
94.5240575042102051
 20
43.1932817350247831
 30
0.0
 11
94.5240575042102051
 21
42.8932817350247717
 31
0.0
  0
LINE
  5
2D25
  8
0
 10
105.5240575042102051
 20
42.8932817350247717
 30
0.0
 11
105.5240575042102051
 21
43.1932817350247831
 31
0.0
  0
LINE
  5
2D26
  8
0
 10
73.0240575042101909
 20
42.8932817350249067
 30
0.0
 11
73.0240575042101909
 21
28.4932817350249117
 31
0.0
  0
LINE
  5
2D27
  8
0
 10
106.0240575042102051
 20
28.4932817350249117
 30
0.0
 11
73.0240575042101909
 21
28.4932817350249117
 31
0.0
  0
LINE
  5
2D28
  8
0
 10
106.0240575042102051
 20
42.8932817350249067
 30
0.0
 11
73.0240575042101909
 21
42.8932817350249067
 31
0.0
  0
LINE
  5
2D29
  8
0
 10
106.0240575042102051
 20
28.4932817350249117
 30
0.0
 11
106.0240575042102051
 21
42.8932817350249067
 31
0.0
  0
LINE
  5
2D2A
  8
0
 10
89.5240575042102051
 20
42.8932817350249067
 30
0.0
 11
89.5240575042102051
 21
28.4932817350249117
 31
0.0
  0
LINE
  5
2D2B
  8
0
 10
87.5240575042101909
 20
28.4932817350249117
 30
0.0
 11
87.5240575042101909
 21
42.8932817350249067
 31
0.0
  0
LINE
  5
2D2C
  8
0
 10
73.5240575042101909
 20
28.1932817350247689
 30
0.0
 11
84.5240575042102051
 21
28.1932817350247689
 31
0.0
  0
LINE
  5
2D2D
  8
0
 10
94.5240575042102051
 20
28.1932817350247689
 30
0.0
 11
105.5240575042102051
 21
28.1932817350247689
 31
0.0
  0
LINE
  5
2D2E
  8
0
 10
84.5240575042102051
 20
43.1932817350247831
 30
0.0
 11
73.5240575042101909
 21
43.1932817350247831
 31
0.0
  0
LINE
  5
2D2F
  8
0
 10
105.5240575042102051
 20
43.1932817350247831
 30
0.0
 11
94.5240575042102051
 21
43.1932817350247831
 31
0.0
  0
LINE
  5
2D30
  8
1
 10
13.5240575042100808
 20
152.6932817350248115
 30
0.0
 11
32.5240575042099564
 21
152.6932817350248115
 31
0.0
  0
LINE
  5
2D31
  8
1
 10
73.0240575042100772
 20
152.6932817350248115
 30
0.0
 11
85.0240575042101909
 21
152.6932817350248115
 31
0.0
  0
LINE
  5
2D32
  8
1
 10
94.0240575042101909
 20
152.6932817350248115
 30
0.0
 11
106.0240575042102051
 21
152.6932817350248115
 31
0.0
  0
LINE
  5
2D33
  8
1
 10
178.1396912511974051
 20
152.6932817350248115
 30
0.0
 11
197.1396912511974904
 21
152.6932817350248115
 31
0.0
  0
LINE
  5
2D34
  8
1
 10
13.5240575042100808
 20
151.1932817350248115
 30
0.0
 11
32.5240575042099564
 21
151.1932817350248115
 31
0.0
  0
LINE
  5
2D35
  8
1
 10
84.5240575042102051
 20
151.1932817350248115
 30
0.0
 11
94.5240575042102051
 21
151.1932817350248115
 31
0.0
  0
LINE
  5
2D36
  8
1
 10
178.1396912511974051
 20
151.1932817350248115
 30
0.0
 11
197.1396912511974904
 21
151.1932817350248115
 31
0.0
  0
LINE
  5
2D37
  8
1
 10
13.8240575042101401
 20
129.1932817350248115
 30
0.0
 11
32.224057504210009
 21
129.1932817350248115
 31
0.0
  0
LINE
  5
2D39
  8
1
 10
178.4396912511973881
 20
129.1932817350248115
 30
0.0
 11
196.8396912511973937
 21
129.1932817350248115
 31
0.0
  0
LINE
  5
2D3A
  8
1
 10
13.8240575042101401
 20
118.1932817350247973
 30
0.0
 11
32.224057504210009
 21
118.1932817350247973
 31
0.0
  0
LINE
  5
2D3B
  8
1
 10
76.5240575042104183
 20
118.1932817350247973
 30
0.0
 11
134.3240575042100886
 21
118.1932817350247973
 31
0.0
  0
LINE
  5
2D3C
  8
1
 10
178.4396912511973881
 20
118.1932817350247973
 30
0.0
 11
196.8396912511973937
 21
118.1932817350247973
 31
0.0
  0
LINE
  5
2D3D
  8
1
 10
23.02405750420996
 20
127.7032817350248024
 30
0.0
 11
23.02405750420996
 21
75.1928571681453093
 31
0.0
  0
POLYLINE
  5
2D3E
  8
0
 66
     1
 10
0.0
 20
0.0
 30
0.0
  0
VERTEX
  5
3618
  8
0
 10
26.52405750420996
 20
81.6932817350248257
 30
0.0
  0
VERTEX
  5
3619
  8
0
 10
26.5298495820286497
 20
81.8497487879747467
 30
0.0
  0
VERTEX
  5
361A
  8
0
 10
26.5416456670108083
 20
82.1684079481774745
 30
0.0
  0
VERTEX
  5
361B
  8
0
 10
26.5536933356320404
 20
82.4938633828433296
 30
0.0
  0
VERTEX
  5
361C
  8
0
 10
26.5597997076267802
 20
82.658820771219581
 30
0.0
  0
SEQEND
  5
361D
  8
0
  0
LINE
  5
2D3F
  8
0
 10
26.5597997076267802
 20
82.658820771219581
 30
0.0
 11
26.9308541584962313
 21
92.6824769149352647
 31
0.0
  0
POLYLINE
  5
2D40
  8
0
 66
     1
 10
0.0
 20
0.0
 30
0.0
  0
VERTEX
  5
361E
  8
0
 10
26.9308541584962313
 20
92.6824769149352647
 30
0.0
  0
VERTEX
  5
361F
  8
0
 10
26.9333260629276801
 20
92.7492528826750515
 30
0.0
  0
VERTEX
  5
3620
  8
0
 10
26.9382853481264384
 20
92.8832228955233461
 30
0.0
  0
VERTEX
  5
3621
  8
0
 10
26.9432642979801393
 20
93.0177241288960346
 30
0.0
  0
VERTEX
  5
3622
  8
0
 10
26.9457607821485716
 20
93.0851640930695936
 30
0.0
  0
VERTEX
  5
3623
  8
0
 10
26.948261743923009
 20
93.1527250151856663
 30
0.0
  0
VERTEX
  5
3624
  8
0
 10
26.9532765130484186
 20
93.2881938695151263
 30
0.0
  0
VERTEX
  5
3625
  8
0
 10
26.9583074283837085
 20
93.4240988971747868
 30
0.0
  0
VERTEX
  5
3626
  8
0
 10
26.9633533091666813
 20
93.5604082010847975
 30
0.0
  0
VERTEX
  5
3627
  8
0
 10
26.9684129711228096
 20
93.6970897892807955
 30
0.0
  0
VERTEX
  5
3628
  8
0
 10
26.9734852267432714
 20
93.8341115824232759
 30
0.0
  0
VERTEX
  5
3629
  8
0
 10
26.9760257052651014
 20
93.9027400090162985
 30
0.0
  0
VERTEX
  5
362A
  8
0
 10
26.9785688855630497
 20
93.9714414213257356
 30
0.0
  0
VERTEX
  5
362B
  8
0
 10
26.9836627544413012
 20
94.1090470745032661
 30
0.0
  0
VERTEX
  5
362C
  8
0
 10
26.9887656378404017
 20
94.2468962457369628
 30
0.0
  0
VERTEX
  5
362D
  8
0
 10
26.9938763381075013
 20
94.3849565816538245
 30
0.0
  0
VERTEX
  5
362E
  8
0
 10
26.9989936557545889
 20
94.5231956793203665
 30
0.0
  0
VERTEX
  5
362F
  8
0
 10
27.0041163897410605
 20
94.6615810938473459
 30
0.0
  0
VERTEX
  5
3630
  8
0
 10
27.0066794121809188
 20
94.7308185213071567
 30
0.0
  0
VERTEX
  5
3631
  8
0
 10
27.0092433377547003
 20
94.8000803460047621
 30
0.0
  0
VERTEX
  5
3632
  8
0
 10
27.014373296494341
 20
94.9386609298450423
 30
0.0
  0
VERTEX
  5
3633
  8
0
 10
27.0195050619523691
 20
95.077290320331727
 30
0.0
  0
VERTEX
  5
3634
  8
0
 10
27.0220712458246908
 20
95.1466131506524846
 30
0.0
  0
SEQEND
  5
3635
  8
0
  0
LINE
  5
2D41
  8
0
 10
27.0220712458246908
 20
95.1466131506524846
 30
0.0
 11
27.1055705353375096
 21
97.4022609790517038
 31
0.0
  0
POLYLINE
  5
2D42
  8
0
 66
     1
 10
0.0
 20
0.0
 30
0.0
  0
VERTEX
  5
3636
  8
0
 10
19.52405750420996
 20
81.6932817350248257
 30
0.0
  0
VERTEX
  5
3637
  8
0
 10
19.5241734776538998
 20
81.6647896193152576
 30
0.0
  0
VERTEX
  5
3638
  8
0
 10
19.525098490924961
 20
81.6079247004505675
 30
0.0
  0
VERTEX
  5
3639
  8
0
 10
19.5269412311850985
 20
81.5512332470197236
 30
0.0
  0
VERTEX
  5
363A
  8
0
 10
19.5282042731511183
 20
81.522957964238941
 30
0.0
  0
VERTEX
  5
363B
  8
0
 10
19.5296937269465616
 20
81.4947325165692575
 30
0.0
  0
VERTEX
  5
363C
  8
0
 10
19.5333476130795098
 20
81.4384397134431453
 30
0.0
  0
VERTEX
  5
363D
  8
0
 10
19.5378941266350203
 20
81.3823719332259827
 30
0.0
  0
VERTEX
  5
363E
  8
0
 10
19.5433241071515305
 20
81.3265461100825462
 30
0.0
  0
VERTEX
  5
363F
  8
0
 10
19.5496280010717101
 20
81.2709789671884266
 30
0.0
  0
VERTEX
  5
3640
  8
0
 10
19.5567958698946995
 20
81.2156869703919853
 30
0.0
  0
VERTEX
  5
3641
  8
0
 10
19.5607005866276005
 20
81.1881492163383029
 30
0.0
  0
VERTEX
  5
3642
  8
0
 10
19.56481740169977
 20
81.1606862851899962
 30
0.0
  0
VERTEX
  5
3643
  8
0
 10
19.5736819256874206
 20
81.1059927370561553
 30
0.0
  0
VERTEX
  5
3644
  8
0
 10
19.5833784293979498
 20
81.0516217751158194
 30
0.0
  0
VERTEX
  5
3645
  8
0
 10
19.5938955782879702
 20
80.9975884391283643
 30
0.0
  0
VERTEX
  5
3646
  8
0
 10
19.6052217373653512
 20
80.9439073297081961
 30
0.0
  0
VERTEX
  5
3647
  8
0
 10
19.6173449946022593
 20
80.8905925816896172
 30
0.0
  0
VERTEX
  5
3648
  8
0
 10
19.6237017428617193
 20
80.8640768771849991
 30
0.0
  0
VERTEX
  5
3649
  8
0
 10
19.6302531841987502
 20
80.8376578471669802
 30
0.0
  0
VERTEX
  5
364A
  8
0
 10
19.6439338727711785
 20
80.7851164217755837
 30
0.0
  0
VERTEX
  5
364B
  8
0
 10
19.6583743131035291
 20
80.7329814397508301
 30
0.0
  0
VERTEX
  5
364C
  8
0
 10
19.6658753696075301
 20
80.7070704235724463
 30
0.0
  0
VERTEX
  5
364D
  8
0
 10
19.6735614401039811
 20
80.6812658634051161
 30
0.0
  0
VERTEX
  5
364E
  8
0
 10
19.6894818768329287
 20
80.629982442585316
 30
0.0
  0
VERTEX
  5
364F
  8
0
 10
19.7061219428959511
 20
80.5791436776155763
 30
0.0
  0
VERTEX
  5
3650
  8
0
 10
19.7147074813693699
 20
80.553894870819164
 30
0.0
  0
VERTEX
  5
3651
  8
0
 10
19.7234676649227403
 20
80.5287617855205156
 30
0.0
  0
VERTEX
  5
3652
  8
0
 10
19.7415047888437094
 20
80.4788486694169762
 30
0.0
  0
VERTEX
  5
3653
  8
0
 10
19.760218793709889
 20
80.4294158909413142
 30
0.0
  0
VERTEX
  5
3654
  8
0
 10
19.7795949068210994
 20
80.380474645561705
 30
0.0
  0
VERTEX
  5
3655
  8
0
 10
19.7996181199599697
 20
80.3320357406149981
 30
0.0
  0
VERTEX
  5
3656
  8
0
 10
19.8202732065468616
 20
80.2841095759020078
 30
0.0
  0
VERTEX
  5
3657
  8
0
 10
19.8308328887660501
 20
80.2603419054007787
 30
0.0
  0
VERTEX
  5
3658
  8
0
 10
19.8415447395629982
 20
80.2367061266683237
 30
0.0
  0
VERTEX
  5
3659
  8
0
 10
19.8634171101039101
 20
80.1898349288009342
 30
0.0
  0
VERTEX
  5
365A
  8
0
 10
19.8858745464516389
 20
80.1435050660706167
 30
0.0
  0
VERTEX
  5
365B
  8
0
 10
19.9089024764111784
 20
80.0977225375083037
 30
0.0
  0
VERTEX
  5
365C
  8
0
 10
19.9324872447417611
 20
80.0524912758950649
 30
0.0
  0
VERTEX
  5
365D
  8
0
 10
19.9566128943532703
 20
80.0078193161435962
 30
0.0
  0
VERTEX
  5
365E
  8
0
 10
19.9688734887091606
 20
79.9856955347326277
 30
0.0
  0
VERTEX
  5
365F
  8
0
 10
19.9812632021478294
 20
79.9637144957022485
 30
0.0
  0
VERTEX
  5
3660
  8
0
 10
20.0064217234473816
 20
79.9201843618776877
 30
0.0
  0
VERTEX
  5
3661
  8
0
 10
20.0320718036056213
 20
79.8772361498648991
 30
0.0
  0
VERTEX
  5
3662
  8
0
 10
20.1254731726501213
 20
79.731596522551655
 30
0.0
  0
VERTEX
  5
3663
  8
0
 10
20.2969752812156301
 20
79.4994215414327812
 30
0.0
  0
VERTEX
  5
3664
  8
0
 10
20.4795259152342588
 20
79.2900840750924232
 30
0.0
  0
VERTEX
  5
3665
  8
0
 10
20.5736954647790107
 20
79.1941367060767618
 30
0.0
  0
VERTEX
  5
3666
  8
0
 10
20.6691087656578283
 20
79.1040315658075457
 30
0.0
  0
VERTEX
  5
3667
  8
0
 10
20.8633693474287192
 20
78.9398426692117852
 30
0.0
  0
VERTEX
  5
3668
  8
0
 10
21.0655164814399996
 20
78.7925719835799612
 30
0.0
  0
VERTEX
  5
3669
  8
0
 10
21.2731145024923798
 20
78.6627374596947959
 30
0.0
  0
VERTEX
  5
366A
  8
0
 10
21.4829298365292516
 20
78.5508423144617893
 30
0.0
  0
VERTEX
  5
366B
  8
0
 10
21.6916358019607287
 20
78.4568249676053995
 30
0.0
  0
VERTEX
  5
366C
  8
0
 10
21.7945073069230411
 20
78.4163614869334253
 30
0.0
  0
VERTEX
  5
366D
  8
0
 10
21.89581790528052
 20
78.3801147595454779
 30
0.0
  0
VERTEX
  5
366E
  8
0
 10
22.0928885643164712
 20
78.3194227567363725
 30
0.0
  0
VERTEX
  5
366F
  8
0
 10
22.2824261894595601
 20
78.2727579457520335
 30
0.0
  0
VERTEX
  5
3670
  8
0
 10
22.3732783165611409
 20
78.2543158368335128
 30
0.0
  0
SEQEND
  5
3671
  8
0
  0
POLYLINE
  5
2D43
  8
0
 66
     1
 10
0.0
 20
0.0
 30
0.0
  0
VERTEX
  5
3672
  8
0
 10
22.3732783165611409
 20
78.2543158368335128
 30
0.0
  0
VERTEX
  5
3673
  8
0
 10
22.409044673005269
 20
78.2477398012423748
 30
0.0
  0
VERTEX
  5
3674
  8
0
 10
22.4807727027977116
 20
78.2357043136857158
 30
0.0
  0
VERTEX
  5
3675
  8
0
 10
22.5227243839941593
 20
78.2293728010927509
 30
0.0
  0
VERTEX
  5
3676
  8
0
 10
22.5347243790760103
 20
78.2276572469063751
 30
0.0
  0
VERTEX
  5
3677
  8
0
 10
22.5467302438787591
 20
78.225983264090388
 30
0.0
  0
VERTEX
  5
3678
  8
0
 10
22.5527353324235911
 20
78.22516186824069
 30
0.0
  0
VERTEX
  5
3679
  8
0
 10
22.5587418343878916
 20
78.2243508727247274
 30
0.0
  0
VERTEX
  5
367A
  8
0
 10
22.570759006520241
 20
78.2227600923907005
 30
0.0
  0
VERTEX
  5
367B
  8
0
 10
22.5827816161255512
 20
78.2212109421700745
 30
0.0
  0
VERTEX
  5
367C
  8
0
 10
22.5887949149158693
 20
78.2204519841788226
 30
0.0
  0
VERTEX
  5
367D
  8
0
 10
22.5948095189886509
 20
78.2197034406455316
 30
0.0
  0
VERTEX
  5
367E
  8
0
 10
22.6068425708305085
 20
78.2182376058999864
 30
0.0
  0
VERTEX
  5
367F
  8
0
 10
22.6188806273104284
 20
78.2168134555167001
 30
0.0
  0
VERTEX
  5
3680
  8
0
 10
22.6249014871668805
 20
78.2161170173190214
 30
0.0
  0
VERTEX
  5
3681
  8
0
 10
22.6309235440279508
 20
78.2154310065789389
 30
0.0
  0
VERTEX
  5
3682
  8
0
 10
22.642971176523929
 20
78.2140902756695198
 30
0.0
  0
VERTEX
  5
3683
  8
0
 10
22.6550233802828416
 20
78.2127912788710375
 30
0.0
  0
VERTEX
  5
3684
  8
0
 10
22.6670800107344803
 20
78.2115340317655239
 30
0.0
  0
VERTEX
  5
3685
  8
0
 10
22.6791409232550905
 20
78.2103185494337652
 30
0.0
  0
VERTEX
  5
3686
  8
0
 10
22.6912059731699784
 20
78.209144846456212
 30
0.0
  0
VERTEX
  5
3687
  8
0
 10
22.6972400044259111
 20
78.2085736666445257
 30
0.0
  0
VERTEX
  5
3688
  8
0
 10
22.7032750157548016
 20
78.2080129369117287
 30
0.0
  0
VERTEX
  5
3689
  8
0
 10
22.7153479062370707
 20
78.2069228343780338
 30
0.0
  0
VERTEX
  5
368A
  8
0
 10
22.7274244997981896
 20
78.2058745519310889
 30
0.0
  0
VERTEX
  5
368B
  8
0
 10
22.7395046515753201
 20
78.2048681021456389
 30
0.0
  0
VERTEX
  5
368C
  8
0
 10
22.7515882166628707
 20
78.2039034970942168
 30
0.0
  0
VERTEX
  5
368D
  8
0
 10
22.7636750501142195
 20
78.2029807483477555
 30
0.0
  0
VERTEX
  5
368E
  8
0
 10
22.769719647169719
 20
78.2025350735673612
 30
0.0
  0
VERTEX
  5
368F
  8
0
 10
22.7757650069435194
 20
78.2020998669748053
 30
0.0
  0
VERTEX
  5
3690
  8
0
 10
22.7878579421277401
 20
78.2012608635419895
 30
0.0
  0
VERTEX
  5
3691
  8
0
 10
22.7999537106078414
 20
78.2004637481132079
 30
0.0
  0
VERTEX
  5
3692
  8
0
 10
22.8120521672907515
 20
78.1997085302504331
 30
0.0
  0
VERTEX
  5
3693
  8
0
 10
22.8241531670514597
 20
78.1989952190125734
 30
0.0
  0
VERTEX
  5
3694
  8
0
 10
22.8362565647340716
 20
78.1983238229560413
 30
0.0
  0
VERTEX
  5
3695
  8
0
 10
22.8423091174271384
 20
78.1980038456572686
 30
0.0
  0
VERTEX
  5
3696
  8
0
 10
22.8483622151543386
 20
78.1976943501346398
 30
0.0
  0
VERTEX
  5
3697
  8
0
 10
22.8604699731006384
 20
78.19710680809888
 30
0.0
  0
VERTEX
  5
3698
  8
0
 10
22.8725796933362098
 20
78.196561203896664
 30
0.0
  0
VERTEX
  5
3699
  8
0
 10
22.884691230600879
 20
78.1960575440728292
 30
0.0
  0
VERTEX
  5
369A
  8
0
 10
22.8968044396123105
 20
78.1955958346686941
 30
0.0
  0
VERTEX
  5
369B
  8
0
 10
22.9089191750684904
 20
78.1951760812227405
 30
0.0
  0
VERTEX
  5
369C
  8
0
 10
22.9149770698014592
 20
78.1949819395771613
 30
0.0
  0
VERTEX
  5
369D
  8
0
 10
22.921035291648991
 20
78.1947982887700448
 30
0.0
  0
VERTEX
  5
369E
  8
0
 10
22.9331526440167792
 20
78.1944624618423916
 30
0.0
  0
VERTEX
  5
369F
  8
0
 10
22.945271086819961
 20
78.1941686044680466
 30
0.0
  0
VERTEX
  5
36A0
  8
0
 10
22.9573904746935114
 20
78.1939167201720977
 30
0.0
  0
VERTEX
  5
36A1
  8
0
 10
22.969510662261321
 20
78.1937068119758862
 30
0.0
  0
VERTEX
  5
36A2
  8
0
 10
22.9816315041374608
 20
78.1935388823972346
 30
0.0
  0
VERTEX
  5
36A3
  8
0
 10
22.9876921250058786
 20
78.1934706602387735
 30
0.0
  0
VERTEX
  5
36A4
  8
0
 10
22.9937528549281787
 20
78.1934129334506736
 30
0.0
  0
VERTEX
  5
36A5
  8
0
 10
23.0058745692338107
 20
78.1933289666469875
 30
0.0
  0
VERTEX
  5
36A6
  8
0
 10
23.0179965016499217
 20
78.1932869829933281
 30
0.0
  0
VERTEX
  5
36A7
  8
0
 10
23.02405750420996
 20
78.1932817350248257
 30
0.0
  0
VERTEX
  5
36A8
  8
0
 10
23.0301185067700089
 20
78.1932869829933281
 30
0.0
  0
VERTEX
  5
36A9
  8
0
 10
23.0422404391862301
 20
78.1933289666469875
 30
0.0
  0
VERTEX
  5
36AA
  8
0
 10
23.0543621534917484
 20
78.1934129334506736
 30
0.0
  0
VERTEX
  5
36AB
  8
0
 10
23.0604228834140486
 20
78.1934706602387735
 30
0.0
  0
VERTEX
  5
36AC
  8
0
 10
23.0664835042824699
 20
78.1935388823972346
 30
0.0
  0
VERTEX
  5
36AD
  8
0
 10
23.0786043461586097
 20
78.1937068119758862
 30
0.0
  0
VERTEX
  5
36AE
  8
0
 10
23.0907245337264193
 20
78.1939167201720977
 30
0.0
  0
VERTEX
  5
36AF
  8
0
 10
23.1028439216000798
 20
78.1941686044680466
 30
0.0
  0
VERTEX
  5
36B0
  8
0
 10
23.1149623644031408
 20
78.1944624618423916
 30
0.0
  0
VERTEX
  5
36B1
  8
0
 10
23.127079716770929
 20
78.1947982887700448
 30
0.0
  0
VERTEX
  5
36B2
  8
0
 10
23.1331379386185709
 20
78.1949819395771613
 30
0.0
  0
VERTEX
  5
36B3
  8
0
 10
23.1391958333514403
 20
78.1951760812227405
 30
0.0
  0
VERTEX
  5
36B4
  8
0
 10
23.1513105688076202
 20
78.1955958346686941
 30
0.0
  0
VERTEX
  5
36B5
  8
0
 10
23.1634237778191583
 20
78.1960575440728292
 30
0.0
  0
VERTEX
  5
36B6
  8
0
 10
23.1755353150837209
 20
78.1965612038967635
 30
0.0
  0
VERTEX
  5
36B7
  8
0
 10
23.1876450353192887
 20
78.19710680809888
 30
0.0
  0
VERTEX
  5
36B8
  8
0
 10
23.1997527932655885
 20
78.1976943501346398
 30
0.0
  0
VERTEX
  5
36B9
  8
0
 10
23.2058058909927887
 20
78.1980038456572686
 30
0.0
  0
VERTEX
  5
36BA
  8
0
 10
23.2118584436858484
 20
78.1983238229560413
 30
0.0
  0
VERTEX
  5
36BB
  8
0
 10
23.2239618413685811
 20
78.1989952190125734
 30
0.0
  0
VERTEX
  5
36BC
  8
0
 10
23.2360628411291792
 20
78.1997085302504331
 30
0.0
  0
VERTEX
  5
36BD
  8
0
 10
23.2481612978120893
 20
78.2004637481132079
 30
0.0
  0
VERTEX
  5
36BE
  8
0
 10
23.2602570662921799
 20
78.2012608635419895
 30
0.0
  0
VERTEX
  5
36BF
  8
0
 10
23.2723500014764113
 20
78.2020998669748053
 30
0.0
  0
VERTEX
  5
36C0
  8
0
 10
23.2783953612503183
 20
78.2025350735673612
 30
0.0
  0
VERTEX
  5
36C1
  8
0
 10
23.2844399583058212
 20
78.2029807483477555
 30
0.0
  0
VERTEX
  5
36C2
  8
0
 10
23.2965267917571701
 20
78.2039034970942168
 30
0.0
  0
VERTEX
  5
36C3
  8
0
 10
23.3086103568447207
 20
78.2048681021456389
 30
0.0
  0
VERTEX
  5
36C4
  8
0
 10
23.3206905086218512
 20
78.2058745519310889
 30
0.0
  0
VERTEX
  5
36C5
  8
0
 10
23.3327671021829701
 20
78.2069228343780338
 30
0.0
  0
VERTEX
  5
36C6
  8
0
 10
23.3448399926651291
 20
78.2080129369117287
 30
0.0
  0
VERTEX
  5
36C7
  8
0
 10
23.3508750039941404
 20
78.2085736666445257
 30
0.0
  0
VERTEX
  5
36C8
  8
0
 10
23.3569090352499416
 20
78.209144846456212
 30
0.0
  0
VERTEX
  5
36C9
  8
0
 10
23.3689740851648402
 20
78.2103185494337652
 30
0.0
  0
VERTEX
  5
36CA
  8
0
 10
23.3810349976855605
 20
78.2115340317655239
 30
0.0
  0
VERTEX
  5
36CB
  8
0
 10
23.3930916281370891
 20
78.2127912788710375
 30
0.0
  0
VERTEX
  5
36CC
  8
0
 10
23.4051438318960017
 20
78.2140902756695198
 30
0.0
  0
VERTEX
  5
36CD
  8
0
 10
23.4171914643919692
 20
78.2154310065789389
 30
0.0
  0
VERTEX
  5
36CE
  8
0
 10
23.4232135212531603
 20
78.2161170173190214
 30
0.0
  0
VERTEX
  5
36CF
  8
0
 10
23.4292343811094987
 20
78.2168134555167001
 30
0.0
  0
VERTEX
  5
36D0
  8
0
 10
23.4412724375894186
 20
78.2182376058999864
 30
0.0
  0
VERTEX
  5
36D1
  8
0
 10
23.4533054894312691
 20
78.2197034406455316
 30
0.0
  0
VERTEX
  5
36D2
  8
0
 10
23.4593200935040613
 20
78.2204519841788226
 30
0.0
  0
VERTEX
  5
36D3
  8
0
 10
23.4653333922943794
 20
78.2212109421700745
 30
0.0
  0
VERTEX
  5
36D4
  8
0
 10
23.4773560018998104
 20
78.2227600923907005
 30
0.0
  0
VERTEX
  5
36D5
  8
0
 10
23.4893731740321492
 20
78.2243508727247274
 30
0.0
  0
VERTEX
  5
36D6
  8
0
 10
23.4953796759963289
 20
78.22516186824069
 30
0.0
  0
VERTEX
  5
36D7
  8
0
 10
23.5013847645412817
 20
78.225983264090388
 30
0.0
  0
VERTEX
  5
36D8
  8
0
 10
23.5133906293439203
 20
78.2276572469063751
 30
0.0
  0
VERTEX
  5
36D9
  8
0
 10
23.5253906244257713
 20
78.2293728010927509
 30
0.0
  0
VERTEX
  5
36DA
  8
0
 10
23.5673423056222191
 20
78.2357043136857158
 30
0.0
  0
VERTEX
  5
36DB
  8
0
 10
23.6390703354146616
 20
78.2477398012423748
 30
0.0
  0
VERTEX
  5
36DC
  8
0
 10
23.6748366918588999
 20
78.2543158368335128
 30
0.0
  0
SEQEND
  5
36DD
  8
0
  0
POLYLINE
  5
2D44
  8
0
 66
     1
 10
0.0
 20
0.0
 30
0.0
  0
VERTEX
  5
36DE
  8
0
 10
23.6748366918588999
 20
78.2543158368335128
 30
0.0
  0
VERTEX
  5
36DF
  8
0
 10
23.7656888189603706
 20
78.2727579457520335
 30
0.0
  0
VERTEX
  5
36E0
  8
0
 10
23.9552264441035696
 20
78.3194227567363725
 30
0.0
  0
VERTEX
  5
36E1
  8
0
 10
24.1522971031394107
 20
78.3801147595454779
 30
0.0
  0
VERTEX
  5
36E2
  8
0
 10
24.2536077014969997
 20
78.4163614869334253
 30
0.0
  0
VERTEX
  5
36E3
  8
0
 10
24.3564792064593085
 20
78.4568249676053995
 30
0.0
  0
VERTEX
  5
36E4
  8
0
 10
24.5651851718906684
 20
78.5508423144617893
 30
0.0
  0
VERTEX
  5
36E5
  8
0
 10
24.775000505927661
 20
78.6627374596947959
 30
0.0
  0
VERTEX
  5
36E6
  8
0
 10
24.9825985269799311
 20
78.7925719835799612
 30
0.0
  0
VERTEX
  5
36E7
  8
0
 10
25.1847456609912115
 20
78.9398426692117852
 30
0.0
  0
VERTEX
  5
36E8
  8
0
 10
25.3790062427620988
 20
79.1040315658075457
 30
0.0
  0
VERTEX
  5
36E9
  8
0
 10
25.47441954364092
 20
79.1941367060767618
 30
0.0
  0
VERTEX
  5
36EA
  8
0
 10
25.5685890931857784
 20
79.2900840750924232
 30
0.0
  0
VERTEX
  5
36EB
  8
0
 10
25.7511397272044213
 20
79.4994215414327812
 30
0.0
  0
VERTEX
  5
36EC
  8
0
 10
25.9226418357698094
 20
79.731596522551655
 30
0.0
  0
VERTEX
  5
36ED
  8
0
 10
26.0160432048143093
 20
79.8772361498648991
 30
0.0
  0
VERTEX
  5
36EE
  8
0
 10
26.0416932849726699
 20
79.9201843618776877
 30
0.0
  0
VERTEX
  5
36EF
  8
0
 10
26.0668518062722114
 20
79.9637144957022485
 30
0.0
  0
VERTEX
  5
36F0
  8
0
 10
26.0792415197107594
 20
79.9856955347326277
 30
0.0
  0
VERTEX
  5
36F1
  8
0
 10
26.0915021140666603
 20
80.0078193161435962
 30
0.0
  0
VERTEX
  5
36F2
  8
0
 10
26.1156277636782796
 20
80.0524912758950649
 30
0.0
  0
VERTEX
  5
36F3
  8
0
 10
26.1392125320088518
 20
80.0977225375083037
 30
0.0
  0
VERTEX
  5
36F4
  8
0
 10
26.1622404619683984
 20
80.1435050660706167
 30
0.0
  0
VERTEX
  5
36F5
  8
0
 10
26.1846978983161307
 20
80.1898349288009342
 30
0.0
  0
VERTEX
  5
36F6
  8
0
 10
26.2065702688569218
 20
80.2367061266683237
 30
0.0
  0
VERTEX
  5
36F7
  8
0
 10
26.2172821196538699
 20
80.2603419054007787
 30
0.0
  0
VERTEX
  5
36F8
  8
0
 10
26.2278418018731898
 20
80.2841095759020078
 30
0.0
  0
VERTEX
  5
36F9
  8
0
 10
26.2484968884600711
 20
80.3320357406149981
 30
0.0
  0
VERTEX
  5
36FA
  8
0
 10
26.2685201015988312
 20
80.380474645561705
 30
0.0
  0
VERTEX
  5
36FB
  8
0
 10
26.2878962147101412
 20
80.4294158909413142
 30
0.0
  0
VERTEX
  5
36FC
  8
0
 10
26.3066102195762106
 20
80.4788486694169762
 30
0.0
  0
VERTEX
  5
36FD
  8
0
 10
26.3246473434973005
 20
80.5287617855205156
 30
0.0
  0
VERTEX
  5
36FE
  8
0
 10
26.3334075270506709
 20
80.553894870819164
 30
0.0
  0
VERTEX
  5
36FF
  8
0
 10
26.3419930655239796
 20
80.5791436776155763
 30
0.0
  0
VERTEX
  5
3700
  8
0
 10
26.3586331315871085
 20
80.629982442585316
 30
0.0
  0
VERTEX
  5
3701
  8
0
 10
26.3745535683159495
 20
80.6812658634051161
 30
0.0
  0
VERTEX
  5
3702
  8
0
 10
26.3822396388125107
 20
80.70707042357256
 30
0.0
  0
VERTEX
  5
3703
  8
0
 10
26.3897406953165117
 20
80.7329814397508301
 30
0.0
  0
VERTEX
  5
3704
  8
0
 10
26.4041811356487415
 20
80.7851164217755837
 30
0.0
  0
VERTEX
  5
3705
  8
0
 10
26.4178618242211805
 20
80.8376578471669802
 30
0.0
  0
VERTEX
  5
3706
  8
0
 10
26.4244132655583108
 20
80.8640768771849991
 30
0.0
  0
VERTEX
  5
3707
  8
0
 10
26.4307700138177815
 20
80.8905925816896172
 30
0.0
  0
VERTEX
  5
3708
  8
0
 10
26.4428932710546896
 20
80.9439073297081961
 30
0.0
  0
VERTEX
  5
3709
  8
0
 10
26.4542194301319604
 20
80.9975884391283643
 30
0.0
  0
VERTEX
  5
370A
  8
0
 10
26.464736579022091
 20
81.0516217751158194
 30
0.0
  0
VERTEX
  5
370B
  8
0
 10
26.4744330827326202
 20
81.1059927370561553
 30
0.0
  0
VERTEX
  5
370C
  8
0
 10
26.4832976067202708
 20
81.1606862851899962
 30
0.0
  0
VERTEX
  5
370D
  8
0
 10
26.4874144217923302
 20
81.1881492163383029
 30
0.0
  0
VERTEX
  5
370E
  8
0
 10
26.4913191385253413
 20
81.2156869703918858
 30
0.0
  0
VERTEX
  5
370F
  8
0
 10
26.4984870073482206
 20
81.2709789671884266
 30
0.0
  0
VERTEX
  5
3710
  8
0
 10
26.5047909012684002
 20
81.3265461100825462
 30
0.0
  0
VERTEX
  5
3711
  8
0
 10
26.5102208817850205
 20
81.3823719332259827
 30
0.0
  0
VERTEX
  5
3712
  8
0
 10
26.514767395340531
 20
81.4384397134431453
 30
0.0
  0
VERTEX
  5
3713
  8
0
 10
26.5184212814734792
 20
81.4947325165692575
 30
0.0
  0
VERTEX
  5
3714
  8
0
 10
26.519910735268919
 20
81.522957964238941
 30
0.0
  0
VERTEX
  5
3715
  8
0
 10
26.5211737772348215
 20
81.5512332470197236
 30
0.0
  0
VERTEX
  5
3716
  8
0
 10
26.5230165174950798
 20
81.6079247004505675
 30
0.0
  0
VERTEX
  5
3717
  8
0
 10
26.523941530766141
 20
81.6647896193152576
 30
0.0
  0
VERTEX
  5
3718
  8
0
 10
26.52405750420996
 20
81.6932817350248257
 30
0.0
  0
SEQEND
  5
3719
  8
0
  0
LINE
  5
2D45
  8
0
 10
18.9425444730825312
 20
97.4022609790517038
 30
0.0
 11
19.02604376259535
 21
95.1466131506524846
 31
0.0
  0
POLYLINE
  5
2D46
  8
0
 66
     1
 10
0.0
 20
0.0
 30
0.0
  0
VERTEX
  5
371A
  8
0
 10
19.02604376259535
 20
95.1466131506524846
 30
0.0
  0
VERTEX
  5
371B
  8
0
 10
19.0286099464676717
 20
95.077290320331727
 30
0.0
  0
VERTEX
  5
371C
  8
0
 10
19.0337417119256997
 20
94.9386609298450423
 30
0.0
  0
VERTEX
  5
371D
  8
0
 10
19.0388716706653405
 20
94.8000803460047621
 30
0.0
  0
VERTEX
  5
371E
  8
0
 10
19.0414355962391184
 20
94.7308185213071567
 30
0.0
  0
VERTEX
  5
371F
  8
0
 10
19.0439986186789803
 20
94.6615810938473459
 30
0.0
  0
VERTEX
  5
3720
  8
0
 10
19.0491213526653382
 20
94.5231956793203665
 30
0.0
  0
VERTEX
  5
3721
  8
0
 10
19.0542386703125395
 20
94.3849565816538245
 30
0.0
  0
VERTEX
  5
3722
  8
0
 10
19.0593493705796391
 20
94.2468962457369628
 30
0.0
  0
VERTEX
  5
3723
  8
0
 10
19.0644522539788603
 20
94.1090470745032661
 30
0.0
  0
VERTEX
  5
3724
  8
0
 10
19.0695461228569911
 20
93.9714414213257356
 30
0.0
  0
VERTEX
  5
3725
  8
0
 10
19.0720893031549394
 20
93.9027400090162985
 30
0.0
  0
VERTEX
  5
3726
  8
0
 10
19.0746297816768902
 20
93.8341115824232759
 30
0.0
  0
VERTEX
  5
3727
  8
0
 10
19.0797020372972383
 20
93.6970897892807955
 30
0.0
  0
VERTEX
  5
3728
  8
0
 10
19.0847616992533595
 20
93.5604082010847975
 30
0.0
  0
VERTEX
  5
3729
  8
0
 10
19.0898075800363287
 20
93.4240988971747868
 30
0.0
  0
VERTEX
  5
372A
  8
0
 10
19.0948384953716186
 20
93.2881938695151263
 30
0.0
  0
VERTEX
  5
372B
  8
0
 10
19.0998532644970282
 20
93.1527250151856663
 30
0.0
  0
VERTEX
  5
372C
  8
0
 10
19.1023542262714692
 20
93.0851640930695936
 30
0.0
  0
VERTEX
  5
372D
  8
0
 10
19.1048507104400187
 20
93.0177241288960346
 30
0.0
  0
VERTEX
  5
372E
  8
0
 10
19.109829660293709
 20
92.8832228955233461
 30
0.0
  0
VERTEX
  5
372F
  8
0
 10
19.1147889454923607
 20
92.7492528826750515
 30
0.0
  0
VERTEX
  5
3730
  8
0
 10
19.1172608499238095
 20
92.6824769149352647
 30
0.0
  0
SEQEND
  5
3731
  8
0
  0
LINE
  5
2D47
  8
0
 10
19.1172608499238095
 20
92.6824769149352647
 30
0.0
 11
19.4883153007932606
 21
82.658820771219581
 31
0.0
  0
POLYLINE
  5
2D48
  8
0
 66
     1
 10
0.0
 20
0.0
 30
0.0
  0
VERTEX
  5
3732
  8
0
 10
19.4883153007932606
 20
82.658820771219581
 30
0.0
  0
VERTEX
  5
3733
  8
0
 10
19.4944216727880111
 20
82.4938633828433296
 30
0.0
  0
VERTEX
  5
3734
  8
0
 10
19.5064693414091117
 20
82.1684079481774745
 30
0.0
  0
VERTEX
  5
3735
  8
0
 10
19.5182654263913911
 20
81.8497487879747467
 30
0.0
  0
VERTEX
  5
3736
  8
0
 10
19.52405750420996
 20
81.6932817350248257
 30
0.0
  0
SEQEND
  5
3737
  8
0
  0
ARC
  5
2D49
  8
0
 10
23.9391221822278411
 20
97.5872236684647731
 30
0.0
 40
5.0000000000002958
 50
170.4512123407214119
 51
182.1199999999998909
  0
ARC
  5
2D4A
  8
0
 10
22.1089928261925515
 20
97.5872236684647731
 30
0.0
 40
4.9999999999999218
 50
357.8800000000001091
 51
9.5487876592785685
  0
POLYLINE
  5
2D4B
  8
0
 66
     1
 10
0.0
 20
0.0
 30
0.0
  0
VERTEX
  5
3738
  8
0
 10
27.0397163516236105
 20
98.4166605351161934
 30
0.0
  0
VERTEX
  5
3739
  8
0
 10
26.9684258108569601
 20
98.8607869619235089
 30
0.0
  0
VERTEX
  5
373A
  8
0
 10
26.8457471144114415
 20
99.7529204440522932
 30
0.0
  0
VERTEX
  5
373B
  8
0
 10
26.7498878013736885
 20
100.648471255933103
 30
0.0
  0
VERTEX
  5
373C
  8
0
 10
26.7120768477457204
 20
101.0968903904798992
 30
0.0
  0
VERTEX
  5
373D
  8
0
 10
26.6810187673170311
 20
101.5454637783740992
 30
0.0
  0
VERTEX
  5
373E
  8
0
 10
26.63914226925829
 20
102.4420413065535058
 30
0.0
  0
VERTEX
  5
373F
  8
0
 10
26.6241119971422293
 20
103.3361015552228963
 30
0.0
  0
VERTEX
  5
3740
  8
0
 10
26.6356036867039201
 20
104.2255302768086977
 30
0.0
  0
VERTEX
  5
3741
  8
0
 10
26.6731152136263816
 20
105.1082324358107059
 30
0.0
  0
VERTEX
  5
3742
  8
0
 10
26.7359707509797317
 20
105.9821560524417947
 30
0.0
  0
VERTEX
  5
3743
  8
0
 10
26.7766447846133815
 20
106.4151940345560945
 30
0.0
  0
VERTEX
  5
3744
  8
0
 10
26.8233240139018108
 20
106.8452787569852944
 30
0.0
  0
VERTEX
  5
3745
  8
0
 10
26.9341561294807015
 20
107.6955783727337064
 30
0.0
  0
VERTEX
  5
3746
  8
0
 10
27.0672760315556005
 20
108.5310506066021929
 30
0.0
  0
VERTEX
  5
3747
  8
0
 10
27.2213246993218299
 20
109.3497323227781948
 30
0.0
  0
VERTEX
  5
3748
  8
0
 10
27.3967238438507401
 20
110.158114852406797
 30
0.0
  0
VERTEX
  5
3749
  8
0
 10
27.5969766760060793
 20
110.971446327649403
 30
0.0
  0
VERTEX
  5
374A
  8
0
 10
27.7065803994618101
 20
111.3794897148084004
 30
0.0
  0
VERTEX
  5
374B
  8
0
 10
27.8225454637931797
 20
111.7880958595736018
 30
0.0
  0
VERTEX
  5
374C
  8
0
 10
27.9469406002230016
 20
112.1932817350247973
 30
0.0
  0
SEQEND
  5
374D
  8
0
  0
POLYLINE
  5
2D4C
  8
0
 66
     1
 10
0.0
 20
0.0
 30
0.0
  0
VERTEX
  5
374E
  8
0
 10
18.1011744081971493
 20
112.1932817350247973
 30
0.0
  0
VERTEX
  5
374F
  8
0
 10
18.2255695446323216
 20
111.7880958595549998
 30
0.0
  0
VERTEX
  5
3750
  8
0
 10
18.3415346089633395
 20
111.3794897147903953
 30
0.0
  0
VERTEX
  5
3751
  8
0
 10
18.4511383324186191
 20
110.9714463276319947
 30
0.0
  0
VERTEX
  5
3752
  8
0
 10
18.6513911645730488
 20
110.1581148523906961
 30
0.0
  0
VERTEX
  5
3753
  8
0
 10
18.8267903091013906
 20
109.3497323227633018
 30
0.0
  0
VERTEX
  5
3754
  8
0
 10
18.9808389768669485
 20
108.5310506065881953
 30
0.0
  0
VERTEX
  5
3755
  8
0
 10
19.1139588789413892
 20
107.6955783727207034
 30
0.0
  0
VERTEX
  5
3756
  8
0
 10
19.2247909945197115
 20
106.8452787569733005
 30
0.0
  0
VERTEX
  5
3757
  8
0
 10
19.2714702238079099
 20
106.4151940345446974
 30
0.0
  0
VERTEX
  5
3758
  8
0
 10
19.3121442574413287
 20
105.982156052430895
 30
0.0
  0
VERTEX
  5
3759
  8
0
 10
19.3749997947943484
 20
105.1082324358009998
 30
0.0
  0
VERTEX
  5
375A
  8
0
 10
19.4125113217164618
 20
104.2255302768002991
 30
0.0
  0
VERTEX
  5
375B
  8
0
 10
19.4240030112778186
 20
103.3361015552158051
 30
0.0
  0
VERTEX
  5
375C
  8
0
 10
19.4089727391616407
 20
102.4420413065474946
 30
0.0
  0
VERTEX
  5
375D
  8
0
 10
19.3670962411028995
 20
101.5454637783695944
 30
0.0
  0
VERTEX
  5
375E
  8
0
 10
19.3360381606742102
 20
101.0968903904760055
 30
0.0
  0
VERTEX
  5
375F
  8
0
 10
19.2982272070462386
 20
100.648471255929806
 30
0.0
  0
VERTEX
  5
3760
  8
0
 10
19.2023678940083684
 20
99.7529204440502326
 30
0.0
  0
VERTEX
  5
3761
  8
0
 10
19.0796891975630807
 20
98.8607869619228268
 30
0.0
  0
VERTEX
  5
3762
  8
0
 10
19.0083986567965404
 20
98.4166605351161934
 30
0.0
  0
SEQEND
  5
3763
  8
0
  0
LINE
  5
2D4D
  8
1
 10
187.6396912511974051
 20
75.1928571681453093
 30
0.0
 11
187.6396912511974051
 21
127.7032817350248024
 31
0.0
  0
POLYLINE
  5
2D4E
  8
0
 66
     1
 10
0.0
 20
0.0
 30
0.0
  0
VERTEX
  5
3764
  8
0
 10
191.65535009861091
 20
98.416660535116236
 30
0.0
  0
VERTEX
  5
3765
  8
0
 10
191.5840595578443981
 20
98.8607869619235373
 30
0.0
  0
VERTEX
  5
3766
  8
0
 10
191.4613808613989079
 20
99.7529204440523074
 30
0.0
  0
VERTEX
  5
3767
  8
0
 10
191.3655215483609879
 20
100.648471255933103
 30
0.0
  0
VERTEX
  5
3768
  8
0
 10
191.3277105947329915
 20
101.0968903904799987
 30
0.0
  0
VERTEX
  5
3769
  8
0
 10
191.2966525143042986
 20
101.5454637783740992
 30
0.0
  0
VERTEX
  5
376A
  8
0
 10
191.2547760162456996
 20
102.4420413065535058
 30
0.0
  0
VERTEX
  5
376B
  8
0
 10
191.2397457441296069
 20
103.3361015552229958
 30
0.0
  0
VERTEX
  5
376C
  8
0
 10
191.2512374336911876
 20
104.2255302768086977
 30
0.0
  0
VERTEX
  5
376D
  8
0
 10
191.2887489606137876
 20
105.1082324358107059
 30
0.0
  0
VERTEX
  5
376E
  8
0
 10
191.3516044979670028
 20
105.9821560524418942
 30
0.0
  0
VERTEX
  5
376F
  8
0
 10
191.3922785316007094
 20
106.415194034556194
 30
0.0
  0
VERTEX
  5
3770
  8
0
 10
191.4389577608891102
 20
106.8452787569852944
 30
0.0
  0
VERTEX
  5
3771
  8
0
 10
191.5497898764679974
 20
107.6955783727337064
 30
0.0
  0
VERTEX
  5
3772
  8
0
 10
191.6829097785428928
 20
108.5310506066021929
 30
0.0
  0
VERTEX
  5
3773
  8
0
 10
191.8369584463092963
 20
109.3497323227781948
 30
0.0
  0
VERTEX
  5
3774
  8
0
 10
192.0123575908382065
 20
110.158114852406797
 30
0.0
  0
VERTEX
  5
3775
  8
0
 10
192.2126104229934072
 20
110.9714463276495025
 30
0.0
  0
VERTEX
  5
3776
  8
0
 10
192.3222141464491983
 20
111.3794897148084004
 30
0.0
  0
VERTEX
  5
3777
  8
0
 10
192.438179210780504
 20
111.7880958595737013
 30
0.0
  0
VERTEX
  5
3778
  8
0
 10
192.6892658158909057
 20
112.6059473353278975
 30
0.0
  0
VERTEX
  5
3779
  8
0
 10
192.9659241089563011
 20
113.4229423268058952
 30
0.0
  0
VERTEX
  5
377A
  8
0
 10
193.1138213039043023
 20
113.8304959087377028
 30
0.0
  0
SEQEND
  5
377B
  8
0
  0
POLYLINE
  5
2D4F
  8
0
 66
     1
 10
0.0
 20
0.0
 30
0.0
  0
VERTEX
  5
377C
  8
0
 10
183.5581782200698058
 20
97.4022609790517038
 30
0.0
  0
VERTEX
  5
377D
  8
0
 10
183.654492535570995
 20
94.8004283422585843
 30
0.0
  0
VERTEX
  5
377E
  8
0
 10
183.8479519780520093
 20
89.5743195470651159
 30
0.0
  0
VERTEX
  5
377F
  8
0
 10
184.0422851148761083
 20
84.3246087935879416
 30
0.0
  0
VERTEX
  5
3780
  8
0
 10
184.1396912511974051
 20
81.6932817350248257
 30
0.0
  0
SEQEND
  5
3781
  8
0
  0
POLYLINE
  5
2D50
  8
0
 66
     1
 10
0.0
 20
0.0
 30
0.0
  0
VERTEX
  5
3782
  8
0
 10
184.1396912511974051
 20
81.6932817350248257
 30
0.0
  0
VERTEX
  5
3783
  8
0
 10
184.1397630390769109
 20
81.670865000125815
 30
0.0
  0
VERTEX
  5
3784
  8
0
 10
184.1403402603673953
 20
81.6258826031508136
 30
0.0
  0
VERTEX
  5
3785
  8
0
 10
184.1415018945154998
 20
81.5807152000443523
 30
0.0
  0
VERTEX
  5
3786
  8
0
 10
184.1423040777704898
 20
81.5580672419058743
 30
0.0
  0
VERTEX
  5
3787
  8
0
 10
184.1432549530424012
 20
81.5353791924765403
 30
0.0
  0
VERTEX
  5
3788
  8
0
 10
184.1456059277417125
 20
81.4898910950930997
 30
0.0
  0
VERTEX
  5
3789
  8
0
 10
184.1485607879033921
 20
81.444267501975574
 30
0.0
  0
VERTEX
  5
378A
  8
0
 10
184.1521249796199982
 20
81.3985250534132234
 30
0.0
  0
VERTEX
  5
378B
  8
0
 10
184.1563034271721904
 20
81.3526804029170449
 30
0.0
  0
VERTEX
  5
378C
  8
0
 10
184.1611005364989921
 20
81.3067501844194851
 30
0.0
  0
VERTEX
  5
378D
  8
0
 10
184.1637323257741912
 20
81.2837581718788726
 30
0.0
  0
VERTEX
  5
378E
  8
0
 10
184.1665202007571907
 20
81.2607509796062146
 30
0.0
  0
VERTEX
  5
378F
  8
0
 10
184.1725658080011954
 20
81.2146992853461285
 30
0.0
  0
VERTEX
  5
3790
  8
0
 10
184.1792402510043871
 20
81.1686114811860051
 30
0.0
  0
VERTEX
  5
3791
  8
0
 10
184.1865459392614071
 20
81.1225037968956855
 30
0.0
  0
VERTEX
  5
3792
  8
0
 10
184.1944848132102948
 20
81.0763922800552166
 30
0.0
  0
VERTEX
  5
3793
  8
0
 10
184.2030583607233041
 20
81.0302927636898005
 30
0.0
  0
VERTEX
  5
3794
  8
0
 10
184.2075834854560128
 20
81.0072523738919301
 30
0.0
  0
VERTEX
  5
3795
  8
0
 10
184.2122676501045078
 20
80.9842207653815933
 30
0.0
  0
VERTEX
  5
3796
  8
0
 10
184.2221132849155083
 20
80.9381917772159767
 30
0.0
  0
VERTEX
  5
3797
  8
0
 10
184.2325953331394999
 20
80.8922215592872647
 30
0.0
  0
VERTEX
  5
3798
  8
0
 10
184.2380749052246074
 20
80.8692633888632741
 30
0.0
  0
SEQEND
  5
3799
  8
0
  0
POLYLINE
  5
2D51
  8
0
 66
     1
 10
0.0
 20
0.0
 30
0.0
  0
VERTEX
  5
379A
  8
0
 10
184.2380749052246074
 20
80.8692633888632741
 30
0.0
  0
VERTEX
  5
379B
  8
0
 10
184.249912658422204
 20
80.8218455113328957
 30
0.0
  0
VERTEX
  5
379C
  8
0
 10
184.2756270409479953
 20
80.7273252197927889
 30
0.0
  0
VERTEX
  5
379D
  8
0
 10
184.3040073168976107
 20
80.6334644439532582
 30
0.0
  0
VERTEX
  5
379E
  8
0
 10
184.3191775245591941
 20
80.5868511718138336
 30
0.0
  0
VERTEX
  5
379F
  8
0
 10
184.3349845831156983
 20
80.540496482718396
 30
0.0
  0
VERTEX
  5
37A0
  8
0
 10
184.3684474548163905
 20
80.4487079024865039
 30
0.0
  0
VERTEX
  5
37A1
  8
0
 10
184.4042554665998921
 20
80.3583827561707551
 30
0.0
  0
VERTEX
  5
37A2
  8
0
 10
184.4422434698101938
 20
80.2697903633254839
 30
0.0
  0
VERTEX
  5
37A3
  8
0
 10
184.4822249318000047
 20
80.1831802676156542
 30
0.0
  0
VERTEX
  5
37A4
  8
0
 10
184.5239906188483872
 20
80.0987882199612358
 30
0.0
  0
VERTEX
  5
37A5
  8
0
 10
184.5454704846885079
 20
80.0574951205468608
 30
0.0
  0
VERTEX
  5
37A6
  8
0
 10
184.5673071402210041
 20
80.0168403031160835
 30
0.0
  0
VERTEX
  5
37A7
  8
0
 10
184.6119197680102957
 20
79.9375483140300105
 30
0.0
  0
VERTEX
  5
37A8
  8
0
 10
184.6576303184465928
 20
79.8609846539373223
 30
0.0
  0
VERTEX
  5
37A9
  8
0
 10
184.7051930816489005
 20
79.7857386836323315
 30
0.0
  0
VERTEX
  5
37AA
  8
0
 10
184.7548278675103859
 20
79.711473657167204
 30
0.0
  0
VERTEX
  5
37AB
  8
0
 10
184.8064629163424115
 20
79.6383322946311694
 30
0.0
  0
VERTEX
  5
37AC
  8
0
 10
184.8330058571276027
 20
79.6022252798531156
 30
0.0
  0
VERTEX
  5
37AD
  8
0
 10
184.8600183630005915
 20
79.5664487292098386
 30
0.0
  0
VERTEX
  5
37AE
  8
0
 10
184.9154077432023087
 20
79.4959471296299682
 30
0.0
  0
VERTEX
  5
37AF
  8
0
 10
184.9725394636166982
 20
79.4269407761209152
 30
0.0
  0
VERTEX
  5
37B0
  8
0
 10
185.0017287031703859
 20
79.3930309671287944
 30
0.0
  0
VERTEX
  5
37B1
  8
0
 10
185.0313166571789907
 20
79.3595332530159396
 30
0.0
  0
VERTEX
  5
37B2
  8
0
 10
185.0916355043680994
 20
79.2938209808030763
 30
0.0
  0
VERTEX
  5
37B3
  8
0
 10
185.1533858692102115
 20
79.2298926980471663
 30
0.0
  0
VERTEX
  5
37B4
  8
0
 10
185.1847620108351862
 20
79.1986229557898298
 30
0.0
  0
VERTEX
  5
37B5
  8
0
 10
185.2164524532535097
 20
79.1678285621982525
 30
0.0
  0
VERTEX
  5
37B6
  8
0
 10
185.2807159138745874
 20
79.1076995263332634
 30
0.0
  0
VERTEX
  5
37B7
  8
0
 10
185.3460599494700034
 20
79.0495617325026529
 30
0.0
  0
VERTEX
  5
37B8
  8
0
 10
185.4123691023679044
 20
78.9934602510496973
 30
0.0
  0
VERTEX
  5
37B9
  8
0
 10
185.4795174810450078
 20
78.9394390955942811
 30
0.0
  0
VERTEX
  5
37BA
  8
0
 10
185.5473736036246066
 20
78.8875364041626028
 30
0.0
  0
VERTEX
  5
37BB
  8
0
 10
185.5815246753244026
 20
78.8623895883758053
 30
0.0
  0
VERTEX
  5
37BC
  8
0
 10
185.6158012984828076
 20
78.8377836244843735
 30
0.0
  0
VERTEX
  5
37BD
  8
0
 10
185.684660532159711
 20
78.79020493831095
 30
0.0
  0
VERTEX
  5
37BE
  8
0
 10
185.7538081690908029
 20
78.7448168801173836
 30
0.0
  0
VERTEX
  5
37BF
  8
0
 10
185.8230986683109904
 20
78.7016281140651301
 30
0.0
  0
VERTEX
  5
37C0
  8
0
 10
185.8923847244282967
 20
78.6606393391083714
 30
0.0
  0
VERTEX
  5
37C1
  8
0
 10
185.9615178617233084
 20
78.6218432976047836
 30
0.0
  0
VERTEX
  5
37C2
  8
0
 10
185.9959805048814019
 20
78.603263129507269
 30
0.0
  0
VERTEX
  5
37C3
  8
0
 10
186.0303489915505111
 20
78.5852248675729754
 30
0.0
  0
VERTEX
  5
37C4
  8
0
 10
186.0991541941019136
 20
78.5505527337083151
 30
0.0
  0
VERTEX
  5
37C5
  8
0
 10
186.1693932204015027
 20
78.5170853146758247
 30
0.0
  0
VERTEX
  5
37C6
  8
0
 10
186.2410742382980118
 20
78.4848755183452624
 30
0.0
  0
VERTEX
  5
37C7
  8
0
 10
186.3140516950120968
 20
78.4540411192204203
 30
0.0
  0
VERTEX
  5
37C8
  8
0
 10
186.3881836457439078
 20
78.4246843732361469
 30
0.0
  0
VERTEX
  5
37C9
  8
0
 10
186.4256397761135986
 20
78.410587869333682
 30
0.0
  0
VERTEX
  5
37CA
  8
0
 10
186.4633341389074985
 20
78.3968922033758702
 30
0.0
  0
VERTEX
  5
37CB
  8
0
 10
186.5393749178921041
 20
78.3707369322176248
 30
0.0
  0
VERTEX
  5
37CC
  8
0
 10
186.6161871794288913
 20
78.3462771913957852
 30
0.0
  0
VERTEX
  5
37CD
  8
0
 10
186.6936654446336092
 20
78.3235584269007461
 30
0.0
  0
VERTEX
  5
37CE
  8
0
 10
186.7717216834884084
 20
78.3026138318631695
 30
0.0
  0
VERTEX
  5
37CF
  8
0
 10
186.8502700619746122
 20
78.2834702760133325
 30
0.0
  0
VERTEX
  5
37D0
  8
0
 10
186.8896877264672014
 20
78.2745839254937721
 30
0.0
  0
VERTEX
  5
37D1
  8
0
 10
186.9292031538369088
 20
78.2661536861318439
 30
0.0
  0
VERTEX
  5
37D2
  8
0
 10
187.0085665466947944
 20
78.2506545975952861
 30
0.0
  0
VERTEX
  5
37D3
  8
0
 10
187.088476497005388
 20
78.2369596587765557
 30
0.0
  0
VERTEX
  5
37D4
  8
0
 10
187.1691117637247999
 20
78.2250610174277341
 30
0.0
  0
VERTEX
  5
37D5
  8
0
 10
187.2507051719369997
 20
78.2149646376138037
 30
0.0
  0
VERTEX
  5
37D6
  8
0
 10
187.2988529226992114
 20
78.2099170923515032
 30
0.0
  0
VERTEX
  5
37D7
  8
0
 10
187.3126964324623032
 20
78.2085903012648771
 30
0.0
  0
VERTEX
  5
37D8
  8
0
 10
187.326582037999799
 20
78.2073152089934922
 30
0.0
  0
VERTEX
  5
37D9
  8
0
 10
187.3335412580709942
 20
78.2066971337698362
 30
0.0
  0
VERTEX
  5
37DA
  8
0
 10
187.3405117717389032
 20
78.2060920873184671
 30
0.0
  0
VERTEX
  5
37DB
  8
0
 10
187.3544877601661085
 20
78.2049212363516801
 30
0.0
  0
VERTEX
  5
37DC
  8
0
 10
187.3685122170491866
 20
78.2038029872118443
 30
0.0
  0
VERTEX
  5
37DD
  8
0
 10
187.3755433348335941
 20
78.2032637009338316
 30
0.0
  0
VERTEX
  5
37DE
  8
0
 10
187.3825874352068013
 20
78.2027377046761387
 30
0.0
  0
VERTEX
  5
37DF
  8
0
 10
187.3967157768867082
 20
78.2017257897644242
 30
0.0
  0
VERTEX
  5
37E0
  8
0
 10
187.4108996628575028
 20
78.2007676822105537
 30
0.0
  0
VERTEX
  5
37E1
  8
0
 10
187.4180132045003973
 20
78.2003089547684169
 30
0.0
  0
VERTEX
  5
37E2
  8
0
 10
187.4251415603669955
 20
78.1998638627735829
 30
0.0
  0
VERTEX
  5
37E3
  8
0
 10
187.4394439701841861
 20
78.1990148553421989
 30
0.0
  0
VERTEX
  5
37E4
  8
0
 10
187.4538094129989929
 20
78.1982212287920504
 30
0.0
  0
VERTEX
  5
37E5
  8
0
 10
187.4682404155205973
 20
78.1974835985550101
 30
0.0
  0
VERTEX
  5
37E6
  8
0
 10
187.4827394966762881
 20
78.1968026278724722
 30
0.0
  0
VERTEX
  5
37E7
  8
0
 10
187.4973091543679971
 20
78.1961790287117822
 30
0.0
  0
VERTEX
  5
37E8
  8
0
 10
187.5046212212336059
 20
78.1958889794131267
 30
0.0
  0
VERTEX
  5
37E9
  8
0
 10
187.511951853297802
 20
78.1956135623383091
 30
0.0
  0
VERTEX
  5
37EA
  8
0
 10
187.5266700143988885
 20
78.1951070395539602
 30
0.0
  0
VERTEX
  5
37EB
  8
0
 10
187.5414660064303121
 20
78.1946603206258999
 30
0.0
  0
VERTEX
  5
37EC
  8
0
 10
187.5563421402785877
 20
78.1942743149542423
 30
0.0
  0
VERTEX
  5
37ED
  8
0
 10
187.5713006664769864
 20
78.1939499805435219
 30
0.0
  0
VERTEX
  5
37EE
  8
0
 10
187.5863437763813124
 20
78.1936883233653646
 30
0.0
  0
VERTEX
  5
37EF
  8
0
 10
187.5938977200285933
 20
78.1935813260608086
 30
0.0
  0
VERTEX
  5
37F0
  8
0
 10
187.6014736073466906
 20
78.1934903967164843
 30
0.0
  0
VERTEX
  5
37F1
  8
0
 10
187.616692252118014
 20
78.1933573006918152
 30
0.0
  0
VERTEX
  5
37F2
  8
0
 10
187.6320017724962099
 20
78.193290181904004
 30
0.0
  0
VERTEX
  5
37F3
  8
0
 10
187.6396912511974051
 20
78.1932817350248257
 30
0.0
  0
VERTEX
  5
37F4
  8
0
 10
187.6473807298987992
 20
78.193290181904004
 30
0.0
  0
VERTEX
  5
37F5
  8
0
 10
187.6626902502769951
 20
78.1933573006918152
 30
0.0
  0
VERTEX
  5
37F6
  8
0
 10
187.6779088950480059
 20
78.1934903967164843
 30
0.0
  0
VERTEX
  5
37F7
  8
0
 10
187.6854847823661885
 20
78.1935813260608086
 30
0.0
  0
VERTEX
  5
37F8
  8
0
 10
187.6930387260134978
 20
78.1936883233653646
 30
0.0
  0
VERTEX
  5
37F9
  8
0
 10
187.7080818359179943
 20
78.1939499805435219
 30
0.0
  0
VERTEX
  5
37FA
  8
0
 10
187.723040362116194
 20
78.1942743149542423
 30
0.0
  0
VERTEX
  5
37FB
  8
0
 10
187.7379164959644129
 20
78.1946603206258999
 30
0.0
  0
VERTEX
  5
37FC
  8
0
 10
187.752712487995808
 20
78.1951070395539602
 30
0.0
  0
VERTEX
  5
37FD
  8
0
 10
187.7674306490970082
 20
78.1956135623383091
 30
0.0
  0
VERTEX
  5
37FE
  8
0
 10
187.7747612811612044
 20
78.1958889794131267
 30
0.0
  0
VERTEX
  5
37FF
  8
0
 10
187.7820733480266995
 20
78.1961790287117822
 30
0.0
  0
VERTEX
  5
3800
  8
0
 10
187.7966430057186926
 20
78.1968026278724722
 30
0.0
  0
VERTEX
  5
3801
  8
0
 10
187.8111420868740993
 20
78.1974835985550101
 30
0.0
  0
VERTEX
  5
3802
  8
0
 10
187.8255730893959878
 20
78.1982212287920504
 30
0.0
  0
VERTEX
  5
3803
  8
0
 10
187.8399385322107946
 20
78.1990148553421989
 30
0.0
  0
VERTEX
  5
3804
  8
0
 10
187.8542409420277863
 20
78.1998638627735829
 30
0.0
  0
VERTEX
  5
3805
  8
0
 10
187.861369297894413
 20
78.2003089547684169
 30
0.0
  0
VERTEX
  5
3806
  8
0
 10
187.8684828395375064
 20
78.2007676822105537
 30
0.0
  0
VERTEX
  5
3807
  8
0
 10
187.8826667255083009
 20
78.2017257897644242
 30
0.0
  0
VERTEX
  5
3808
  8
0
 10
187.8967950671882079
 20
78.2027377046761387
 30
0.0
  0
VERTEX
  5
3809
  8
0
 10
187.9038391675613866
 20
78.2032637009338316
 30
0.0
  0
VERTEX
  5
380A
  8
0
 10
187.9108702853455952
 20
78.2038029872118443
 30
0.0
  0
VERTEX
  5
380B
  8
0
 10
187.9248947422287017
 20
78.2049212363516801
 30
0.0
  0
VERTEX
  5
380C
  8
0
 10
187.9388707306559922
 20
78.2060920873184671
 30
0.0
  0
VERTEX
  5
380D
  8
0
 10
187.9458412443237876
 20
78.2066971337698362
 30
0.0
  0
VERTEX
  5
380E
  8
0
 10
187.9528004643948975
 20
78.2073152089934922
 30
0.0
  0
VERTEX
  5
380F
  8
0
 10
187.9666860699325071
 20
78.2085903012648771
 30
0.0
  0
VERTEX
  5
3810
  8
0
 10
187.9805295796955988
 20
78.2099170923515032
 30
0.0
  0
VERTEX
  5
3811
  8
0
 10
188.0286773304576968
 20
78.2149646376138037
 30
0.0
  0
VERTEX
  5
3812
  8
0
 10
188.1102707386700104
 20
78.2250610174277341
 30
0.0
  0
VERTEX
  5
3813
  8
0
 10
188.1909060053895928
 20
78.2369596587765557
 30
0.0
  0
VERTEX
  5
3814
  8
0
 10
188.2708159556999021
 20
78.2506545975952861
 30
0.0
  0
VERTEX
  5
3815
  8
0
 10
188.3501793485579867
 20
78.2661536861318439
 30
0.0
  0
VERTEX
  5
3816
  8
0
 10
188.3896947759274951
 20
78.2745839254937721
 30
0.0
  0
VERTEX
  5
3817
  8
0
 10
188.429112440420198
 20
78.2834702760133325
 30
0.0
  0
VERTEX
  5
3818
  8
0
 10
188.5076608189064018
 20
78.3026138318631695
 30
0.0
  0
VERTEX
  5
3819
  8
0
 10
188.5857170577612862
 20
78.3235584269007461
 30
0.0
  0
VERTEX
  5
381A
  8
0
 10
188.6631953229658052
 20
78.3462771913957852
 30
0.0
  0
VERTEX
  5
381B
  8
0
 10
188.740007584502905
 20
78.3707369322176248
 30
0.0
  0
VERTEX
  5
381C
  8
0
 10
188.8160483634873117
 20
78.3968922033758702
 30
0.0
  0
VERTEX
  5
381D
  8
0
 10
188.8537427262814106
 20
78.410587869333682
 30
0.0
  0
VERTEX
  5
381E
  8
0
 10
188.8911988566509024
 20
78.4246843732361469
 30
0.0
  0
VERTEX
  5
381F
  8
0
 10
188.9653308073829123
 20
78.4540411192204203
 30
0.0
  0
VERTEX
  5
3820
  8
0
 10
189.0383082640967984
 20
78.4848755183452624
 30
0.0
  0
VERTEX
  5
3821
  8
0
 10
189.1099892819933075
 20
78.5170853146758247
 30
0.0
  0
VERTEX
  5
3822
  8
0
 10
189.1802283082928113
 20
78.5505527337083151
 30
0.0
  0
VERTEX
  5
3823
  8
0
 10
189.2490335108442139
 20
78.5852248675729754
 30
0.0
  0
VERTEX
  5
3824
  8
0
 10
189.2834019975136073
 20
78.603263129507269
 30
0.0
  0
VERTEX
  5
3825
  8
0
 10
189.3178646406715018
 20
78.6218432976047836
 30
0.0
  0
VERTEX
  5
3826
  8
0
 10
189.3869977779667124
 20
78.6606393391083714
 30
0.0
  0
VERTEX
  5
3827
  8
0
 10
189.4562838340839903
 20
78.7016281140650165
 30
0.0
  0
VERTEX
  5
3828
  8
0
 10
189.5255743333040073
 20
78.7448168801173836
 30
0.0
  0
VERTEX
  5
3829
  8
0
 10
189.5947219702352982
 20
78.79020493831095
 30
0.0
  0
VERTEX
  5
382A
  8
0
 10
189.6635812039122015
 20
78.8377836244843735
 30
0.0
  0
VERTEX
  5
382B
  8
0
 10
189.6978578270704077
 20
78.8623895883758053
 30
0.0
  0
VERTEX
  5
382C
  8
0
 10
189.7320088987702036
 20
78.8875364041626028
 30
0.0
  0
VERTEX
  5
382D
  8
0
 10
189.7998650213498024
 20
78.9394390955942811
 30
0.0
  0
VERTEX
  5
382E
  8
0
 10
189.8670134000267922
 20
78.9934602510496973
 30
0.0
  0
VERTEX
  5
382F
  8
0
 10
189.9333225529250058
 20
79.0495617325026529
 30
0.0
  0
VERTEX
  5
3830
  8
0
 10
189.9986665885203934
 20
79.1076995263332634
 30
0.0
  0
VERTEX
  5
3831
  8
0
 10
190.0629300491413005
 20
79.1678285621982525
 30
0.0
  0
VERTEX
  5
3832
  8
0
 10
190.0946204915595104
 20
79.1986229557898298
 30
0.0
  0
VERTEX
  5
3833
  8
0
 10
190.1259966331845987
 20
79.2298926980471663
 30
0.0
  0
VERTEX
  5
3834
  8
0
 10
190.1877469980267108
 20
79.2938209808030763
 30
0.0
  0
VERTEX
  5
3835
  8
0
 10
190.2480658452157911
 20
79.3595332530158259
 30
0.0
  0
VERTEX
  5
3836
  8
0
 10
190.2776537992245949
 20
79.3930309671287944
 30
0.0
  0
VERTEX
  5
3837
  8
0
 10
190.306843038778112
 20
79.4269407761209152
 30
0.0
  0
VERTEX
  5
3838
  8
0
 10
190.3639747591925016
 20
79.4959471296299682
 30
0.0
  0
VERTEX
  5
3839
  8
0
 10
190.419364139394105
 20
79.5664487292098386
 30
0.0
  0
VERTEX
  5
383A
  8
0
 10
190.4463766452670939
 20
79.6022252798531156
 30
0.0
  0
VERTEX
  5
383B
  8
0
 10
190.4729195860525977
 20
79.6383322946311694
 30
0.0
  0
VERTEX
  5
383C
  8
0
 10
190.5245546348845949
 20
79.711473657167204
 30
0.0
  0
VERTEX
  5
383D
  8
0
 10
190.5741894207461087
 20
79.7857386836323315
 30
0.0
  0
VERTEX
  5
383E
  8
0
 10
190.6217521839481037
 20
79.8609846539373223
 30
0.0
  0
VERTEX
  5
383F
  8
0
 10
190.6674627343847135
 20
79.9375483140300105
 30
0.0
  0
VERTEX
  5
3840
  8
0
 10
190.7120753621738061
 20
80.0168403031160835
 30
0.0
  0
VERTEX
  5
3841
  8
0
 10
190.7339120177063023
 20
80.0574951205468608
 30
0.0
  0
VERTEX
  5
3842
  8
0
 10
190.7553918835463946
 20
80.0987882199612358
 30
0.0
  0
VERTEX
  5
3843
  8
0
 10
190.7971575705948055
 20
80.1831802676156542
 30
0.0
  0
VERTEX
  5
3844
  8
0
 10
190.8371390325845027
 20
80.2697903633254839
 30
0.0
  0
VERTEX
  5
3845
  8
0
 10
190.8751270357948897
 20
80.3583827561707551
 30
0.0
  0
VERTEX
  5
3846
  8
0
 10
190.9109350475783913
 20
80.4487079024864045
 30
0.0
  0
VERTEX
  5
3847
  8
0
 10
190.9443979192793108
 20
80.540496482718396
 30
0.0
  0
VERTEX
  5
3848
  8
0
 10
190.9602049778355877
 20
80.5868511718138336
 30
0.0
  0
VERTEX
  5
3849
  8
0
 10
190.9753751854971995
 20
80.6334644439532582
 30
0.0
  0
VERTEX
  5
384A
  8
0
 10
191.0037554614467012
 20
80.7273252197927889
 30
0.0
  0
VERTEX
  5
384B
  8
0
 10
191.0294698439728052
 20
80.8218455113328957
 30
0.0
  0
VERTEX
  5
384C
  8
0
 10
191.0413075971702028
 20
80.8692633888632741
 30
0.0
  0
SEQEND
  5
384D
  8
0
  0
POLYLINE
  5
2D52
  8
0
 66
     1
 10
0.0
 20
0.0
 30
0.0
  0
VERTEX
  5
384E
  8
0
 10
191.0413075971702028
 20
80.8692633888632741
 30
0.0
  0
VERTEX
  5
384F
  8
0
 10
191.0467871268895976
 20
80.8922213790954459
 30
0.0
  0
VERTEX
  5
3850
  8
0
 10
191.0572690998500036
 20
80.9381912448189098
 30
0.0
  0
VERTEX
  5
3851
  8
0
 10
191.0671146724722007
 20
80.9842198961864739
 30
0.0
  0
VERTEX
  5
3852
  8
0
 10
191.0717988110363024
 20
81.0072513437905002
 30
0.0
  0
VERTEX
  5
3853
  8
0
 10
191.0763239131088937
 20
81.0302915789267644
 30
0.0
  0
VERTEX
  5
3854
  8
0
 10
191.0848974256045096
 20
81.0763908080140538
 30
0.0
  0
VERTEX
  5
3855
  8
0
 10
191.0928362777000018
 20
81.1225020700578909
 30
0.0
  0
VERTEX
  5
3856
  8
0
 10
191.100141956611111
 20
81.1686095369783658
 30
0.0
  0
VERTEX
  5
3857
  8
0
 10
191.1068164018936955
 20
81.2146971663129449
 30
0.0
  0
VERTEX
  5
3858
  8
0
 10
191.1128620219261052
 20
81.2607487335613143
 30
0.0
  0
VERTEX
  5
3859
  8
0
 10
191.1156499068285086
 20
81.2837558819415165
 30
0.0
  0
VERTEX
  5
385A
  8
0
 10
191.1182817081206053
 20
81.3067478645780568
 30
0.0
  0
VERTEX
  5
385B
  8
0
 10
191.1230788469173092
 20
81.3526780680098511
 30
0.0
  0
VERTEX
  5
385C
  8
0
 10
191.1272573296008943
 20
81.3985227677811878
 30
0.0
  0
VERTEX
  5
385D
  8
0
 10
191.1308215599713947
 20
81.4442653356473159
 30
0.0
  0
VERTEX
  5
385E
  8
0
 10
191.133776459906187
 20
81.489889123844506
 30
0.0
  0
VERTEX
  5
385F
  8
0
 10
191.1361274728222952
 20
81.5353774978737249
 30
0.0
  0
VERTEX
  5
3860
  8
0
 10
191.1370783657085894
 20
81.5580657180302353
 30
0.0
  0
VERTEX
  5
3861
  8
0
 10
191.1378805650631989
 20
81.5807138694695198
 30
0.0
  0
VERTEX
  5
3862
  8
0
 10
191.1390422252065093
 20
81.6258817298115957
 30
0.0
  0
VERTEX
  5
3863
  8
0
 10
191.1396194612869976
 20
81.6708646830481086
 30
0.0
  0
VERTEX
  5
3864
  8
0
 10
191.1396912511974051
 20
81.6932817350248257
 30
0.0
  0
SEQEND
  5
3865
  8
0
  0
POLYLINE
  5
2D53
  8
0
 66
     1
 10
0.0
 20
0.0
 30
0.0
  0
VERTEX
  5
3866
  8
0
 10
191.1396912511974051
 20
81.6932817350248257
 30
0.0
  0
VERTEX
  5
3867
  8
0
 10
191.2370973875187019
 20
84.3246087935879416
 30
0.0
  0
VERTEX
  5
3868
  8
0
 10
191.4314305243429999
 20
89.5743195470651159
 30
0.0
  0
VERTEX
  5
3869
  8
0
 10
191.6248899668237868
 20
94.8004283422585843
 30
0.0
  0
VERTEX
  5
386A
  8
0
 10
191.7212042823248908
 20
97.4022609790517038
 30
0.0
  0
SEQEND
  5
386B
  8
0
  0
POLYLINE
  5
2D54
  8
0
 66
     1
 10
0.0
 20
0.0
 30
0.0
  0
VERTEX
  5
386C
  8
0
 10
191.7212042823248908
 20
97.4022609790517038
 30
0.0
  0
VERTEX
  5
386D
  8
0
 10
191.7245957278167907
 20
97.5696608474981133
 30
0.0
  0
VERTEX
  5
386E
  8
0
 10
191.7145025661831141
 20
97.9052450112245936
 30
0.0
  0
VERTEX
  5
386F
  8
0
 10
191.6810834727313022
 20
98.2456574182759113
 30
0.0
  0
VERTEX
  5
3870
  8
0
 10
191.65535009861091
 20
98.416660535116236
 30
0.0
  0
SEQEND
  5
3871
  8
0
  0
POLYLINE
  5
2D55
  8
0
 66
     1
 10
0.0
 20
0.0
 30
0.0
  0
VERTEX
  5
3872
  8
0
 10
182.0789022576792036
 20
122.4450608649381991
 30
0.0
  0
VERTEX
  5
3873
  8
0
 10
181.9314927676190052
 20
122.2450060682035939
 30
0.0
  0
VERTEX
  5
3874
  8
0
 10
181.657045596321808
 20
121.8275562112025057
 30
0.0
  0
VERTEX
  5
3875
  8
0
 10
181.5087391351887902
 20
121.5713619814385993
 30
0.0
  0
VERTEX
  5
3876
  8
0
 10
181.4681284648405892
 20
121.496585047476799
 30
0.0
  0
VERTEX
  5
3877
  8
0
 10
181.4283364859541905
 20
121.4211404649401942
 30
0.0
  0
VERTEX
  5
3878
  8
0
 10
181.4087531864379912
 20
121.3831737133106969
 30
0.0
  0
VERTEX
  5
3879
  8
0
 10
181.3893812847655909
 20
121.3450471646727067
 30
0.0
  0
VERTEX
  5
387A
  8
0
 10
181.3512802112626048
 20
121.2683242701494066
 30
0.0
  0
VERTEX
  5
387B
  8
0
 10
181.3140498732680896
 20
121.1909910534590011
 30
0.0
  0
VERTEX
  5
387C
  8
0
 10
181.2957662161267081
 20
121.1521016263669992
 30
0.0
  0
VERTEX
  5
387D
  8
0
 10
181.2777061348126892
 20
121.1130668947409958
 30
0.0
  0
VERTEX
  5
387E
  8
0
 10
181.2422641770469056
 20
121.0345713772339025
 30
0.0
  0
VERTEX
  5
387F
  8
0
 10
181.2077386052000065
 20
120.9555245121260043
 30
0.0
  0
VERTEX
  5
3880
  8
0
 10
181.1908238712215962
 20
120.915800700153298
 30
0.0
  0
VERTEX
  5
3881
  8
0
 10
181.1741434483379862
 20
120.8759467549143949
 30
0.0
  0
VERTEX
  5
3882
  8
0
 10
181.1414921366734916
 20
120.7958589707664032
 30
0.0
  0
VERTEX
  5
3883
  8
0
 10
181.109797481139708
 20
120.7152823995294
 30
0.0
  0
VERTEX
  5
3884
  8
0
 10
181.0790716551736068
 20
120.6342386204016037
 30
0.0
  0
VERTEX
  5
3885
  8
0
 10
181.0493261786400865
 20
120.5527495162025957
 30
0.0
  0
VERTEX
  5
3886
  8
0
 10
181.020571903838686
 20
120.4708372371851937
 30
0.0
  0
VERTEX
  5
3887
  8
0
 10
181.0065696729097056
 20
120.4297293931764017
 30
0.0
  0
VERTEX
  5
3888
  8
0
 10
180.992819003544696
 20
120.388524164321197
 30
0.0
  0
VERTEX
  5
3889
  8
0
 10
180.9660769610491968
 20
120.3058328719986037
 30
0.0
  0
VERTEX
  5
388A
  8
0
 10
180.9403545621744911
 20
120.2227860900612058
 30
0.0
  0
VERTEX
  5
388B
  8
0
 10
180.9156598892504064
 20
120.1394066651237011
 30
0.0
  0
VERTEX
  5
388C
  8
0
 10
180.8920003170510995
 20
120.0557175210963976
 30
0.0
  0
VERTEX
  5
388D
  8
0
 10
180.869382510701513
 20
119.9717416188472043
 30
0.0
  0
VERTEX
  5
388E
  8
0
 10
180.8584661559945062
 20
119.9296532990021973
 30
0.0
  0
VERTEX
  5
388F
  8
0
 10
180.847811940334509
 20
119.8874999696899977
 30
0.0
  0
VERTEX
  5
3890
  8
0
 10
180.8272915626228894
 20
119.8030054638398951
 30
0.0
  0
VERTEX
  5
3891
  8
0
 10
180.8078261523691026
 20
119.7182798567981052
 30
0.0
  0
VERTEX
  5
3892
  8
0
 10
180.7894202386981988
 20
119.6333466833215056
 30
0.0
  0
VERTEX
  5
3893
  8
0
 10
180.7720777084983865
 20
119.5482297886916001
 30
0.0
  0
VERTEX
  5
3894
  8
0
 10
180.7558017882757895
 20
119.4629532918763033
 30
0.0
  0
VERTEX
  5
3895
  8
0
 10
180.7480646306462972
 20
119.4202627955596938
 30
0.0
  0
VERTEX
  5
3896
  8
0
 10
180.7405950282029892
 20
119.3775415485225011
 30
0.0
  0
VERTEX
  5
3897
  8
0
 10
180.7264592883134924
 20
119.2920191137281023
 30
0.0
  0
VERTEX
  5
3898
  8
0
 10
180.7133957268106883
 20
119.2064107045354007
 30
0.0
  0
VERTEX
  5
3899
  8
0
 10
180.6761166148135942
 20
118.9064635375901986
 30
0.0
  0
VERTEX
  5
389A
  8
0
 10
180.6425582087271096
 20
118.393604439607401
 30
0.0
  0
VERTEX
  5
389B
  8
0
 10
180.6399000963598098
 20
118.1392096659093056
 30
0.0
  0
VERTEX
  5
389C
  8
0
 10
180.6463913147402991
 20
117.887085721419993
 30
0.0
  0
VERTEX
  5
389D
  8
0
 10
180.6856543429950079
 20
117.3924255186173013
 30
0.0
  0
VERTEX
  5
389E
  8
0
 10
180.7599465304423063
 20
116.901340336492197
 30
0.0
  0
VERTEX
  5
389F
  8
0
 10
180.8206856371963056
 20
116.6117753530516978
 30
0.0
  0
VERTEX
  5
38A0
  8
0
 10
180.840450174595702
 20
116.5288536704173055
 30
0.0
  0
VERTEX
  5
38A1
  8
0
 10
180.8612945645593868
 20
116.4459013074779961
 30
0.0
  0
VERTEX
  5
38A2
  8
0
 10
180.8721227843687984
 20
116.404422588309302
 30
0.0
  0
VERTEX
  5
38A3
  8
0
 10
180.8832221675054939
 20
116.3629469238183987
 30
0.0
  0
VERTEX
  5
38A4
  8
0
 10
180.9062355831405
 20
116.2800188763690983
 30
0.0
  0
VERTEX
  5
38A5
  8
0
 10
180.9303366748646056
 20
116.1971451743051063
 30
0.0
  0
VERTEX
  5
38A6
  8
0
 10
180.9555265969862035
 20
116.1143534353007993
 30
0.0
  0
VERTEX
  5
38A7
  8
0
 10
180.9818057894167964
 20
116.0316709518793061
 30
0.0
  0
VERTEX
  5
38A8
  8
0
 10
181.0091738946119904
 20
115.9491249704425968
 30
0.0
  0
VERTEX
  5
38A9
  8
0
 10
181.0232659520106893
 20
115.9079116861525023
 30
0.0
  0
VERTEX
  5
38AA
  8
0
 10
181.0376297297055999
 20
115.8667427462181934
 30
0.0
  0
VERTEX
  5
38AB
  8
0
 10
181.0671712901699948
 20
115.7845514965181053
 30
0.0
  0
VERTEX
  5
38AC
  8
0
 10
181.0977957563029861
 20
115.7025783536726067
 30
0.0
  0
VERTEX
  5
38AD
  8
0
 10
181.1294995022041121
 20
115.6208503187692003
 30
0.0
  0
VERTEX
  5
38AE
  8
0
 10
181.1622781072777002
 20
115.5393942161241938
 30
0.0
  0
VERTEX
  5
38AF
  8
0
 10
181.1961263703097984
 20
115.4582366484143989
 30
0.0
  0
VERTEX
  5
38B0
  8
0
 10
181.2134497887871873
 20
115.4177780569872027
 30
0.0
  0
VERTEX
  5
38B1
  8
0
 10
181.231038326175991
 20
115.3774039524117967
 30
0.0
  0
VERTEX
  5
38B2
  8
0
 10
181.2670072652499869
 20
115.2969221552680068
 30
0.0
  0
VERTEX
  5
38B3
  8
0
 10
181.3040257555884125
 20
115.2168169313108024
 30
0.0
  0
VERTEX
  5
38B4
  8
0
 10
181.3229260685945121
 20
115.176913450505495
 30
0.0
  0
VERTEX
  5
38B5
  8
0
 10
181.342085667977301
 20
115.1371135593195021
 30
0.0
  0
VERTEX
  5
38B6
  8
0
 10
181.3811782039356899
 20
115.0578368802624993
 30
0.0
  0
VERTEX
  5
38B7
  8
0
 10
181.4212939267767126
 20
114.9790112554855028
 30
0.0
  0
VERTEX
  5
38B8
  8
0
 10
181.4417324756994958
 20
114.9397748551755001
 30
0.0
  0
VERTEX
  5
38B9
  8
0
 10
181.4624244886933013
 20
114.9006573493923042
 30
0.0
  0
VERTEX
  5
38BA
  8
0
 10
181.5045648934006977
 20
114.8227885109006934
 30
0.0
  0
VERTEX
  5
38BB
  8
0
 10
181.5477045851962998
 20
114.7454275528896943
 30
0.0
  0
VERTEX
  5
38BC
  8
0
 10
181.5918317884884914
 20
114.6685979308626031
 30
0.0
  0
VERTEX
  5
38BD
  8
0
 10
181.6369339215175955
 20
114.5923229125756961
 30
0.0
  0
VERTEX
  5
38BE
  8
0
 10
181.6829976097668009
 20
114.5166255283419048
 30
0.0
  0
VERTEX
  5
38BF
  8
0
 10
181.7063856446625891
 20
114.479000569110994
 30
0.0
  0
VERTEX
  5
38C0
  8
0
 10
181.7300087018982993
 20
114.4415285226574071
 30
0.0
  0
VERTEX
  5
38C1
  8
0
 10
181.7779522882408969
 20
114.3670543071060024
 30
0.0
  0
VERTEX
  5
38C2
  8
0
 10
181.8268127218761094
 20
114.2932249144956955
 30
0.0
  0
VERTEX
  5
38C3
  8
0
 10
181.8765736423688963
 20
114.2200619541906974
 30
0.0
  0
VERTEX
  5
38C4
  8
0
 10
181.9272180022119869
 20
114.1475865686008007
 30
0.0
  0
VERTEX
  5
38C5
  8
0
 10
181.9787280960539135
 20
114.0758193908000067
 30
0.0
  0
VERTEX
  5
38C6
  8
0
 10
182.004802088262096
 20
114.0402076782043963
 30
0.0
  0
VERTEX
  5
38C7
  8
0
 10
182.0310855927990019
 20
114.0047805032498047
 30
0.0
  0
VERTEX
  5
38C8
  8
0
 10
182.084271570672513
 20
113.9344893976085018
 30
0.0
  0
VERTEX
  5
38C9
  8
0
 10
182.1382665553609002
 20
113.864964935616598
 30
0.0
  0
VERTEX
  5
38CA
  8
0
 10
182.1655611984905079
 20
113.8304959087377028
 30
0.0
  0
SEQEND
  5
38CB
  8
0
  0
POLYLINE
  5
2D56
  8
0
 66
     1
 10
0.0
 20
0.0
 30
0.0
  0
VERTEX
  5
38CC
  8
0
 10
193.1138213039043023
 20
113.8304959087377028
 30
0.0
  0
VERTEX
  5
38CD
  8
0
 10
193.1411159470360985
 20
113.8649649356191986
 30
0.0
  0
VERTEX
  5
38CE
  8
0
 10
193.1951109317242867
 20
113.9344893976111024
 30
0.0
  0
VERTEX
  5
38CF
  8
0
 10
193.2482969095977978
 20
114.0047805032524053
 30
0.0
  0
VERTEX
  5
38D0
  8
0
 10
193.2745804141347037
 20
114.0402076782069969
 30
0.0
  0
VERTEX
  5
38D1
  8
0
 10
193.3006544063426873
 20
114.075819390802593
 30
0.0
  0
VERTEX
  5
38D2
  8
0
 10
193.3521645001846139
 20
114.1475865686034012
 30
0.0
  0
VERTEX
  5
38D3
  8
0
 10
193.4028088600275908
 20
114.220061954193298
 30
0.0
  0
VERTEX
  5
38D4
  8
0
 10
193.4525697805204913
 20
114.2932249144982961
 30
0.0
  0
VERTEX
  5
38D5
  8
0
 10
193.5014302141557039
 20
114.367054307108603
 30
0.0
  0
VERTEX
  5
38D6
  8
0
 10
193.5493738004983015
 20
114.4415285226600929
 30
0.0
  0
VERTEX
  5
38D7
  8
0
 10
193.5729968577340117
 20
114.4790005691135946
 30
0.0
  0
VERTEX
  5
38D8
  8
0
 10
193.5963848926297999
 20
114.5166255283444059
 30
0.0
  0
VERTEX
  5
38D9
  8
0
 10
193.6424485808790052
 20
114.5923229125782967
 30
0.0
  0
VERTEX
  5
38DA
  8
0
 10
193.6875507139077968
 20
114.6685979308652037
 30
0.0
  0
VERTEX
  5
38DB
  8
0
 10
193.7316779171997894
 20
114.7454275528923944
 30
0.0
  0
VERTEX
  5
38DC
  8
0
 10
193.7748176089957042
 20
114.8227885109033934
 30
0.0
  0
VERTEX
  5
38DD
  8
0
 10
193.8169580137029016
 20
114.9006573493949048
 30
0.0
  0
VERTEX
  5
38DE
  8
0
 10
193.837650026696906
 20
114.9397748551781007
 30
0.0
  0
VERTEX
  5
38DF
  8
0
 10
193.8580885756194903
 20
114.9790112554881034
 30
0.0
  0
VERTEX
  5
38E0
  8
0
 10
193.8982042984603993
 20
115.0578368802650004
 30
0.0
  0
VERTEX
  5
38E1
  8
0
 10
193.9372968344187882
 20
115.1371135593220032
 30
0.0
  0
VERTEX
  5
38E2
  8
0
 10
193.9564564338016908
 20
115.1769134505079961
 30
0.0
  0
VERTEX
  5
38E3
  8
0
 10
193.9753567468077051
 20
115.216816931313204
 30
0.0
  0
VERTEX
  5
38E4
  8
0
 10
194.0123752371461023
 20
115.2969221552703942
 30
0.0
  0
VERTEX
  5
38E5
  8
0
 10
194.048344176220013
 20
115.3774039524141983
 30
0.0
  0
VERTEX
  5
38E6
  8
0
 10
194.0659327136087029
 20
115.4177780569897038
 30
0.0
  0
VERTEX
  5
38E7
  8
0
 10
194.0832561320860918
 20
115.4582366484168006
 30
0.0
  0
VERTEX
  5
38E8
  8
0
 10
194.11710439511819
 20
115.5393942161265954
 30
0.0
  0
VERTEX
  5
38E9
  8
0
 10
194.1498830001918066
 20
115.6208503187716019
 30
0.0
  0
VERTEX
  5
38EA
  8
0
 10
194.1815867460927905
 20
115.7025783536749941
 30
0.0
  0
VERTEX
  5
38EB
  8
0
 10
194.2122112122256965
 20
115.7845514965205069
 30
0.0
  0
VERTEX
  5
38EC
  8
0
 10
194.2417527726900914
 20
115.8667427462204955
 30
0.0
  0
VERTEX
  5
38ED
  8
0
 10
194.2561165503848883
 20
115.9079116861549039
 30
0.0
  0
VERTEX
  5
38EE
  8
0
 10
194.2702086077837009
 20
115.9491249704449984
 30
0.0
  0
VERTEX
  5
38EF
  8
0
 10
194.2975767129786107
 20
116.0316709518815941
 30
0.0
  0
VERTEX
  5
38F0
  8
0
 10
194.3238559054094026
 20
116.1143534353031015
 30
0.0
  0
VERTEX
  5
38F1
  8
0
 10
194.3490458275308015
 20
116.1971451743072947
 30
0.0
  0
VERTEX
  5
38F2
  8
0
 10
194.3731469192549071
 20
116.2800188763714004
 30
0.0
  0
VERTEX
  5
38F3
  8
0
 10
194.3961603348899132
 20
116.3629469238206013
 30
0.0
  0
VERTEX
  5
38F4
  8
0
 10
194.4072597180266939
 20
116.4044225883115047
 30
0.0
  0
VERTEX
  5
38F5
  8
0
 10
194.4180879378359919
 20
116.4459013074801987
 30
0.0
  0
VERTEX
  5
38F6
  8
0
 10
194.4389323277995061
 20
116.5288536704194939
 30
0.0
  0
VERTEX
  5
38F7
  8
0
 10
194.4586968651989025
 20
116.611775353053801
 30
0.0
  0
VERTEX
  5
38F8
  8
0
 10
194.5194359719529018
 20
116.9013403364942008
 30
0.0
  0
VERTEX
  5
38F9
  8
0
 10
194.5937281594000012
 20
117.3924255186190067
 30
0.0
  0
VERTEX
  5
38FA
  8
0
 10
194.6329911876547101
 20
117.8870857214216983
 30
0.0
  0
VERTEX
  5
38FB
  8
0
 10
194.6394824060350004
 20
118.1392096659108972
 30
0.0
  0
VERTEX
  5
38FC
  8
0
 10
194.6368242936677007
 20
118.3936044396090068
 30
0.0
  0
VERTEX
  5
38FD
  8
0
 10
194.6218779538835975
 20
118.6923497151956042
 30
0.0
  0
VERTEX
  5
38FE
  8
0
 10
194.615231533974395
 20
118.7779506698548033
 30
0.0
  0
VERTEX
  5
38FF
  8
0
 10
194.6075211173707089
 20
118.8636152013405933
 30
0.0
  0
VERTEX
  5
3900
  8
0
 10
194.6032658875811876
 20
118.9064635375916055
 30
0.0
  0
VERTEX
  5
3901
  8
0
 10
194.5987435223131001
 20
118.9493184324664981
 30
0.0
  0
VERTEX
  5
3902
  8
0
 10
194.5888962953019075
 20
119.0350354133614985
 30
0.0
  0
VERTEX
  5
3903
  8
0
 10
194.5779777119279004
 20
119.1207411620856931
 30
0.0
  0
VERTEX
  5
3904
  8
0
 10
194.5659867755838093
 20
119.2064107045366939
 30
0.0
  0
VERTEX
  5
3905
  8
0
 10
194.5529232140812042
 20
119.292019113729296
 30
0.0
  0
VERTEX
  5
3906
  8
0
 10
194.5387874741915084
 20
119.3775415485235953
 30
0.0
  0
VERTEX
  5
3907
  8
0
 10
194.5313178717483993
 20
119.4202627955608023
 30
0.0
  0
VERTEX
  5
3908
  8
0
 10
194.5235807141187934
 20
119.4629532918773975
 30
0.0
  0
VERTEX
  5
3909
  8
0
 10
194.5073047938963953
 20
119.5482297886927938
 30
0.0
  0
VERTEX
  5
390A
  8
0
 10
194.4899622636964125
 20
119.6333466833226993
 30
0.0
  0
VERTEX
  5
390B
  8
0
 10
194.4715563500255087
 20
119.7182798567991
 30
0.0
  0
VERTEX
  5
390C
  8
0
 10
194.4520909397716082
 20
119.8030054638409041
 30
0.0
  0
VERTEX
  5
390D
  8
0
 10
194.4315705620601022
 20
119.887499969690893
 30
0.0
  0
VERTEX
  5
390E
  8
0
 10
194.4209163464001051
 20
119.9296532990032063
 30
0.0
  0
VERTEX
  5
390F
  8
0
 10
194.4099999916930983
 20
119.9717416188480996
 30
0.0
  0
VERTEX
  5
3910
  8
0
 10
194.3873821853433981
 20
120.0557175210973071
 30
0.0
  0
VERTEX
  5
3911
  8
0
 10
194.3637226131442048
 20
120.1394066651245964
 30
0.0
  0
VERTEX
  5
3912
  8
0
 10
194.3390279402200065
 20
120.2227860900620016
 30
0.0
  0
VERTEX
  5
3913
  8
0
 10
194.3133055413453008
 20
120.3058328719993995
 30
0.0
  0
VERTEX
  5
3914
  8
0
 10
194.2865634988498869
 20
120.388524164322007
 30
0.0
  0
VERTEX
  5
3915
  8
0
 10
194.2728128294851047
 20
120.4297293931771975
 30
0.0
  0
VERTEX
  5
3916
  8
0
 10
194.2588105985558968
 20
120.4708372371859042
 30
0.0
  0
VERTEX
  5
3917
  8
0
 10
194.23005632375461
 20
120.5527495162033063
 30
0.0
  0
VERTEX
  5
3918
  8
0
 10
194.2003108472210045
 20
120.6342386204023001
 30
0.0
  0
VERTEX
  5
3919
  8
0
 10
194.1695850212547896
 20
120.7152823995300963
 30
0.0
  0
VERTEX
  5
391A
  8
0
 10
194.1378903657210913
 20
120.7958589707670001
 30
0.0
  0
VERTEX
  5
391B
  8
0
 10
194.1052390540565966
 20
120.8759467549149065
 30
0.0
  0
VERTEX
  5
391C
  8
0
 10
194.0885586311729014
 20
120.9158007001538948
 30
0.0
  0
VERTEX
  5
391D
  8
0
 10
194.0716438971946047
 20
120.9555245121265017
 30
0.0
  0
VERTEX
  5
391E
  8
0
 10
194.0371183253479046
 20
121.0345713772344993
 30
0.0
  0
VERTEX
  5
391F
  8
0
 10
194.0016763675820073
 20
121.1130668947416069
 30
0.0
  0
VERTEX
  5
3920
  8
0
 10
193.9836162862679032
 20
121.1521016263675961
 30
0.0
  0
VERTEX
  5
3921
  8
0
 10
193.8706293159565064
 20
121.3831737133111943
 30
0.0
  0
VERTEX
  5
3922
  8
0
 10
193.6223369060730022
 20
121.8275562112027046
 30
0.0
  0
VERTEX
  5
3923
  8
0
 10
193.347889734775805
 20
122.2450060682036934
 30
0.0
  0
VERTEX
  5
3924
  8
0
 10
193.200480244715493
 20
122.4450608649381991
 30
0.0
  0
SEQEND
  5
3925
  8
0
  0
POLYLINE
  5
2D57
  8
0
 66
     1
 10
0.0
 20
0.0
 30
0.0
  0
VERTEX
  5
3926
  8
0
 10
183.6240324037837865
 20
98.416660535116236
 30
0.0
  0
VERTEX
  5
3927
  8
0
 10
183.598299029663707
 20
98.2456574182759113
 30
0.0
  0
VERTEX
  5
3928
  8
0
 10
183.564879936211895
 20
97.9052450112245936
 30
0.0
  0
VERTEX
  5
3929
  8
0
 10
183.55478677457819
 20
97.5696608474981133
 30
0.0
  0
VERTEX
  5
392A
  8
0
 10
183.5581782200698058
 20
97.4022609790517038
 30
0.0
  0
SEQEND
  5
392B
  8
0
  0
POLYLINE
  5
2D58
  8
0
 66
     1
 10
0.0
 20
0.0
 30
0.0
  0
VERTEX
  5
392C
  8
0
 10
182.1655611984905079
 20
113.8304959087377028
 30
0.0
  0
VERTEX
  5
392D
  8
0
 10
182.3134583934460125
 20
113.4229423267849057
 30
0.0
  0
VERTEX
  5
392E
  8
0
 10
182.5901166865102141
 20
112.6059473353080023
 30
0.0
  0
VERTEX
  5
392F
  8
0
 10
182.8412032916197063
 20
111.7880958595549998
 30
0.0
  0
VERTEX
  5
3930
  8
0
 10
182.9571683559508131
 20
111.3794897147904948
 30
0.0
  0
VERTEX
  5
3931
  8
0
 10
183.0667720794058937
 20
110.9714463276320942
 30
0.0
  0
VERTEX
  5
3932
  8
0
 10
183.2670249115604975
 20
110.1581148523907956
 30
0.0
  0
VERTEX
  5
3933
  8
0
 10
183.4424240560886972
 20
109.3497323227633018
 30
0.0
  0
VERTEX
  5
3934
  8
0
 10
183.5964727238543901
 20
108.5310506065881953
 30
0.0
  0
VERTEX
  5
3935
  8
0
 10
183.7295926259288024
 20
107.6955783727208029
 30
0.0
  0
VERTEX
  5
3936
  8
0
 10
183.8404247415070074
 20
106.8452787569733999
 30
0.0
  0
VERTEX
  5
3937
  8
0
 10
183.8871039707952093
 20
106.4151940345446974
 30
0.0
  0
VERTEX
  5
3938
  8
0
 10
183.9277780044286033
 20
105.982156052430895
 30
0.0
  0
VERTEX
  5
3939
  8
0
 10
183.9906335417817047
 20
105.1082324358009998
 30
0.0
  0
VERTEX
  5
393A
  8
0
 10
184.0281450687037932
 20
104.2255302768002991
 30
0.0
  0
VERTEX
  5
393B
  8
0
 10
184.0396367582650896
 20
103.3361015552158051
 30
0.0
  0
VERTEX
  5
393C
  8
0
 10
184.0246064861491107
 20
102.4420413065474946
 30
0.0
  0
VERTEX
  5
393D
  8
0
 10
183.982729988090199
 20
101.5454637783695944
 30
0.0
  0
VERTEX
  5
393E
  8
0
 10
183.9516719076615061
 20
101.0968903904760055
 30
0.0
  0
VERTEX
  5
393F
  8
0
 10
183.9138609540335096
 20
100.6484712559299055
 30
0.0
  0
VERTEX
  5
3940
  8
0
 10
183.8180016409957034
 20
99.752920444050261
 30
0.0
  0
VERTEX
  5
3941
  8
0
 10
183.6953229445504121
 20
98.8607869619228552
 30
0.0
  0
VERTEX
  5
3942
  8
0
 10
183.6240324037837865
 20
98.416660535116236
 30
0.0
  0
SEQEND
  5
3943
  8
0
  0
POLYLINE
  5
2D59
  8
0
 66
     1
 10
0.0
 20
0.0
 30
0.0
  0
VERTEX
  5
3944
  8
0
 10
185.0667746182689939
 20
124.7032817350248024
 30
0.0
  0
VERTEX
  5
3945
  8
0
 10
185.0665702003161925
 20
124.7032009401695944
 30
0.0
  0
VERTEX
  5
3946
  8
0
 10
185.0649597953967032
 20
124.7025641786211025
 30
0.0
  0
VERTEX
  5
3947
  8
0
 10
185.0618018581614024
 20
124.7013141778813008
 30
0.0
  0
VERTEX
  5
3948
  8
0
 10
185.0596625842674996
 20
124.7004663856875055
 30
0.0
  0
VERTEX
  5
3949
  8
0
 10
185.0571601887810118
 20
124.6994736559302055
 30
0.0
  0
VERTEX
  5
394A
  8
0
 10
185.051096431601394
 20
124.6970634702892937
 30
0.0
  0
VERTEX
  5
394B
  8
0
 10
185.0436699214160967
 20
124.6941027028196061
 30
0.0
  0
VERTEX
  5
394C
  8
0
 10
185.0349376495177012
 20
124.6906087757807029
 30
0.0
  0
VERTEX
  5
394D
  8
0
 10
185.0249543299561026
 20
124.6865975930975026
 30
0.0
  0
VERTEX
  5
394E
  8
0
 10
185.0137725392688139
 20
124.6820836982798966
 30
0.0
  0
VERTEX
  5
394F
  8
0
 10
185.0077480857138141
 20
124.6796424383517063
 30
0.0
  0
VERTEX
  5
3950
  8
0
 10
185.0014427695728898
 20
124.6770803862172983
 30
0.0
  0
VERTEX
  5
3951
  8
0
 10
184.988013154064987
 20
124.6715996701981055
 30
0.0
  0
VERTEX
  5
3952
  8
0
 10
184.9735293929846023
 20
124.665652316644298
 30
0.0
  0
VERTEX
  5
3953
  8
0
 10
184.9580348590612005
 20
124.659247942368907
 30
0.0
  0
VERTEX
  5
3954
  8
0
 10
184.9415707573967893
 20
124.6523951262676064
 30
0.0
  0
VERTEX
  5
3955
  8
0
 10
184.9241763177004998
 20
124.6451015283819004
 30
0.0
  0
VERTEX
  5
3956
  8
0
 10
184.9151419910508878
 20
124.6412916085466946
 30
0.0
  0
VERTEX
  5
3957
  8
0
 10
184.9058890010207108
 20
124.6373740106621
 30
0.0
  0
VERTEX
  5
3958
  8
0
 10
184.8867450006131037
 20
124.6292188805687999
 30
0.0
  0
VERTEX
  5
3959
  8
0
 10
184.8667822670070962
 20
124.620643228312403
 30
0.0
  0
VERTEX
  5
395A
  8
0
 10
184.8565049932180102
 20
124.6161996274935007
 30
0.0
  0
VERTEX
  5
395B
  8
0
 10
184.8460360341892965
 20
124.6116530649248944
 30
0.0
  0
VERTEX
  5
395C
  8
0
 10
184.8245392006776058
 20
124.6022534881575012
 30
0.0
  0
VERTEX
  5
395D
  8
0
 10
184.8023230757281112
 20
124.5924490118534038
 30
0.0
  0
VERTEX
  5
395E
  8
0
 10
184.7909546585605085
 20
124.5873962027030046
 30
0.0
  0
VERTEX
  5
395F
  8
0
 10
184.7794175018067051
 20
124.582243628677503
 30
0.0
  0
VERTEX
  5
3960
  8
0
 10
184.7558509818221069
 20
124.5716408736064977
 30
0.0
  0
VERTEX
  5
3961
  8
0
 10
184.7316508059892044
 20
124.5606438865781058
 30
0.0
  0
VERTEX
  5
3962
  8
0
 10
184.706843174466286
 20
124.5492554730773946
 30
0.0
  0
VERTEX
  5
3963
  8
0
 10
184.6814533130053064
 20
124.5374781617633033
 30
0.0
  0
VERTEX
  5
3964
  8
0
 10
184.6555055797635987
 20
124.5253142585049062
 30
0.0
  0
VERTEX
  5
3965
  8
0
 10
184.6423299099641042
 20
124.5190880069619936
 30
0.0
  0
VERTEX
  5
3966
  8
0
 10
184.6290235621492002
 20
124.5127658964196939
 30
0.0
  0
VERTEX
  5
3967
  8
0
 10
184.6020301631423024
 20
124.4998350816726997
 30
0.0
  0
VERTEX
  5
3968
  8
0
 10
184.57454767696359
 20
124.4865237349270046
 30
0.0
  0
VERTEX
  5
3969
  8
0
 10
184.4748225590429911
 20
124.4369670379064985
 30
0.0
  0
VERTEX
  5
396A
  8
0
 10
184.2935685203788978
 20
124.3417337898350041
 30
0.0
  0
VERTEX
  5
396B
  8
0
 10
184.1032753538935083
 20
124.2342884889770005
 30
0.0
  0
VERTEX
  5
396C
  8
0
 10
183.9079775748122074
 20
124.1156387858517007
 30
0.0
  0
VERTEX
  5
396D
  8
0
 10
183.8096085459382039
 20
124.0525023718393953
 30
0.0
  0
VERTEX
  5
396E
  8
0
 10
183.7113360292077004
 20
123.9870736927901049
 30
0.0
  0
VERTEX
  5
396F
  8
0
 10
183.5167076143949032
 20
123.850224896367294
 30
0.0
  0
VERTEX
  5
3970
  8
0
 10
183.3240361644473921
 20
123.7046446492418994
 30
0.0
  0
VERTEX
  5
3971
  8
0
 10
183.1283169731948988
 20
123.5456178720566953
 30
0.0
  0
VERTEX
  5
3972
  8
0
 10
182.9313023517194097
 20
123.373153738392503
 30
0.0
  0
VERTEX
  5
3973
  8
0
 10
182.7349667626315863
 20
123.187646328370306
 30
0.0
  0
VERTEX
  5
3974
  8
0
 10
182.6376392344475903
 20
123.0901660119636034
 30
0.0
  0
VERTEX
  5
3975
  8
0
 10
182.5411715566704913
 20
122.9896446200159943
 30
0.0
  0
VERTEX
  5
3976
  8
0
 10
182.3516713709564954
 20
122.7798758686031988
 30
0.0
  0
VERTEX
  5
3977
  8
0
 10
182.1680618194446879
 20
122.5592033286380058
 30
0.0
  0
VERTEX
  5
3978
  8
0
 10
182.0789022576792036
 20
122.4450608649381991
 30
0.0
  0
SEQEND
  5
3979
  8
0
  0
LINE
  5
2D5A
  8
0
 10
185.0667746182689939
 20
124.7032817350248024
 30
0.0
 11
190.2126078841259869
 21
124.7032817350248024
 31
0.0
  0
POLYLINE
  5
2D5B
  8
0
 66
     1
 10
0.0
 20
0.0
 30
0.0
  0
VERTEX
  5
397A
  8
0
 10
193.200480244715493
 20
122.4450608649381991
 30
0.0
  0
VERTEX
  5
397B
  8
0
 10
193.1113206829500939
 20
122.5592033286380058
 30
0.0
  0
VERTEX
  5
397C
  8
0
 10
192.9277111314385138
 20
122.7798758686031988
 30
0.0
  0
VERTEX
  5
397D
  8
0
 10
192.7382109457244894
 20
122.9896446200159943
 30
0.0
  0
VERTEX
  5
397E
  8
0
 10
192.6417432679471062
 20
123.0901660119636034
 30
0.0
  0
VERTEX
  5
397F
  8
0
 10
192.5444157397631102
 20
123.187646328370306
 30
0.0
  0
VERTEX
  5
3980
  8
0
 10
192.3480801506754005
 20
123.373153738392503
 30
0.0
  0
VERTEX
  5
3981
  8
0
 10
192.1510655291997978
 20
123.5456178720566953
 30
0.0
  0
VERTEX
  5
3982
  8
0
 10
191.9553463379475886
 20
123.7046446492418994
 30
0.0
  0
VERTEX
  5
3983
  8
0
 10
191.7626748879997933
 20
123.850224896367294
 30
0.0
  0
VERTEX
  5
3984
  8
0
 10
191.5680464731871098
 20
123.9870736927901049
 30
0.0
  0
VERTEX
  5
3985
  8
0
 10
191.4697739564566064
 20
124.0525023718393953
 30
0.0
  0
VERTEX
  5
3986
  8
0
 10
191.3714049275828017
 20
124.1156387858517007
 30
0.0
  0
VERTEX
  5
3987
  8
0
 10
191.1761071485015009
 20
124.2342884889770005
 30
0.0
  0
VERTEX
  5
3988
  8
0
 10
190.9858139820161114
 20
124.3417337898350041
 30
0.0
  0
VERTEX
  5
3989
  8
0
 10
190.8045599433517907
 20
124.4369670379064985
 30
0.0
  0
VERTEX
  5
398A
  8
0
 10
190.7048348254311918
 20
124.4865237349270046
 30
0.0
  0
VERTEX
  5
398B
  8
0
 10
190.6773523392527068
 20
124.4998350816726997
 30
0.0
  0
VERTEX
  5
398C
  8
0
 10
190.65035894024561
 20
124.5127658964196939
 30
0.0
  0
VERTEX
  5
398D
  8
0
 10
190.637052592430905
 20
124.5190880069619936
 30
0.0
  0
VERTEX
  5
398E
  8
0
 10
190.6238769226312115
 20
124.5253142585049062
 30
0.0
  0
VERTEX
  5
398F
  8
0
 10
190.5979291893893901
 20
124.5374781617633033
 30
0.0
  0
VERTEX
  5
3990
  8
0
 10
190.5725393279286095
 20
124.5492554730773946
 30
0.0
  0
VERTEX
  5
3991
  8
0
 10
190.5477316964056911
 20
124.5606438865781058
 30
0.0
  0
VERTEX
  5
3992
  8
0
 10
190.5235315205729023
 20
124.5716408736064977
 30
0.0
  0
VERTEX
  5
3993
  8
0
 10
190.4999650005881051
 20
124.582243628677503
 30
0.0
  0
VERTEX
  5
3994
  8
0
 10
190.4884278438343017
 20
124.5873962027030046
 30
0.0
  0
VERTEX
  5
3995
  8
0
 10
190.4770594266666137
 20
124.5924490118534038
 30
0.0
  0
VERTEX
  5
3996
  8
0
 10
190.4548433017174034
 20
124.6022534881575012
 30
0.0
  0
VERTEX
  5
3997
  8
0
 10
190.4333464682057127
 20
124.6116530649248944
 30
0.0
  0
VERTEX
  5
3998
  8
0
 10
190.4228775091768
 20
124.6161996274935007
 30
0.0
  0
VERTEX
  5
3999
  8
0
 10
190.412600235387913
 20
124.620643228312403
 30
0.0
  0
VERTEX
  5
399A
  8
0
 10
190.3926375017819055
 20
124.6292188805687999
 30
0.0
  0
VERTEX
  5
399B
  8
0
 10
190.3734935013740994
 20
124.6373740106621
 30
0.0
  0
VERTEX
  5
399C
  8
0
 10
190.3642405113438087
 20
124.6412916085466946
 30
0.0
  0
VERTEX
  5
399D
  8
0
 10
190.3552061846945094
 20
124.6451015283819004
 30
0.0
  0
VERTEX
  5
399E
  8
0
 10
190.3378117449981914
 20
124.6523951262676064
 30
0.0
  0
VERTEX
  5
399F
  8
0
 10
190.3213476433334961
 20
124.659247942368907
 30
0.0
  0
VERTEX
  5
39A0
  8
0
 10
190.3058531094100942
 20
124.665652316644298
 30
0.0
  0
VERTEX
  5
39A1
  8
0
 10
190.2913693483297948
 20
124.6715996701981055
 30
0.0
  0
VERTEX
  5
39A2
  8
0
 10
190.277939732821892
 20
124.6770803862172983
 30
0.0
  0
VERTEX
  5
39A3
  8
0
 10
190.271634416681195
 20
124.6796424383517063
 30
0.0
  0
VERTEX
  5
39A4
  8
0
 10
190.26560996312611
 20
124.6820836982798966
 30
0.0
  0
VERTEX
  5
39A5
  8
0
 10
190.2544281724385939
 20
124.6865975930975026
 30
0.0
  0
VERTEX
  5
39A6
  8
0
 10
190.244444852877109
 20
124.6906087757807029
 30
0.0
  0
VERTEX
  5
39A7
  8
0
 10
190.2357125809789125
 20
124.6941027028196061
 30
0.0
  0
VERTEX
  5
39A8
  8
0
 10
190.2282860707935868
 20
124.6970634702892937
 30
0.0
  0
VERTEX
  5
39A9
  8
0
 10
190.2222223136137131
 20
124.6994736559302055
 30
0.0
  0
VERTEX
  5
39AA
  8
0
 10
190.2197199181273959
 20
124.7004663856875055
 30
0.0
  0
VERTEX
  5
39AB
  8
0
 10
190.2175806442334078
 20
124.7013141778813008
 30
0.0
  0
VERTEX
  5
39AC
  8
0
 10
190.2144227069981071
 20
124.7025641786211025
 30
0.0
  0
VERTEX
  5
39AD
  8
0
 10
190.212812302078504
 20
124.7032009401695944
 30
0.0
  0
VERTEX
  5
39AE
  8
0
 10
190.2126078841259869
 20
124.7032817350248024
 30
0.0
  0
SEQEND
  5
39AF
  8
0
  0
POLYLINE
  5
2D5C
  8
0
 66
     1
 10
0.0
 20
0.0
 30
0.0
  0
VERTEX
  5
39B0
  8
0
 10
186.6610234499200089
 20
122.4450608649381991
 30
0.0
  0
VERTEX
  5
39B1
  8
0
 10
186.7154870009948127
 20
122.4568290043630014
 30
0.0
  0
VERTEX
  5
39B2
  8
0
 10
186.8246212033897109
 20
122.4782909203996013
 30
0.0
  0
VERTEX
  5
39B3
  8
0
 10
186.9339291045396863
 20
122.4969909436323974
 30
0.0
  0
VERTEX
  5
39B4
  8
0
 10
186.9886091451340917
 20
122.5053080694380014
 30
0.0
  0
VERTEX
  5
39B5
  8
0
 10
187.0432851716504103
 20
122.5129388230288043
 30
0.0
  0
VERTEX
  5
39B6
  8
0
 10
187.1525595668925916
 20
122.5261502016150956
 30
0.0
  0
VERTEX
  5
39B7
  8
0
 10
187.2616193428299027
 20
122.5366472065074959
 30
0.0
  0
VERTEX
  5
39B8
  8
0
 10
187.3703296976615036
 20
122.5444588852428041
 30
0.0
  0
VERTEX
  5
39B9
  8
0
 10
187.478555301775998
 20
122.5496214860352069
 30
0.0
  0
VERTEX
  5
39BA
  8
0
 10
187.5861616902352864
 20
122.5521785757545956
 30
0.0
  0
VERTEX
  5
39BB
  8
0
 10
187.6396912511974051
 20
122.5524956608839062
 30
0.0
  0
VERTEX
  5
39BC
  8
0
 10
187.6932208121594101
 20
122.5521785757545956
 30
0.0
  0
VERTEX
  5
39BD
  8
0
 10
187.8008272006190111
 20
122.5496214860352069
 30
0.0
  0
VERTEX
  5
39BE
  8
0
 10
187.9090528047333066
 20
122.5444588852428041
 30
0.0
  0
VERTEX
  5
39BF
  8
0
 10
188.0177631595649075
 20
122.5366472065074959
 30
0.0
  0
VERTEX
  5
39C0
  8
0
 10
188.1268229355021901
 20
122.5261502016150956
 30
0.0
  0
VERTEX
  5
39C1
  8
0
 10
188.2360973307443999
 20
122.5129388230288043
 30
0.0
  0
VERTEX
  5
39C2
  8
0
 10
188.290773357260889
 20
122.5053080694380014
 30
0.0
  0
VERTEX
  5
39C3
  8
0
 10
188.3454533978550103
 20
122.4969909436323974
 30
0.0
  0
VERTEX
  5
39C4
  8
0
 10
188.4547612990052983
 20
122.4782909203996013
 30
0.0
  0
VERTEX
  5
39C5
  8
0
 10
188.5638955013999976
 20
122.4568290043630014
 30
0.0
  0
VERTEX
  5
39C6
  8
0
 10
188.6183590524748013
 20
122.4450608649381991
 30
0.0
  0
SEQEND
  5
39C7
  8
0
  0
POLYLINE
  5
2D5D
  8
0
 66
     1
 10
0.0
 20
0.0
 30
0.0
  0
VERTEX
  5
39C8
  8
0
 10
188.6183590524748013
 20
122.4450608649381991
 30
0.0
  0
VERTEX
  5
39C9
  8
0
 10
188.7408965724461041
 20
122.4159806343383963
 30
0.0
  0
VERTEX
  5
39CA
  8
0
 10
188.9839068916940903
 20
122.3474085138192038
 30
0.0
  0
VERTEX
  5
39CB
  8
0
 10
189.2229572113539007
 20
122.2652236860365065
 30
0.0
  0
VERTEX
  5
39CC
  8
0
 10
189.3405610640228076
 20
122.2191708764407991
 30
0.0
  0
VERTEX
  5
39CD
  8
0
 10
189.456700087226011
 20
122.169893364499103
 30
0.0
  0
VERTEX
  5
39CE
  8
0
 10
189.6840235050499928
 20
122.0619727212911982
 30
0.0
  0
VERTEX
  5
39CF
  8
0
 10
189.9037209478154864
 20
121.9422388229734935
 30
0.0
  0
VERTEX
  5
39D0
  8
0
 10
190.1146517989888025
 20
121.8116479129112975
 30
0.0
  0
VERTEX
  5
39D1
  8
0
 10
190.3158051707252127
 20
121.6713019901083044
 30
0.0
  0
VERTEX
  5
39D2
  8
0
 10
190.5062800757604009
 20
121.5224589949926042
 30
0.0
  0
VERTEX
  5
39D3
  8
0
 10
190.5972595385435966
 20
121.4452901189541052
 30
0.0
  0
VERTEX
  5
39D4
  8
0
 10
190.685282139731612
 20
121.3665423360938007
 30
0.0
  0
VERTEX
  5
39D5
  8
0
 10
190.8533797769154035
 20
121.2038749063144962
 30
0.0
  0
VERTEX
  5
39D6
  8
0
 10
191.0144661235549961
 20
121.0307887020193931
 30
0.0
  0
VERTEX
  5
39D7
  8
0
 10
191.1678166262909997
 20
120.8474704535459949
 30
0.0
  0
VERTEX
  5
39D8
  8
0
 10
191.3123300479745126
 20
120.6546747884576973
 30
0.0
  0
VERTEX
  5
39D9
  8
0
 10
191.4470472512373931
 20
120.4532303949038976
 30
0.0
  0
VERTEX
  5
39DA
  8
0
 10
191.5104680651419073
 20
120.3495448230982987
 30
0.0
  0
VERTEX
  5
39DB
  8
0
 10
191.5711369261524055
 20
120.244045177681798
 30
0.0
  0
VERTEX
  5
39DC
  8
0
 10
191.6838857598262109
 20
120.0281181591641939
 30
0.0
  0
VERTEX
  5
39DD
  8
0
 10
191.784717558907289
 20
119.8065036293698
 30
0.0
  0
VERTEX
  5
39DE
  8
0
 10
191.8305374534567136
 20
119.6938656304407971
 30
0.0
  0
VERTEX
  5
39DF
  8
0
 10
191.8732353325762006
 20
119.5801820692012996
 30
0.0
  0
VERTEX
  5
39E0
  8
0
 10
191.9491193717354918
 20
119.3502692029300931
 30
0.0
  0
VERTEX
  5
39E1
  8
0
 10
192.0121648636526004
 20
119.1179789375660931
 30
0.0
  0
VERTEX
  5
39E2
  8
0
 10
192.0388488900865127
 20
119.0013301630526001
 30
0.0
  0
VERTEX
  5
39E3
  8
0
 10
192.0623128695910111
 20
118.8845536815829007
 30
0.0
  0
VERTEX
  5
39E4
  8
0
 10
192.0996515073312025
 20
118.6512577890184019
 30
0.0
  0
VERTEX
  5
39E5
  8
0
 10
192.1244152479810907
 20
118.4194037860194015
 30
0.0
  0
VERTEX
  5
39E6
  8
0
 10
192.1369962325954077
 20
118.1903301824649049
 30
0.0
  0
VERTEX
  5
39E7
  8
0
 10
192.1378533704599931
 20
117.9608224520097934
 30
0.0
  0
VERTEX
  5
39E8
  8
0
 10
192.126702823997789
 20
117.7278417781548967
 30
0.0
  0
VERTEX
  5
39E9
  8
0
 10
192.1164707886347003
 20
117.6104469247097057
 30
0.0
  0
VERTEX
  5
39EA
  8
0
 10
192.1030713854368912
 20
117.4926612262968035
 30
0.0
  0
VERTEX
  5
39EB
  8
0
 10
192.0666371354371904
 20
117.2565432273681978
 30
0.0
  0
VERTEX
  5
39EC
  8
0
 10
192.017220219734611
 20
117.0207153535620961
 30
0.0
  0
VERTEX
  5
39ED
  8
0
 10
191.9547822362468139
 20
116.7863950653654967
 30
0.0
  0
VERTEX
  5
39EE
  8
0
 10
191.8794275966241116
 20
116.5547887985949984
 30
0.0
  0
VERTEX
  5
39EF
  8
0
 10
191.7913860006565869
 20
116.3270387262975021
 30
0.0
  0
VERTEX
  5
39F0
  8
0
 10
191.7426938049075886
 20
116.2149099706660991
 30
0.0
  0
VERTEX
  5
39F1
  8
0
 10
191.690954146166689
 20
116.1041202932355958
 30
0.0
  0
VERTEX
  5
39F2
  8
0
 10
191.5785946811554936
 20
115.8870971896611053
 30
0.0
  0
VERTEX
  5
39F3
  8
0
 10
191.4549154733797991
 20
115.6770127751522068
 30
0.0
  0
VERTEX
  5
39F4
  8
0
 10
191.3206461949482957
 20
115.4748326101071996
 30
0.0
  0
VERTEX
  5
39F5
  8
0
 10
191.1766363113875968
 20
115.2814413888172993
 30
0.0
  0
VERTEX
  5
39F6
  8
0
 10
191.023876160247795
 20
115.0976633841950019
 30
0.0
  0
VERTEX
  5
39F7
  8
0
 10
190.9445610789092029
 20
115.0096140166232033
 30
0.0
  0
VERTEX
  5
39F8
  8
0
 10
190.8634887017935
 20
114.9242355479608051
 30
0.0
  0
VERTEX
  5
39F9
  8
0
 10
190.6939033341263041
 20
114.7591841984038012
 30
0.0
  0
VERTEX
  5
39FA
  8
0
 10
190.512553337234408
 20
114.6005313331190933
 30
0.0
  0
VERTEX
  5
39FB
  8
0
 10
190.3201068378101013
 20
114.4496966958993056
 30
0.0
  0
VERTEX
  5
39FC
  8
0
 10
190.1173615027553865
 20
114.3079660172717951
 30
0.0
  0
VERTEX
  5
39FD
  8
0
 10
189.9052067566404958
 20
114.1764690403644948
 30
0.0
  0
VERTEX
  5
39FE
  8
0
 10
189.7959109327607905
 20
114.1148749477753057
 30
0.0
  0
VERTEX
  5
39FF
  8
0
 10
189.6846503022331092
 20
114.0562028065750013
 30
0.0
  0
VERTEX
  5
3A00
  8
0
 10
189.4568111242944042
 20
113.9480235935398014
 30
0.0
  0
VERTEX
  5
3A01
  8
0
 10
189.222814137655007
 20
113.852601317368098
 30
0.0
  0
VERTEX
  5
3A02
  8
0
 10
188.983734932751787
 20
113.7704258813849947
 30
0.0
  0
VERTEX
  5
3A03
  8
0
 10
188.7408892673923901
 20
113.7019136950619043
 30
0.0
  0
VERTEX
  5
3A04
  8
0
 10
188.4956623235607935
 20
113.6473164197263941
 30
0.0
  0
VERTEX
  5
3A05
  8
0
 10
188.3725934599534071
 20
113.6252652451880039
 30
0.0
  0
VERTEX
  5
3A06
  8
0
 10
188.2494576051194883
 20
113.6067060965173994
 30
0.0
  0
VERTEX
  5
3A07
  8
0
 10
188.0037226393303911
 20
113.5799801855459066
 30
0.0
  0
VERTEX
  5
3A08
  8
0
 10
187.7599593225808121
 20
113.5668537942168967
 30
0.0
  0
VERTEX
  5
3A09
  8
0
 10
187.6392887863792964
 20
113.5652481616697997
 30
0.0
  0
VERTEX
  5
3A0A
  8
0
 10
187.5186118165136975
 20
113.5668755356003032
 30
0.0
  0
VERTEX
  5
3A0B
  8
0
 10
187.2748393712564052
 20
113.5800467794479971
 30
0.0
  0
VERTEX
  5
3A0C
  8
0
 10
187.0291003433879951
 20
113.6068188188613988
 30
0.0
  0
VERTEX
  5
3A0D
  8
0
 10
186.9059643318813073
 20
113.6254013085954
 30
0.0
  0
VERTEX
  5
3A0E
  8
0
 10
186.7828965244333119
 20
113.6474759081950054
 30
0.0
  0
VERTEX
  5
3A0F
  8
0
 10
186.5376752186215015
 20
113.702120003150597
 30
0.0
  0
VERTEX
  5
3A10
  8
0
 10
186.2948398750104957
 20
113.7706784650108034
 30
0.0
  0
VERTEX
  5
3A11
  8
0
 10
186.0557755561804925
 20
113.8528990400382952
 30
0.0
  0
VERTEX
  5
3A12
  8
0
 10
185.8217975249393135
 20
113.9483648839779022
 30
0.0
  0
VERTEX
  5
3A13
  8
0
 10
185.5939807810638058
 20
114.0565858267681989
 30
0.0
  0
VERTEX
  5
3A14
  8
0
 10
185.4827328399371993
 20
114.1152778902714999
 30
0.0
  0
VERTEX
  5
3A15
  8
0
 10
185.3734506461867966
 20
114.1768911859792013
 30
0.0
  0
VERTEX
  5
3A16
  8
0
 10
185.1613258020724118
 20
114.3084241690543053
 30
0.0
  0
VERTEX
  5
3A17
  8
0
 10
184.9586135256056991
 20
114.4501873034288053
 30
0.0
  0
VERTEX
  5
3A18
  8
0
 10
184.7662029119414058
 20
114.601050355558101
 30
0.0
  0
VERTEX
  5
3A19
  8
0
 10
184.5848912904419876
 20
114.7597270758223971
 30
0.0
  0
VERTEX
  5
3A1A
  8
0
 10
184.4153452961801065
 20
114.9247983415926058
 30
0.0
  0
VERTEX
  5
3A1B
  8
0
 10
184.334284172359105
 20
115.0101949517474935
 30
0.0
  0
VERTEX
  5
3A1C
  8
0
 10
184.2549813779735928
 20
115.0982619428384055
 30
0.0
  0
VERTEX
  5
3A1D
  8
0
 10
184.102248724690611
 20
115.2820734296436029
 30
0.0
  0
VERTEX
  5
3A1E
  8
0
 10
183.9582698877759981
 20
115.4754954979533039
 30
0.0
  0
VERTEX
  5
3A1F
  8
0
 10
183.8240347310467087
 20
115.6777036442825022
 30
0.0
  0
VERTEX
  5
3A20
  8
0
 10
183.7003922769823987
 20
115.8878129583494001
 30
0.0
  0
VERTEX
  5
3A21
  8
0
 10
183.5880718145556898
 20
116.1048575806330945
 30
0.0
  0
VERTEX
  5
3A22
  8
0
 10
183.5363523658342046
 20
116.215656680018796
 30
0.0
  0
VERTEX
  5
3A23
  8
0
 10
183.4876807751307979
 20
116.3277939433178005
 30
0.0
  0
VERTEX
  5
3A24
  8
0
 10
183.3996812263380036
 20
116.555558581490601
 30
0.0
  0
VERTEX
  5
3A25
  8
0
 10
183.3243695160817026
 20
116.7871759113958063
 30
0.0
  0
VERTEX
  5
3A26
  8
0
 10
183.2619750425525069
 20
117.0215032766386969
 30
0.0
  0
VERTEX
  5
3A27
  8
0
 10
183.2126017489702861
 20
117.2573341517316976
 30
0.0
  0
VERTEX
  5
3A28
  8
0
 10
183.1762107513642093
 20
117.4934510777878955
 30
0.0
  0
VERTEX
  5
3A29
  8
0
 10
183.1628326907218991
 20
117.6112346839038025
 30
0.0
  0
VERTEX
  5
3A2A
  8
0
 10
183.1526217292118019
 20
117.7286263850138965
 30
0.0
  0
VERTEX
  5
3A2B
  8
0
 10
183.1415122709483114
 20
117.9615975490741988
 30
0.0
  0
VERTEX
  5
3A2C
  8
0
 10
183.1424086524988013
 20
118.1910915278293004
 30
0.0
  0
VERTEX
  5
3A2D
  8
0
 10
183.1550251624622945
 20
118.4201215283512028
 30
0.0
  0
VERTEX
  5
3A2E
  8
0
 10
183.1798078452960112
 20
118.6518346289820016
 30
0.0
  0
VERTEX
  5
3A2F
  8
0
 10
183.2171381576328031
 20
118.8849197205125989
 30
0.0
  0
VERTEX
  5
3A30
  8
0
 10
183.240585749022614
 20
119.0015728848895975
 30
0.0
  0
VERTEX
  5
3A31
  8
0
 10
183.267244744880486
 20
119.1180905598072002
 30
0.0
  0
VERTEX
  5
3A32
  8
0
 10
183.3302148796647941
 20
119.3501085748810056
 30
0.0
  0
VERTEX
  5
3A33
  8
0
 10
183.4059943360869909
 20
119.5797577383757044
 30
0.0
  0
VERTEX
  5
3A34
  8
0
 10
183.4486317632558041
 20
119.6933201696467961
 30
0.0
  0
VERTEX
  5
3A35
  8
0
 10
183.4943877770604956
 20
119.8058477127347032
 30
0.0
  0
VERTEX
  5
3A36
  8
0
 10
183.5950836760964933
 20
120.0272717008170957
 30
0.0
  0
VERTEX
  5
3A37
  8
0
 10
183.7077059213362134
 20
120.2430763425911948
 30
0.0
  0
VERTEX
  5
3A38
  8
0
 10
183.7683239884916873
 20
120.3485492171779043
 30
0.0
  0
VERTEX
  5
3A39
  8
0
 10
183.831707074864994
 20
120.4522336450787066
 30
0.0
  0
VERTEX
  5
3A3A
  8
0
 10
183.9664032745166935
 20
120.6537582866531011
 30
0.0
  0
VERTEX
  5
3A3B
  8
0
 10
184.110996244810508
 20
120.8467513490355003
 30
0.0
  0
VERTEX
  5
3A3C
  8
0
 10
184.2645694554261127
 20
121.0303956553310059
 30
0.0
  0
VERTEX
  5
3A3D
  8
0
 10
184.4260692728227014
 20
121.2039427419104953
 30
0.0
  0
VERTEX
  5
3A3E
  8
0
 10
184.5944107564936019
 20
121.3668274227233042
 30
0.0
  0
VERTEX
  5
3A3F
  8
0
 10
184.682100666584887
 20
121.4452706919924054
 30
0.0
  0
VERTEX
  5
3A40
  8
0
 10
184.7727912128474088
 20
121.5222020176250055
 30
0.0
  0
VERTEX
  5
3A41
  8
0
 10
184.9628201154037868
 20
121.6707422596671933
 30
0.0
  0
VERTEX
  5
3A42
  8
0
 10
185.1636970029024951
 20
121.8109676124665981
 30
0.0
  0
VERTEX
  5
3A43
  8
0
 10
185.3745052637146955
 20
121.9415660770232961
 30
0.0
  0
VERTEX
  5
3A44
  8
0
 10
185.594221194279811
 20
122.0613928421652048
 30
0.0
  0
VERTEX
  5
3A45
  8
0
 10
185.8216868565000937
 20
122.169454247115695
 30
0.0
  0
VERTEX
  5
3A46
  8
0
 10
185.9379354182827058
 20
122.218809394226497
 30
0.0
  0
VERTEX
  5
3A47
  8
0
 10
186.0556589942154062
 20
122.2649358596365943
 30
0.0
  0
VERTEX
  5
3A48
  8
0
 10
186.2949906771937947
 20
122.3472568457012954
 30
0.0
  0
VERTEX
  5
3A49
  8
0
 10
186.5383214143608939
 20
122.4159391505426981
 30
0.0
  0
VERTEX
  5
3A4A
  8
0
 10
186.6610234499200089
 20
122.4450608649381991
 30
0.0
  0
SEQEND
  5
3A4B
  8
0
  0
CIRCLE
  5
2D5E
  8
0
 10
187.6396912511974051
 20
118.1932817350247973
 30
0.0
 40
4.2999999999999989
  0
ARC
  5
2D5F
  8
0
 10
187.6396912511974051
 20
119.9932817350247944
 30
0.0
 40
0.4500000000000003
 50
13.3417559035420101
 51
166.6582417727780978
  0
ARC
  5
2D60
  8
0
 10
188.8437923015873139
 20
120.2788459317473979
 30
0.0
 40
0.7875000000000004
 50
193.3417595550380952
 51
286.6582417727769894
  0
ARC
  5
2D61
  8
0
 10
189.1985369780094004
 20
119.093281735024803
 30
0.0
 40
0.4500000000000001
 50
313.3417582272194863
 51
106.6582417727770036
  0
ARC
  5
2D62
  8
0
 10
190.0478933519773932
 20
118.1932817350247973
 30
0.0
 40
0.7874999999999993
 50
133.3417582272194011
 51
226.6582417727805989
  0
ARC
  5
2D63
  8
0
 10
189.1985369780094004
 20
117.2932817350248058
 30
0.0
 40
0.4500000000000003
 50
253.3417559035410989
 51
46.6582417727805776
  0
ARC
  5
2D64
  8
0
 10
186.4355902008074963
 20
120.2788459317473979
 30
0.0
 40
0.7874999999999999
 50
253.3417593113773023
 51
346.6582417727781262
  0
ARC
  5
2D65
  8
0
 10
186.0808455243852961
 20
119.093281735024803
 30
0.0
 40
0.4500000000000006
 50
73.3417563299478701
 51
226.6582417727805989
  0
ARC
  5
2D66
  8
0
 10
185.2314891504175876
 20
118.1932817350247973
 30
0.0
 40
0.7874999999999996
 50
313.3417593113786097
 51
46.6582417727805776
  0
ARC
  5
2D67
  8
0
 10
186.0808455243852961
 20
117.2932817350248058
 30
0.0
 40
0.4500000000000003
 50
133.3417563299491917
 51
286.6582417727769894
  0
ARC
  5
2D68
  8
0
 10
186.4355902008074963
 20
116.1077175383022961
 30
0.0
 40
0.7875000000000004
 50
13.34175822722192
 51
106.6582417727770036
  0
ARC
  5
2D69
  8
0
 10
187.6396912511974051
 20
116.3932817350248996
 30
0.0
 40
0.4500000000000006
 50
193.3417582272219022
 51
346.6582417727781262
  0
ARC
  5
2D6A
  8
0
 10
188.8437923015873139
 20
116.1077175383022961
 30
0.0
 40
0.7875000000000008
 50
73.3417595550374841
 51
166.6582417727780978
  0
LINE
  5
2D6B
  8
3
 10
87.5240575042101909
 20
37.3142817350248421
 30
0.0
 11
89.5240575042102051
 21
37.3142817350248421
 31
0.0
  0
LINE
  5
2D6C
  8
3
 10
87.5240575042101909
 20
34.0722817350248732
 30
0.0
 11
89.5240575042102051
 21
34.0722817350248732
 31
0.0
  0
LINE
  5
2D6D
  8
0
 10
137.6910989232262921
 20
32.3292295971860284
 30
0.0
 11
137.6910989232262921
 21
39.0573338728636799
 31
0.0
  0
LINE
  5
2D6E
  8
0
 10
125.8240575042101028
 20
31.6083464130423799
 30
0.0
 11
135.748842381192901
 21
31.6083464130423799
 31
0.0
  0
LINE
  5
2D6F
  8
0
 10
130.4182637065518122
 20
42.693281735024847
 30
0.0
 11
121.3240575042101028
 21
42.693281735024847
 31
0.0
  0
LINE
  5
2D70
  8
0
 10
121.3240575042101028
 20
28.6932817350248612
 30
0.0
 11
130.4182637065518122
 21
28.6932817350248612
 31
0.0
  0
LINE
  5
2D71
  8
0
 10
135.748842381192901
 20
39.7782170570073319
 30
0.0
 11
125.8240575042101028
 21
39.7782170570073319
 31
0.0
  0
LINE
  5
2D72
  8
0
 10
121.3240575042101028
 20
42.193281735024847
 30
0.0
 11
110.8240575042101028
 21
42.193281735024847
 31
0.0
  0
LINE
  5
2D73
  8
0
 10
110.8240575042101028
 20
29.1932817350248506
 30
0.0
 11
121.3240575042101028
 21
29.1932817350248506
 31
0.0
  0
LINE
  5
2D74
  8
0
 10
106.8240575042101028
 20
30.9932817350248087
 30
0.0
 11
107.1240575042102989
 21
30.6932817350248612
 31
0.0
  0
LINE
  5
2D75
  8
0
 10
107.1240575042102989
 20
40.693281735024847
 30
0.0
 11
106.8240575042101028
 21
40.3932817350248925
 31
0.0
  0
LINE
  5
2D76
  8
0
 10
107.1240575042102989
 20
30.6932817350248612
 30
0.0
 11
110.8240575042101028
 21
30.6932817350248612
 31
0.0
  0
LINE
  5
2D77
  8
0
 10
110.8240575042101028
 20
40.693281735024847
 30
0.0
 11
107.1240575042102989
 21
40.693281735024847
 31
0.0
  0
POLYLINE
  5
2D78
  8
0
 66
     1
 10
0.0
 20
0.0
 30
0.0
  0
VERTEX
  5
3A4C
  8
0
 10
133.2778782638094128
 20
31.60846728352697
 30
0.0
  0
VERTEX
  5
3A4D
  8
0
 10
133.051825774381399
 20
31.4425871024595196
 30
0.0
  0
VERTEX
  5
3A4E
  8
0
 10
132.5831880697068073
 20
31.0350373927097287
 30
0.0
  0
VERTEX
  5
3A4F
  8
0
 10
132.0883369435890984
 20
30.518542969563601
 30
0.0
  0
VERTEX
  5
3A50
  8
0
 10
131.8326268054858019
 20
30.2191516823179889
 30
0.0
  0
SEQEND
  5
3A51
  8
0
  0
POLYLINE
  5
2D79
  8
0
 66
     1
 10
0.0
 20
0.0
 30
0.0
  0
VERTEX
  5
3A52
  8
0
 10
125.122216023782201
 20
32.0883497076962811
 30
0.0
  0
VERTEX
  5
3A53
  8
0
 10
125.1592128078960968
 20
32.0898427832619717
 30
0.0
  0
VERTEX
  5
3A54
  8
0
 10
125.2303089540624939
 20
32.0920341187916591
 30
0.0
  0
VERTEX
  5
3A55
  8
0
 10
125.2974976979459001
 20
32.0931421135989368
 30
0.0
  0
VERTEX
  5
3A56
  8
0
 10
125.329611213965407
 20
32.0932817350248314
 30
0.0
  0
SEQEND
  5
3A57
  8
0
  0
POLYLINE
  5
2D7A
  8
0
 66
     1
 10
0.0
 20
0.0
 30
0.0
  0
VERTEX
  5
3A58
  8
0
 10
125.329611213965407
 20
32.0932817350248314
 30
0.0
  0
VERTEX
  5
3A59
  8
0
 10
125.357046459566007
 20
32.0931729521857321
 30
0.0
  0
VERTEX
  5
3A5A
  8
0
 10
125.4095926642258974
 20
32.0922974024621723
 30
0.0
  0
VERTEX
  5
3A5B
  8
0
 10
125.4590197822164015
 20
32.0905339107468279
 30
0.0
  0
VERTEX
  5
3A5C
  8
0
 10
125.4825572194005048
 20
32.0893157137711995
 30
0.0
  0
VERTEX
  5
3A5D
  8
0
 10
125.5053077024976034
 20
32.0878716428560935
 30
0.0
  0
VERTEX
  5
3A5E
  8
0
 10
125.548440953546006
 20
32.084302010449548
 30
0.0
  0
VERTEX
  5
3A5F
  8
0
 10
125.5884088244821015
 20
32.0798187092231473
 30
0.0
  0
VERTEX
  5
3A60
  8
0
 10
125.6252054445949966
 20
32.0744177377987896
 30
0.0
  0
VERTEX
  5
3A61
  8
0
 10
125.6588298205506931
 20
32.0680973964087315
 30
0.0
  0
VERTEX
  5
3A62
  8
0
 10
125.6892857887593067
 20
32.0608582756084814
 30
0.0
  0
VERTEX
  5
3A63
  8
0
 10
125.7033280468154999
 20
32.0568950008591216
 30
0.0
  0
VERTEX
  5
3A64
  8
0
 10
125.7165816481938947
 20
32.0527033322764865
 30
0.0
  0
VERTEX
  5
3A65
  8
0
 10
125.740730029493605
 20
32.0436380004569372
 30
0.0
  0
VERTEX
  5
3A66
  8
0
 10
125.7617481269369932
 20
32.0336702352222318
 30
0.0
  0
VERTEX
  5
3A67
  8
0
 10
125.7796579076401002
 20
32.0228105314278508
 30
0.0
  0
VERTEX
  5
3A68
  8
0
 10
125.7944862702589006
 20
32.0110719220661366
 30
0.0
  0
VERTEX
  5
3A69
  8
0
 10
125.8062651546178046
 20
31.9984699561580683
 30
0.0
  0
VERTEX
  5
3A6A
  8
0
 10
125.8110224182688057
 20
31.9918507514882293
 30
0.0
  0
VERTEX
  5
3A6B
  8
0
 10
125.8150316035461032
 20
31.9850226561865583
 30
0.0
  0
VERTEX
  5
3A6C
  8
0
 10
125.8208277780114059
 20
31.9707504551258097
 30
0.0
  0
VERTEX
  5
3A6D
  8
0
 10
125.8237009263885966
 20
31.9556761131494085
 30
0.0
  0
VERTEX
  5
3A6E
  8
0
 10
125.8240575042101028
 20
31.9478458631526117
 30
0.0
  0
SEQEND
  5
3A6F
  8
0
  0
POLYLINE
  5
2D7B
  8
0
 66
     1
 10
0.0
 20
0.0
 30
0.0
  0
VERTEX
  5
3A70
  8
0
 10
135.7816498454400005
 20
39.7747947661523966
 30
0.0
  0
VERTEX
  5
3A71
  8
0
 10
136.2158177642230044
 20
39.6784804506514135
 30
0.0
  0
VERTEX
  5
3A72
  8
0
 10
136.9351246238879014
 20
39.4850210081703423
 30
0.0
  0
VERTEX
  5
3A73
  8
0
 10
137.4548865909310962
 20
39.2906878713461509
 30
0.0
  0
VERTEX
  5
3A74
  8
0
 10
137.6396912511976041
 20
39.193281735024847
 30
0.0
  0
SEQEND
  5
3A75
  8
0
  0
POLYLINE
  5
2D7C
  8
0
 66
     1
 10
0.0
 20
0.0
 30
0.0
  0
VERTEX
  5
3A76
  8
0
 10
129.3656811848833001
 20
39.193281735024847
 30
0.0
  0
VERTEX
  5
3A77
  8
0
 10
129.2939298767159073
 20
39.1990738128434302
 30
0.0
  0
VERTEX
  5
3A78
  8
0
 10
129.1637230905865863
 20
39.2108698978257024
 30
0.0
  0
VERTEX
  5
3A79
  8
0
 10
129.051579309743687
 20
39.2229175664469309
 30
0.0
  0
VERTEX
  5
3A7A
  8
0
 10
129.0023934489437067
 20
39.2290239384415571
 30
0.0
  0
SEQEND
  5
3A7B
  8
0
  0
LINE
  5
2D7D
  8
0
 10
129.0023934489437067
 20
39.2290239384415571
 30
0.0
 11
126.1659846627701995
 21
39.6000783893111219
 31
0.0
  0
POLYLINE
  5
2D7E
  8
0
 66
     1
 10
0.0
 20
0.0
 30
0.0
  0
VERTEX
  5
3A7C
  8
0
 10
126.1659846627701995
 20
39.6000783893111219
 30
0.0
  0
VERTEX
  5
3A7D
  8
0
 10
126.1473649036012006
 20
39.6025502937425671
 30
0.0
  0
VERTEX
  5
3A7E
  8
0
 10
126.111662594541599
 20
39.6075095789412188
 30
0.0
  0
VERTEX
  5
3A7F
  8
0
 10
126.0780168305294069
 20
39.6124885287949127
 30
0.0
  0
VERTEX
  5
3A80
  8
0
 10
126.0619676395418054
 20
39.6149850129634586
 30
0.0
  0
VERTEX
  5
3A81
  8
0
 10
126.0464355082680044
 20
39.6174859747379102
 30
0.0
  0
VERTEX
  5
3A82
  8
0
 10
126.0169260399325992
 20
39.6225007438633128
 30
0.0
  0
VERTEX
  5
3A83
  8
0
 10
125.9894953514327938
 20
39.6275316591984819
 30
0.0
  0
VERTEX
  5
3A84
  8
0
 10
125.9641498807851008
 20
39.6325775399814617
 30
0.0
  0
VERTEX
  5
3A85
  8
0
 10
125.9408955766037934
 20
39.6376372019377001
 30
0.0
  0
VERTEX
  5
3A86
  8
0
 10
125.9197378967025003
 20
39.6427094575580412
 30
0.0
  0
VERTEX
  5
3A87
  8
0
 10
125.909946861903407
 20
39.6452499360798782
 30
0.0
  0
VERTEX
  5
3A88
  8
0
 10
125.900681806815598
 20
39.6477931163778265
 30
0.0
  0
VERTEX
  5
3A89
  8
0
 10
125.8837317794310025
 20
39.6528869852560817
 30
0.0
  0
VERTEX
  5
3A8A
  8
0
 10
125.8688917927417066
 20
39.6579898686552923
 30
0.0
  0
VERTEX
  5
3A8B
  8
0
 10
125.8561653297105067
 20
39.6631005689222818
 30
0.0
  0
VERTEX
  5
3A8C
  8
0
 10
125.8455553772546978
 20
39.6682178865694794
 30
0.0
  0
VERTEX
  5
3A8D
  8
0
 10
125.837064425543403
 20
39.6733406205559476
 30
0.0
  0
VERTEX
  5
3A8E
  8
0
 10
125.8336142171690994
 20
39.675903642995813
 30
0.0
  0
VERTEX
  5
3A8F
  8
0
 10
125.830694467413295
 20
39.6784675685694808
 30
0.0
  0
VERTEX
  5
3A90
  8
0
 10
125.8264469979017974
 20
39.6835975273092316
 30
0.0
  0
VERTEX
  5
3A91
  8
0
 10
125.8243230138951958
 20
39.6887292927672632
 30
0.0
  0
VERTEX
  5
3A92
  8
0
 10
125.8240575042101028
 20
39.6912954766394677
 30
0.0
  0
SEQEND
  5
3A93
  8
0
  0
LINE
  5
2D7F
  8
0
 10
137.6396912511976041
 20
39.193281735024847
 30
0.0
 11
129.3656811848833001
 21
39.193281735024847
 31
0.0
  0
POLYLINE
  5
2D80
  8
0
 66
     1
 10
0.0
 20
0.0
 30
0.0
  0
VERTEX
  5
3A94
  8
0
 10
137.6396912511976041
 20
39.193281735024847
 30
0.0
  0
VERTEX
  5
3A95
  8
0
 10
137.6410494214379128
 20
39.1932099471452275
 30
0.0
  0
VERTEX
  5
3A96
  8
0
 10
137.6437637799342895
 20
39.1926327258548071
 30
0.0
  0
VERTEX
  5
3A97
  8
0
 10
137.6464745225158026
 20
39.1914710917067595
 30
0.0
  0
VERTEX
  5
3A98
  8
0
 10
137.6478281756295132
 20
39.190668908451741
 30
0.0
  0
VERTEX
  5
3A99
  8
0
 10
137.6491804918063053
 20
39.1897180331799717
 30
0.0
  0
VERTEX
  5
3A9A
  8
0
 10
137.6518805446870033
 20
39.1873670584805467
 30
0.0
  0
VERTEX
  5
3A9B
  8
0
 10
137.6545735546459071
 20
39.1844121983188387
 30
0.0
  0
VERTEX
  5
3A9C
  8
0
 10
137.6572584140222943
 20
39.1808480066023819
 30
0.0
  0
VERTEX
  5
3A9D
  8
0
 10
137.6599340361539134
 20
39.176669559050012
 30
0.0
  0
VERTEX
  5
3A9E
  8
0
 10
137.6625993574278937
 20
39.1718724497233524
 30
0.0
  0
VERTEX
  5
3A9F
  8
0
 10
137.6639278296499072
 20
39.1692406604478691
 30
0.0
  0
VERTEX
  5
3AA0
  8
0
 10
137.6652533392365001
 20
39.1664527854651823
 30
0.0
  0
VERTEX
  5
3AA1
  8
0
 10
137.6678949698429051
 20
39.1604071782211776
 30
0.0
  0
VERTEX
  5
3AA2
  8
0
 10
137.6705232661585114
 20
39.1537327352178224
 30
0.0
  0
VERTEX
  5
3AA3
  8
0
 10
137.6731372754296103
 20
39.1464270469608024
 30
0.0
  0
VERTEX
  5
3AA4
  8
0
 10
137.6757360768386889
 20
39.1384881730119076
 30
0.0
  0
VERTEX
  5
3AA5
  8
0
 10
137.6783187830193071
 20
39.1299146254988699
 30
0.0
  0
VERTEX
  5
3AA6
  8
0
 10
137.6796038333201011
 20
39.1253895007663886
 30
0.0
  0
VERTEX
  5
3AA7
  8
0
 10
137.680884545290013
 20
39.1207053361177302
 30
0.0
  0
VERTEX
  5
3AA8
  8
0
 10
137.6834325371006003
 20
39.1108597013068717
 30
0.0
  0
VERTEX
  5
3AA9
  8
0
 10
137.6859619378467983
 20
39.1003776530828091
 30
0.0
  0
VERTEX
  5
3AAA
  8
0
 10
137.687219417245899
 20
39.0948980809976518
 30
0.0
  0
SEQEND
  5
3AAB
  8
0
  0
POLYLINE
  5
2D81
  8
0
 66
     1
 10
0.0
 20
0.0
 30
0.0
  0
VERTEX
  5
3AAC
  8
0
 10
137.687219417245899
 20
39.0948980809976518
 30
0.0
  0
VERTEX
  5
3AAD
  8
0
 10
137.6884082443133082
 20
39.089063115897531
 30
0.0
  0
VERTEX
  5
3AAE
  8
0
 10
137.6901330224359867
 20
39.0768796259122126
 30
0.0
  0
VERTEX
  5
3AAF
  8
0
 10
137.6909919468378973
 20
39.0640171484496221
 30
0.0
  0
VERTEX
  5
3AB0
  8
0
 10
137.6910989232262921
 20
39.0573338728565176
 30
0.0
  0
SEQEND
  5
3AB1
  8
0
  0
POLYLINE
  5
2D82
  8
0
 66
     1
 10
0.0
 20
0.0
 30
0.0
  0
VERTEX
  5
3AB2
  8
0
 10
137.6910989232262921
 20
39.0573338728565176
 30
0.0
  0
VERTEX
  5
3AB3
  8
0
 10
137.6906968877470945
 20
39.0438672432677976
 30
0.0
  0
VERTEX
  5
3AB4
  8
0
 10
137.6875082092566061
 20
39.015070770759209
 30
0.0
  0
VERTEX
  5
3AB5
  8
0
 10
137.6812136765364016
 20
38.9838637106220602
 30
0.0
  0
VERTEX
  5
3AB6
  8
0
 10
137.6769353326990881
 20
38.9673912625102474
 30
0.0
  0
VERTEX
  5
3AB7
  8
0
 10
137.6719239976621907
 20
38.9503612956750018
 30
0.0
  0
VERTEX
  5
3AB8
  8
0
 10
137.6597744004193942
 20
38.9147024756121525
 30
0.0
  0
VERTEX
  5
3AB9
  8
0
 10
137.6449224594460929
 20
38.8770469519912893
 30
0.0
  0
VERTEX
  5
3ABA
  8
0
 10
137.6275457892737109
 20
38.8375732134185725
 30
0.0
  0
VERTEX
  5
3ABB
  8
0
 10
137.6078419245176008
 20
38.7964810982077069
 30
0.0
  0
VERTEX
  5
3ABC
  8
0
 10
137.5860275035805103
 20
38.7539914182825029
 30
0.0
  0
VERTEX
  5
3ABD
  8
0
 10
137.5744012408736978
 20
38.7322965511748905
 30
0.0
  0
VERTEX
  5
3ABE
  8
0
 10
137.562336125683089
 20
38.7103431785521224
 30
0.0
  0
VERTEX
  5
3ABF
  8
0
 10
137.5368999729984125
 20
38.6655909717020876
 30
0.0
  0
VERTEX
  5
3AC0
  8
0
 10
137.5093352902788979
 20
38.6189521804471312
 30
0.0
  0
VERTEX
  5
3AC1
  8
0
 10
137.4796331662354021
 20
38.5703665130113578
 30
0.0
  0
VERTEX
  5
3AC2
  8
0
 10
137.4478606362675919
 20
38.5199012603090267
 30
0.0
  0
VERTEX
  5
3AC3
  8
0
 10
137.4140932571133931
 20
38.4676307507001383
 30
0.0
  0
VERTEX
  5
3AC4
  8
0
 10
137.3964871493670898
 20
38.4408433540221921
 30
0.0
  0
VERTEX
  5
3AC5
  8
0
 10
137.3784139183075013
 20
38.4136350380963876
 30
0.0
  0
VERTEX
  5
3AC6
  8
0
 10
137.3409116498897902
 20
38.3579986463628728
 30
0.0
  0
VERTEX
  5
3AC7
  8
0
 10
137.3016815154375081
 20
38.3008109062373521
 30
0.0
  0
VERTEX
  5
3AC8
  8
0
 10
137.2814500787926875
 20
38.2716649201092167
 30
0.0
  0
VERTEX
  5
3AC9
  8
0
 10
137.2608253826109035
 20
38.2421674060428103
 30
0.0
  0
VERTEX
  5
3ACA
  8
0
 10
137.2184513476713903
 20
38.1821693625936831
 30
0.0
  0
VERTEX
  5
3ACB
  8
0
 10
137.1746728803813085
 20
38.1209226183769303
 30
0.0
  0
VERTEX
  5
3ACC
  8
0
 10
137.1522937028965998
 20
38.0898650842926116
 30
0.0
  0
VERTEX
  5
3ACD
  8
0
 10
137.1296079701315875
 20
38.0585366694498788
 30
0.0
  0
VERTEX
  5
3ACE
  8
0
 10
137.0833749954659879
 20
37.995119229439112
 30
0.0
  0
VERTEX
  5
3ACF
  8
0
 10
137.0360916782829861
 20
37.9307751733704634
 30
0.0
  0
VERTEX
  5
3AD0
  8
0
 10
136.9878843820850989
 20
37.8656193432777073
 30
0.0
  0
VERTEX
  5
3AD1
  8
0
 10
136.9388846775578941
 20
37.7997717728369906
 30
0.0
  0
VERTEX
  5
3AD2
  8
0
 10
136.88922868243219
 20
37.7333568250269735
 30
0.0
  0
VERTEX
  5
3AD3
  8
0
 10
136.8641982101765961
 20
37.6999764507565231
 30
0.0
  0
VERTEX
  5
3AD4
  8
0
 10
136.8390564706731993
 20
37.6665024612321275
 30
0.0
  0
VERTEX
  5
3AD5
  8
0
 10
136.7885115037859975
 20
37.5993395685610921
 30
0.0
  0
VERTEX
  5
3AD6
  8
0
 10
136.7377400843708131
 20
37.5320013416327782
 30
0.0
  0
VERTEX
  5
3AD7
  8
0
 10
136.6868908279076038
 20
37.4646227132066514
 30
0.0
  0
VERTEX
  5
3AD8
  8
0
 10
136.6361141451208141
 20
37.3973398267110468
 30
0.0
  0
VERTEX
  5
3AD9
  8
0
 10
136.5855617239521109
 20
37.3302895426444792
 30
0.0
  0
VERTEX
  5
3ADA
  8
0
 10
136.5604172326706021
 20
37.296894475772703
 30
0.0
  0
VERTEX
  5
3ADB
  8
0
 10
136.5353553588460045
 20
37.2635681999781099
 30
0.0
  0
VERTEX
  5
3ADC
  8
0
 10
136.4846269549670126
 20
37.1959491807075935
 30
0.0
  0
VERTEX
  5
3ADD
  8
0
 10
136.4330481472696874
 20
37.1269036046459604
 30
0.0
  0
VERTEX
  5
3ADE
  8
0
 10
136.3808022196772924
 20
37.056566080664922
 30
0.0
  0
VERTEX
  5
3ADF
  8
0
 10
136.3280843359301002
 20
36.9850689849911731
 30
0.0
  0
VERTEX
  5
3AE0
  8
0
 10
136.2751022716271052
 20
36.9125404447167327
 30
0.0
  0
VERTEX
  5
3AE1
  8
0
 10
136.2485808631361976
 20
36.8759277458259902
 30
0.0
  0
VERTEX
  5
3AE2
  8
0
 10
136.2220778326476136
 20
36.8391023569036378
 30
0.0
  0
VERTEX
  5
3AE3
  8
0
 10
136.1692497595435043
 20
36.7648693207896002
 30
0.0
  0
VERTEX
  5
3AE4
  8
0
 10
136.1168766883714056
 20
36.6899462298094221
 30
0.0
  0
VERTEX
  5
3AE5
  8
0
 10
136.0652406248516968
 20
36.6144246766713621
 30
0.0
  0
VERTEX
  5
3AE6
  8
0
 10
136.0146522003043117
 20
36.5383794207918271
 30
0.0
  0
VERTEX
  5
3AE7
  8
0
 10
135.9654831656513068
 20
36.4619047348857492
 30
0.0
  0
VERTEX
  5
3AE8
  8
0
 10
135.9415611310197107
 20
36.4235343649333316
 30
0.0
  0
VERTEX
  5
3AE9
  8
0
 10
135.9181444089369108
 20
36.3850678045253488
 30
0.0
  0
VERTEX
  5
3AEA
  8
0
 10
135.8730390069891882
 20
36.3078036749609865
 30
0.0
  0
VERTEX
  5
3AEB
  8
0
 10
135.8306382633132898
 20
36.2299928516684275
 30
0.0
  0
VERTEX
  5
3AEC
  8
0
 10
135.7915087483609966
 20
36.1514602137523724
 30
0.0
  0
VERTEX
  5
3AED
  8
0
 10
135.756345886048905
 20
36.0719850100417005
 30
0.0
  0
VERTEX
  5
3AEE
  8
0
 10
135.7379960805959058
 20
36.0250853090334928
 30
0.0
  0
VERTEX
  5
3AEF
  8
0
 10
135.7330796892923956
 20
36.0116005279402671
 30
0.0
  0
VERTEX
  5
3AF0
  8
0
 10
135.7283168294040081
 20
35.9980747680407802
 30
0.0
  0
VERTEX
  5
3AF1
  8
0
 10
135.72599447108351
 20
35.9912959238788872
 30
0.0
  0
VERTEX
  5
3AF2
  8
0
 10
135.7237123075427121
 20
35.9845061081211313
 30
0.0
  0
VERTEX
  5
3AF3
  8
0
 10
135.7192710516985983
 20
35.9708925463830127
 30
0.0
  0
VERTEX
  5
3AF4
  8
0
 10
135.7149981124032934
 20
35.9572320070711129
 30
0.0
  0
VERTEX
  5
3AF5
  8
0
 10
135.7129263733216931
 20
35.9503834538322025
 30
0.0
  0
VERTEX
  5
3AF6
  8
0
 10
135.7108986628803109
 20
35.9435223483032331
 30
0.0
  0
VERTEX
  5
3AF7
  8
0
 10
135.7069779979404984
 20
35.9297613710320292
 30
0.0
  0
VERTEX
  5
3AF8
  8
0
 10
135.7032415313663876
 20
35.9159468290350077
 30
0.0
  0
VERTEX
  5
3AF9
  8
0
 10
135.7014440957667034
 20
35.9090187590787124
 30
0.0
  0
VERTEX
  5
3AFA
  8
0
 10
135.6996947915309875
 20
35.9020764397774172
 30
0.0
  0
VERTEX
  5
3AFB
  8
0
 10
135.6963434150027865
 20
35.8881478959518034
 30
0.0
  0
VERTEX
  5
3AFC
  8
0
 10
135.6931931379077128
 20
35.8741588774424116
 30
0.0
  0
VERTEX
  5
3AFD
  8
0
 10
135.6902497848514884
 20
35.8601070634146524
 30
0.0
  0
VERTEX
  5
3AFE
  8
0
 10
135.6875192552548128
 20
35.8459901441806679
 30
0.0
  0
VERTEX
  5
3AFF
  8
0
 10
135.6850075070165929
 20
35.8318058324483033
 30
0.0
  0
VERTEX
  5
3B00
  8
0
 10
135.6838355491138941
 20
35.8246876982803286
 30
0.0
  0
VERTEX
  5
3B01
  8
0
 10
135.6827205374951006
 20
35.8175518735262628
 30
0.0
  0
VERTEX
  5
3B02
  8
0
 10
135.6806643618982093
 20
35.8032260540351572
 30
0.0
  0
VERTEX
  5
3B03
  8
0
 10
135.6788449892731876
 20
35.7888262086699314
 30
0.0
  0
VERTEX
  5
3B04
  8
0
 10
135.6772683964036901
 20
35.7743502245687495
 30
0.0
  0
VERTEX
  5
3B05
  8
0
 10
135.6759405000379104
 20
35.759796042882769
 30
0.0
  0
VERTEX
  5
3B06
  8
0
 10
135.6748671279887049
 20
35.7451616571957373
 30
0.0
  0
VERTEX
  5
3B07
  8
0
 10
135.6744276782220027
 20
35.7378137740279698
 30
0.0
  0
VERTEX
  5
3B08
  8
0
 10
135.6740539897450901
 20
35.7304451085306525
 30
0.0
  0
VERTEX
  5
3B09
  8
0
 10
135.6735066473306972
 20
35.7156444767801275
 30
0.0
  0
VERTEX
  5
3B0A
  8
0
 10
135.673230487187908
 20
35.7007578685270772
 30
0.0
  0
VERTEX
  5
3B0B
  8
0
 10
135.6731957292068955
 20
35.6932817350248612
 30
0.0
  0
VERTEX
  5
3B0C
  8
0
 10
135.673230487187908
 20
35.685805601522631
 30
0.0
  0
VERTEX
  5
3B0D
  8
0
 10
135.6735066473306972
 20
35.6709189932695807
 30
0.0
  0
VERTEX
  5
3B0E
  8
0
 10
135.6740539897450901
 20
35.6561183615190629
 30
0.0
  0
VERTEX
  5
3B0F
  8
0
 10
135.6744276782220027
 20
35.6487496960217385
 30
0.0
  0
VERTEX
  5
3B10
  8
0
 10
135.6748671279887049
 20
35.6414018128539709
 30
0.0
  0
VERTEX
  5
3B11
  8
0
 10
135.6759405000379104
 20
35.6267674271669392
 30
0.0
  0
VERTEX
  5
3B12
  8
0
 10
135.6772683964036901
 20
35.6122132454809588
 30
0.0
  0
VERTEX
  5
3B13
  8
0
 10
135.6788449892731876
 20
35.5977372613797769
 30
0.0
  0
VERTEX
  5
3B14
  8
0
 10
135.6806643618982093
 20
35.583337416014551
 30
0.0
  0
VERTEX
  5
3B15
  8
0
 10
135.6827205374951006
 20
35.5690115965234526
 30
0.0
  0
VERTEX
  5
3B16
  8
0
 10
135.6838355491138941
 20
35.5618757717693796
 30
0.0
  0
VERTEX
  5
3B17
  8
0
 10
135.6850075070165929
 20
35.5547576376014121
 30
0.0
  0
VERTEX
  5
3B18
  8
0
 10
135.6875192552548128
 20
35.5405733258690404
 30
0.0
  0
VERTEX
  5
3B19
  8
0
 10
135.6902497848514884
 20
35.526456406635063
 30
0.0
  0
VERTEX
  5
3B1A
  8
0
 10
135.6931931379077128
 20
35.5124045926072966
 30
0.0
  0
VERTEX
  5
3B1B
  8
0
 10
135.6963434150027865
 20
35.4984155740979119
 30
0.0
  0
VERTEX
  5
3B1C
  8
0
 10
135.6996947915309875
 20
35.484487030272291
 30
0.0
  0
VERTEX
  5
3B1D
  8
0
 10
135.7014440957667034
 20
35.4775447109710029
 30
0.0
  0
VERTEX
  5
3B1E
  8
0
 10
135.7032415313663876
 20
35.4706166410147006
 30
0.0
  0
VERTEX
  5
3B1F
  8
0
 10
135.7069779979404984
 20
35.4568020990176791
 30
0.0
  0
VERTEX
  5
3B20
  8
0
 10
135.7108986628803109
 20
35.4430411217464822
 30
0.0
  0
VERTEX
  5
3B21
  8
0
 10
135.7129263733216931
 20
35.4361800162175129
 30
0.0
  0
VERTEX
  5
3B22
  8
0
 10
135.7149981124032934
 20
35.4293314629784817
 30
0.0
  0
VERTEX
  5
3B23
  8
0
 10
135.7192710516985983
 20
35.4156709236666885
 30
0.0
  0
VERTEX
  5
3B24
  8
0
 10
135.7237123075427121
 20
35.402057361928577
 30
0.0
  0
VERTEX
  5
3B25
  8
0
 10
135.72599447108351
 20
35.395267546170821
 30
0.0
  0
VERTEX
  5
3B26
  8
0
 10
135.7283168294040081
 20
35.388488702008928
 30
0.0
  0
VERTEX
  5
3B27
  8
0
 10
135.7330796892923956
 20
35.3749629421094411
 30
0.0
  0
VERTEX
  5
3B28
  8
0
 10
135.7379960805959058
 20
35.3614781610162225
 30
0.0
  0
VERTEX
  5
3B29
  8
0
 10
135.756345886048905
 20
35.3145784600080077
 30
0.0
  0
VERTEX
  5
3B2A
  8
0
 10
135.7915087483609966
 20
35.235103256297343
 30
0.0
  0
VERTEX
  5
3B2B
  8
0
 10
135.8306382633132898
 20
35.1565706183812807
 30
0.0
  0
VERTEX
  5
3B2C
  8
0
 10
135.8730390069891882
 20
35.0787597950887218
 30
0.0
  0
VERTEX
  5
3B2D
  8
0
 10
135.9181444089369108
 20
35.0014956655243594
 30
0.0
  0
VERTEX
  5
3B2E
  8
0
 10
135.9415611310197107
 20
34.9630291051163766
 30
0.0
  0
VERTEX
  5
3B2F
  8
0
 10
135.9654831656513068
 20
34.924658735163959
 30
0.0
  0
VERTEX
  5
3B30
  8
0
 10
136.0146522003043117
 20
34.8481840492578812
 30
0.0
  0
VERTEX
  5
3B31
  8
0
 10
136.0652406248516968
 20
34.7721387933783532
 30
0.0
  0
VERTEX
  5
3B32
  8
0
 10
136.1168766883714056
 20
34.6966172402401725
 30
0.0
  0
VERTEX
  5
3B33
  8
0
 10
136.1692497595435043
 20
34.621694149260108
 30
0.0
  0
VERTEX
  5
3B34
  8
0
 10
136.2220778326476136
 20
34.5474611131460705
 30
0.0
  0
VERTEX
  5
3B35
  8
0
 10
136.2485808631361976
 20
34.5106357242237181
 30
0.0
  0
VERTEX
  5
3B36
  8
0
 10
136.2751022716271052
 20
34.4740230253329827
 30
0.0
  0
VERTEX
  5
3B37
  8
0
 10
136.3280843359301002
 20
34.4014944850585422
 30
0.0
  0
VERTEX
  5
3B38
  8
0
 10
136.3808022196772924
 20
34.3299973893847934
 30
0.0
  0
VERTEX
  5
3B39
  8
0
 10
136.4330481472696874
 20
34.2596598654037479
 30
0.0
  0
VERTEX
  5
3B3A
  8
0
 10
136.4846269549670126
 20
34.1906142893421219
 30
0.0
  0
VERTEX
  5
3B3B
  8
0
 10
136.5353553588460045
 20
34.1229952700715984
 30
0.0
  0
VERTEX
  5
3B3C
  8
0
 10
136.5604172326706021
 20
34.0896689942770124
 30
0.0
  0
VERTEX
  5
3B3D
  8
0
 10
136.5855617239521109
 20
34.0562739274052291
 30
0.0
  0
VERTEX
  5
3B3E
  8
0
 10
136.6361141451208141
 20
33.9892236433386614
 30
0.0
  0
VERTEX
  5
3B3F
  8
0
 10
136.6868908279076038
 20
33.9219407568430569
 30
0.0
  0
VERTEX
  5
3B40
  8
0
 10
136.7377400843708131
 20
33.85456212841693
 30
0.0
  0
VERTEX
  5
3B41
  8
0
 10
136.7885115037859975
 20
33.7872239014886233
 30
0.0
  0
VERTEX
  5
3B42
  8
0
 10
136.8390564706731993
 20
33.7200610088175807
 30
0.0
  0
VERTEX
  5
3B43
  8
0
 10
136.8641982101765961
 20
33.6865870192931922
 30
0.0
  0
VERTEX
  5
3B44
  8
0
 10
136.88922868243219
 20
33.6532066450227418
 30
0.0
  0
VERTEX
  5
3B45
  8
0
 10
136.9388846775578941
 20
33.5867916972127176
 30
0.0
  0
VERTEX
  5
3B46
  8
0
 10
136.9878843820850989
 20
33.520944126772001
 30
0.0
  0
VERTEX
  5
3B47
  8
0
 10
137.0360916782829861
 20
33.4557882966792519
 30
0.0
  0
VERTEX
  5
3B48
  8
0
 10
137.0833749954659879
 20
33.3914442406106033
 30
0.0
  0
VERTEX
  5
3B49
  8
0
 10
137.1296079701315875
 20
33.3280268005998295
 30
0.0
  0
VERTEX
  5
3B4A
  8
0
 10
137.1522937028965998
 20
33.2966983857570966
 30
0.0
  0
VERTEX
  5
3B4B
  8
0
 10
137.1746728803813085
 20
33.2656408516727922
 30
0.0
  0
VERTEX
  5
3B4C
  8
0
 10
137.2184513476713903
 20
33.2043941074560323
 30
0.0
  0
VERTEX
  5
3B4D
  8
0
 10
137.2608253826109035
 20
33.144396064006898
 30
0.0
  0
VERTEX
  5
3B4E
  8
0
 10
137.2814500787926875
 20
33.1148985499404915
 30
0.0
  0
VERTEX
  5
3B4F
  8
0
 10
137.3016815154375081
 20
33.0857525638123633
 30
0.0
  0
VERTEX
  5
3B50
  8
0
 10
137.3409116498897902
 20
33.0285648236869491
 30
0.0
  0
VERTEX
  5
3B51
  8
0
 10
137.3784139183075013
 20
32.9729284319533207
 30
0.0
  0
VERTEX
  5
3B52
  8
0
 10
137.3964871493670898
 20
32.9457201160276298
 30
0.0
  0
VERTEX
  5
3B53
  8
0
 10
137.4140932571133931
 20
32.91893271934957
 30
0.0
  0
VERTEX
  5
3B54
  8
0
 10
137.4478606362675919
 20
32.8666622097406815
 30
0.0
  0
VERTEX
  5
3B55
  8
0
 10
137.4796331662354021
 20
32.8161969570383505
 30
0.0
  0
VERTEX
  5
3B56
  8
0
 10
137.5093352902788979
 20
32.7676112896025771
 30
0.0
  0
VERTEX
  5
3B57
  8
0
 10
137.5368999729984125
 20
32.7209724983476207
 30
0.0
  0
VERTEX
  5
3B58
  8
0
 10
137.562336125683089
 20
32.676220291497593
 30
0.0
  0
VERTEX
  5
3B59
  8
0
 10
137.5744012408736978
 20
32.654266918874832
 30
0.0
  0
VERTEX
  5
3B5A
  8
0
 10
137.5860275035805103
 20
32.6325720517672124
 30
0.0
  0
VERTEX
  5
3B5B
  8
0
 10
137.6078419245176008
 20
32.5900823718420014
 30
0.0
  0
VERTEX
  5
3B5C
  8
0
 10
137.6275457892737109
 20
32.5489902566311429
 30
0.0
  0
VERTEX
  5
3B5D
  8
0
 10
137.6449224594460929
 20
32.5095165180584189
 30
0.0
  0
VERTEX
  5
3B5E
  8
0
 10
137.6597744004193942
 20
32.4718609944375629
 30
0.0
  0
VERTEX
  5
3B5F
  8
0
 10
137.6719239976621907
 20
32.4362021743747135
 30
0.0
  0
VERTEX
  5
3B60
  8
0
 10
137.6769353326990881
 20
32.4191722075394608
 30
0.0
  0
VERTEX
  5
3B61
  8
0
 10
137.6812136765364016
 20
32.4026997594275414
 30
0.0
  0
VERTEX
  5
3B62
  8
0
 10
137.6875082092566061
 20
32.3714926992904992
 30
0.0
  0
VERTEX
  5
3B63
  8
0
 10
137.6906968877470945
 20
32.3426962267819107
 30
0.0
  0
VERTEX
  5
3B64
  8
0
 10
137.6910989232262921
 20
32.3292295971931907
 30
0.0
  0
SEQEND
  5
3B65
  8
0
  0
POLYLINE
  5
2D83
  8
0
 66
     1
 10
0.0
 20
0.0
 30
0.0
  0
VERTEX
  5
3B66
  8
0
 10
137.6910989232262921
 20
32.3292295971931907
 30
0.0
  0
VERTEX
  5
3B67
  8
0
 10
137.6909919468378973
 20
32.3225463216000932
 30
0.0
  0
VERTEX
  5
3B68
  8
0
 10
137.6901330224359867
 20
32.3096838441375027
 30
0.0
  0
VERTEX
  5
3B69
  8
0
 10
137.6884082443133082
 20
32.2975003541521772
 30
0.0
  0
VERTEX
  5
3B6A
  8
0
 10
137.687219417245899
 20
32.2916653890520635
 30
0.0
  0
SEQEND
  5
3B6B
  8
0
  0
POLYLINE
  5
2D84
  8
0
 66
     1
 10
0.0
 20
0.0
 30
0.0
  0
VERTEX
  5
3B6C
  8
0
 10
137.687219417245899
 20
32.2916653890520635
 30
0.0
  0
VERTEX
  5
3B6D
  8
0
 10
137.6859619477314993
 20
32.2861858593327469
 30
0.0
  0
VERTEX
  5
3B6E
  8
0
 10
137.6834325664831908
 20
32.2757038863723409
 30
0.0
  0
VERTEX
  5
3B6F
  8
0
 10
137.6808845935505019
 20
32.2658583137500017
 30
0.0
  0
VERTEX
  5
3B70
  8
0
 10
137.6796038906867068
 20
32.2611741751859924
 30
0.0
  0
VERTEX
  5
3B71
  8
0
 10
137.6783188491970975
 20
32.2566490731133371
 30
0.0
  0
VERTEX
  5
3B72
  8
0
 10
137.675736159555413
 20
32.2480755606178917
 30
0.0
  0
VERTEX
  5
3B73
  8
0
 10
137.6731373730414134
 20
32.240136708522229
 30
0.0
  0
VERTEX
  5
3B74
  8
0
 10
137.6705233767077914
 20
32.2328310296112903
 30
0.0
  0
VERTEX
  5
3B75
  8
0
 10
137.6678950910414869
 20
32.2261565843285069
 30
0.0
  0
VERTEX
  5
3B76
  8
0
 10
137.665253468450004
 20
32.2201109642960972
 30
0.0
  0
VERTEX
  5
3B77
  8
0
 10
137.6639279617708098
 20
32.217323079393779
 30
0.0
  0
VERTEX
  5
3B78
  8
0
 10
137.6625994916610978
 20
32.214691278101597
 30
0.0
  0
VERTEX
  5
3B79
  8
0
 10
137.6599341720371967
 20
32.2098941393048079
 30
0.0
  0
VERTEX
  5
3B7A
  8
0
 10
137.6572585477983068
 20
32.205715656621507
 30
0.0
  0
VERTEX
  5
3B7B
  8
0
 10
137.6545736821584001
 20
32.2021514262507225
 30
0.0
  0
VERTEX
  5
3B7C
  8
0
 10
137.6518806613696881
 20
32.1991965263161291
 30
0.0
  0
VERTEX
  5
3B7D
  8
0
 10
137.6491805926731047
 20
32.1968455134000777
 30
0.0
  0
VERTEX
  5
3B7E
  8
0
 10
137.6478282665852078
 20
32.1958946205137835
 30
0.0
  0
VERTEX
  5
3B7F
  8
0
 10
137.6464746021528072
 20
32.1950924211591172
 30
0.0
  0
VERTEX
  5
3B80
  8
0
 10
137.6437638324914872
 20
32.193930761015892
 30
0.0
  0
VERTEX
  5
3B81
  8
0
 10
137.641049440622993
 20
32.1933535249352616
 30
0.0
  0
VERTEX
  5
3B82
  8
0
 10
137.6396912511976041
 20
32.1932817350248612
 30
0.0
  0
SEQEND
  5
3B83
  8
0
  0
POLYLINE
  5
2D85
  8
0
 66
     1
 10
0.0
 20
0.0
 30
0.0
  0
VERTEX
  5
3B84
  8
0
 10
129.3656811848833001
 20
32.1932817350248612
 30
0.0
  0
VERTEX
  5
3B85
  8
0
 10
129.3793233882801132
 20
32.1933977084687868
 30
0.0
  0
VERTEX
  5
3B86
  8
0
 10
129.4070927305114083
 20
32.1943227217398515
 30
0.0
  0
VERTEX
  5
3B87
  8
0
 10
129.4355054454798051
 20
32.1961654620000033
 30
0.0
  0
VERTEX
  5
3B88
  8
0
 10
129.449951734589888
 20
32.1974285039659023
 30
0.0
  0
VERTEX
  5
3B89
  8
0
 10
129.4645571991052861
 20
32.1989179577614522
 30
0.0
  0
VERTEX
  5
3B8A
  8
0
 10
129.4942431188235901
 20
32.2025718438944111
 30
0.0
  0
VERTEX
  5
3B8B
  8
0
 10
129.524557812874292
 20
32.2071183574498008
 30
0.0
  0
VERTEX
  5
3B8C
  8
0
 10
129.5554953917223031
 20
32.2125483379664175
 30
0.0
  0
VERTEX
  5
3B8D
  8
0
 10
129.5870494913793891
 20
32.2188522318866006
 30
0.0
  0
VERTEX
  5
3B8E
  8
0
 10
129.6192132984012062
 20
32.2260201007094835
 30
0.0
  0
VERTEX
  5
3B8F
  8
0
 10
129.6355215965589878
 20
32.2299248174424875
 30
0.0
  0
VERTEX
  5
3B90
  8
0
 10
129.651979576346605
 20
32.2340416325145469
 30
0.0
  0
VERTEX
  5
3B91
  8
0
 10
129.6853406935007058
 20
32.2429061565023218
 30
0.0
  0
VERTEX
  5
3B92
  8
0
 10
129.7192886516764929
 20
32.252602660212851
 30
0.0
  0
VERTEX
  5
3B93
  8
0
 10
129.753815115926102
 20
32.2631198091028608
 30
0.0
  0
VERTEX
  5
3B94
  8
0
 10
129.788911445010001
 20
32.2744459681802383
 30
0.0
  0
VERTEX
  5
3B95
  8
0
 10
129.8245687224863048
 20
32.2865692254171535
 30
0.0
  0
VERTEX
  5
3B96
  8
0
 10
129.8426048629478942
 20
32.2929259736765033
 30
0.0
  0
VERTEX
  5
3B97
  8
0
 10
129.8607777837056005
 20
32.2994774150136408
 30
0.0
  0
VERTEX
  5
3B98
  8
0
 10
129.8975291433274037
 20
32.3131581035860833
 30
0.0
  0
VERTEX
  5
3B99
  8
0
 10
129.9348128614745974
 20
32.3275985439183202
 30
0.0
  0
VERTEX
  5
3B9A
  8
0
 10
129.953651123694101
 20
32.3350996004223106
 30
0.0
  0
VERTEX
  5
3B9B
  8
0
 10
129.9726185430052965
 20
32.3427856709188717
 30
0.0
  0
VERTEX
  5
3B9C
  8
0
 10
130.0109353597021027
 20
32.3587061076477127
 30
0.0
  0
VERTEX
  5
3B9D
  8
0
 10
130.0497520729975918
 20
32.3753461737108381
 30
0.0
  0
VERTEX
  5
3B9E
  8
0
 10
130.0693442723107864
 20
32.3839317121841503
 30
0.0
  0
VERTEX
  5
3B9F
  8
0
 10
130.0890570571581009
 20
32.3926918957376273
 30
0.0
  0
VERTEX
  5
3BA0
  8
0
 10
130.1288383227895906
 20
32.4107290196586106
 30
0.0
  0
VERTEX
  5
3BA1
  8
0
 10
130.169083540555107
 20
32.4294430245247867
 30
0.0
  0
VERTEX
  5
3BA2
  8
0
 10
130.209780065007493
 20
32.4488191376359865
 30
0.0
  0
VERTEX
  5
3BA3
  8
0
 10
130.2509149584645058
 20
32.4688423507747501
 30
0.0
  0
VERTEX
  5
3BA4
  8
0
 10
130.2924750148700923
 20
32.4894974373617487
 30
0.0
  0
VERTEX
  5
3BA5
  8
0
 10
130.3134102847631084
 20
32.5000571195809371
 30
0.0
  0
VERTEX
  5
3BA6
  8
0
 10
130.3344467836016918
 20
32.510768970377903
 30
0.0
  0
VERTEX
  5
3BA7
  8
0
 10
130.3768165931967928
 20
32.5326413409188007
 30
0.0
  0
VERTEX
  5
3BA8
  8
0
 10
130.419570574990189
 20
32.5550987772665366
 30
0.0
  0
VERTEX
  5
3BA9
  8
0
 10
130.4626971817826018
 20
32.5781267072260832
 30
0.0
  0
VERTEX
  5
3BAA
  8
0
 10
130.5061864708771964
 20
32.6017114755566624
 30
0.0
  0
VERTEX
  5
3BAB
  8
0
 10
130.550024173225097
 20
32.6258371251681609
 30
0.0
  0
VERTEX
  5
3BAC
  8
0
 10
130.5720691050235871
 20
32.6380977195240618
 30
0.0
  0
VERTEX
  5
3BAD
  8
0
 10
130.5941956093107024
 20
32.6504874329627199
 30
0.0
  0
VERTEX
  5
3BAE
  8
0
 10
130.6386857727173947
 20
32.6756459542622721
 30
0.0
  0
VERTEX
  5
3BAF
  8
0
 10
130.6834793499488967
 20
32.7012960344205084
 30
0.0
  0
VERTEX
  5
3BB0
  8
0
 10
130.8424186442219934
 20
32.7946974034650083
 30
0.0
  0
VERTEX
  5
3BB1
  8
0
 10
131.1210706835852875
 20
32.9661995120303999
 30
0.0
  0
VERTEX
  5
3BB2
  8
0
 10
131.4043339796253917
 20
33.1487501460491529
 30
0.0
  0
VERTEX
  5
3BB3
  8
0
 10
131.5464672084175106
 20
33.2429196955938977
 30
0.0
  0
VERTEX
  5
3BB4
  8
0
 10
131.6882453002621105
 20
33.3383329964727224
 30
0.0
  0
VERTEX
  5
3BB5
  8
0
 10
131.9711767010666108
 20
33.5325935782436133
 30
0.0
  0
VERTEX
  5
3BB6
  8
0
 10
132.2590711955365919
 20
33.7347407122548901
 30
0.0
  0
VERTEX
  5
3BB7
  8
0
 10
132.5493336498821861
 20
33.9423387333071602
 30
0.0
  0
VERTEX
  5
3BB8
  8
0
 10
132.8382746980990987
 20
34.1521540673441422
 30
0.0
  0
VERTEX
  5
3BB9
  8
0
 10
133.1220846559137101
 20
34.3608600327756193
 30
0.0
  0
VERTEX
  5
3BBA
  8
0
 10
133.2608275454344096
 20
34.4637315377378215
 30
0.0
  0
VERTEX
  5
3BBB
  8
0
 10
133.3967839451840121
 20
34.565042136095407
 30
0.0
  0
VERTEX
  5
3BBC
  8
0
 10
133.6593764330467025
 20
34.7621127951312516
 30
0.0
  0
VERTEX
  5
3BBD
  8
0
 10
133.9094677235196968
 20
34.9516504202744471
 30
0.0
  0
VERTEX
  5
3BBE
  8
0
 10
134.028306701357991
 20
35.0425025473759177
 30
0.0
  0
SEQEND
  5
3BBF
  8
0
  0
POLYLINE
  5
2D86
  8
0
 66
     1
 10
0.0
 20
0.0
 30
0.0
  0
VERTEX
  5
3BC0
  8
0
 10
134.028306701357991
 20
35.0425025473759177
 30
0.0
  0
VERTEX
  5
3BC1
  8
0
 10
134.0736051543806866
 20
35.0782689038201596
 30
0.0
  0
VERTEX
  5
3BC2
  8
0
 10
134.156510570590001
 20
35.1499969336125986
 30
0.0
  0
VERTEX
  5
3BC3
  8
0
 10
134.200124648065497
 20
35.1919486148090499
 30
0.0
  0
VERTEX
  5
3BC4
  8
0
 10
134.2119420948604898
 20
35.2039486098909009
 30
0.0
  0
VERTEX
  5
3BC5
  8
0
 10
134.223473180861987
 20
35.2159544746935396
 30
0.0
  0
VERTEX
  5
3BC6
  8
0
 10
134.2291312952062015
 20
35.2219595632384781
 30
0.0
  0
VERTEX
  5
3BC7
  8
0
 10
134.2347177677509933
 20
35.2279660652027786
 30
0.0
  0
VERTEX
  5
3BC8
  8
0
 10
134.2456757206441864
 20
35.2399832373351316
 30
0.0
  0
VERTEX
  5
3BC9
  8
0
 10
134.2563469080978962
 20
35.2520058469404418
 30
0.0
  0
VERTEX
  5
3BCA
  8
0
 10
134.2615749246486985
 20
35.2580191457307635
 30
0.0
  0
VERTEX
  5
3BCB
  8
0
 10
134.2667312021067971
 20
35.2640337498035379
 30
0.0
  0
VERTEX
  5
3BCC
  8
0
 10
134.2768284781080865
 20
35.2760668016453991
 30
0.0
  0
VERTEX
  5
3BCD
  8
0
 10
134.2866386149813991
 20
35.2881048581253225
 30
0.0
  0
VERTEX
  5
3BCE
  8
0
 10
134.2914359693367032
 20
35.2941257179817711
 30
0.0
  0
VERTEX
  5
3BCF
  8
0
 10
134.2961614950505123
 20
35.3001477748428414
 30
0.0
  0
VERTEX
  5
3BD0
  8
0
 10
134.3053970040853926
 20
35.3121954073388196
 30
0.0
  0
VERTEX
  5
3BD1
  8
0
 10
134.3143450313025937
 20
35.3242476110977321
 30
0.0
  0
VERTEX
  5
3BD2
  8
0
 10
134.3230054693680131
 20
35.3363042415492572
 30
0.0
  0
VERTEX
  5
3BD3
  8
0
 10
134.3313782143960111
 20
35.348365154069981
 30
0.0
  0
VERTEX
  5
3BD4
  8
0
 10
134.3394631659529068
 20
35.3604302039848832
 30
0.0
  0
VERTEX
  5
3BD5
  8
0
 10
134.3433976887380084
 20
35.3664642352406773
 30
0.0
  0
VERTEX
  5
3BD6
  8
0
 10
134.3472602270570064
 20
35.3724992465696886
 30
0.0
  0
VERTEX
  5
3BD7
  8
0
 10
134.3547693041797118
 20
35.3845721370518476
 30
0.0
  0
VERTEX
  5
3BD8
  8
0
 10
134.3619903072471118
 20
35.3966487306130801
 30
0.0
  0
VERTEX
  5
3BD9
  8
0
 10
134.368923149640608
 20
35.4087288823902071
 30
0.0
  0
VERTEX
  5
3BDA
  8
0
 10
134.3755677481983923
 20
35.4208124474777577
 30
0.0
  0
VERTEX
  5
3BDB
  8
0
 10
134.3819240232166123
 20
35.4328992809291066
 30
0.0
  0
VERTEX
  5
3BDC
  8
0
 10
134.384994015436007
 20
35.4389438779846202
 30
0.0
  0
VERTEX
  5
3BDD
  8
0
 10
134.3879918984488029
 20
35.4449892377584135
 30
0.0
  0
VERTEX
  5
3BDE
  8
0
 10
134.3937713011092114
 20
35.4570821729426413
 30
0.0
  0
VERTEX
  5
3BDF
  8
0
 10
134.3992621618716043
 20
35.4691779414227284
 30
0.0
  0
VERTEX
  5
3BE0
  8
0
 10
134.4044644148715122
 20
35.481276398105642
 30
0.0
  0
VERTEX
  5
3BE1
  8
0
 10
134.4093779977060024
 20
35.4933773978663467
 30
0.0
  0
VERTEX
  5
3BE2
  8
0
 10
134.4140028514347023
 20
35.5054807955489622
 30
0.0
  0
VERTEX
  5
3BE3
  8
0
 10
134.4162069874124938
 20
35.5115333482420326
 30
0.0
  0
VERTEX
  5
3BE4
  8
0
 10
134.4183389205809931
 20
35.5175864459692292
 30
0.0
  0
VERTEX
  5
3BE5
  8
0
 10
134.4223861531324076
 20
35.5296942039155326
 30
0.0
  0
VERTEX
  5
3BE6
  8
0
 10
134.4261445005408007
 20
35.5418039241510968
 30
0.0
  0
VERTEX
  5
3BE7
  8
0
 10
134.4296139177234863
 20
35.5539154614156629
 30
0.0
  0
VERTEX
  5
3BE8
  8
0
 10
134.432794363063806
 20
35.5660286704272011
 30
0.0
  0
VERTEX
  5
3BE9
  8
0
 10
134.4356857984107876
 20
35.578143405883381
 30
0.0
  0
VERTEX
  5
3BEA
  8
0
 10
134.4370231263629876
 20
35.5842013006163569
 30
0.0
  0
VERTEX
  5
3BEB
  8
0
 10
134.4382881890813906
 20
35.5902595224638816
 30
0.0
  0
VERTEX
  5
3BEC
  8
0
 10
134.4406015038580904
 20
35.6023768748316769
 30
0.0
  0
VERTEX
  5
3BED
  8
0
 10
134.4426257149926869
 20
35.614495317634848
 30
0.0
  0
VERTEX
  5
3BEE
  8
0
 10
134.4443607982034905
 20
35.6266147055084019
 30
0.0
  0
VERTEX
  5
3BEF
  8
0
 10
134.445806732677994
 20
35.6387348930762116
 30
0.0
  0
VERTEX
  5
3BF0
  8
0
 10
134.4469635010715081
 20
35.6508557349523514
 30
0.0
  0
VERTEX
  5
3BF1
  8
0
 10
134.4474334435163883
 20
35.6569163558207691
 30
0.0
  0
VERTEX
  5
3BF2
  8
0
 10
134.4478310895084121
 20
35.6629770857430728
 30
0.0
  0
VERTEX
  5
3BF3
  8
0
 10
134.4484094875811877
 20
35.6750988000487013
 30
0.0
  0
VERTEX
  5
3BF4
  8
0
 10
134.4486986883522093
 20
35.6872207324648087
 30
0.0
  0
VERTEX
  5
3BF5
  8
0
 10
134.4487348385299015
 20
35.6932817350248612
 30
0.0
  0
VERTEX
  5
3BF6
  8
0
 10
134.4486986883522093
 20
35.6993427375848995
 30
0.0
  0
VERTEX
  5
3BF7
  8
0
 10
134.4484094875811877
 20
35.711464670001007
 30
0.0
  0
VERTEX
  5
3BF8
  8
0
 10
134.4478310895084121
 20
35.7235863843066426
 30
0.0
  0
VERTEX
  5
3BF9
  8
0
 10
134.4474334435163883
 20
35.7296471142289391
 30
0.0
  0
VERTEX
  5
3BFA
  8
0
 10
134.4469635010715081
 20
35.7357077350973569
 30
0.0
  0
VERTEX
  5
3BFB
  8
0
 10
134.445806732677994
 20
35.7478285769734967
 30
0.0
  0
VERTEX
  5
3BFC
  8
0
 10
134.4443607982034905
 20
35.7599487645413134
 30
0.0
  0
VERTEX
  5
3BFD
  8
0
 10
134.4426257149926869
 20
35.7720681524148603
 30
0.0
  0
VERTEX
  5
3BFE
  8
0
 10
134.4406015038580904
 20
35.7841865952180314
 30
0.0
  0
VERTEX
  5
3BFF
  8
0
 10
134.4382881890813906
 20
35.7963039475858267
 30
0.0
  0
VERTEX
  5
3C00
  8
0
 10
134.4370231263629876
 20
35.8023621694333514
 30
0.0
  0
VERTEX
  5
3C01
  8
0
 10
134.4356857984107876
 20
35.8084200641663273
 30
0.0
  0
VERTEX
  5
3C02
  8
0
 10
134.432794363063806
 20
35.8205347996225072
 30
0.0
  0
VERTEX
  5
3C03
  8
0
 10
134.4296139177234863
 20
35.8326480086340595
 30
0.0
  0
VERTEX
  5
3C04
  8
0
 10
134.4261445005408007
 20
35.8447595458986115
 30
0.0
  0
VERTEX
  5
3C05
  8
0
 10
134.4223861531324076
 20
35.8568692661341828
 30
0.0
  0
VERTEX
  5
3C06
  8
0
 10
134.4183389205809931
 20
35.8689770240804791
 30
0.0
  0
VERTEX
  5
3C07
  8
0
 10
134.4162069874124938
 20
35.8750301218076828
 30
0.0
  0
VERTEX
  5
3C08
  8
0
 10
134.4140028514347023
 20
35.8810826745007532
 30
0.0
  0
VERTEX
  5
3C09
  8
0
 10
134.4093779977060024
 20
35.8931860721833615
 30
0.0
  0
VERTEX
  5
3C0A
  8
0
 10
134.4044644148715122
 20
35.9052870719440733
 30
0.0
  0
VERTEX
  5
3C0B
  8
0
 10
134.3992621618716043
 20
35.9173855286269799
 30
0.0
  0
VERTEX
  5
3C0C
  8
0
 10
134.3937713011092114
 20
35.9294812971070812
 30
0.0
  0
VERTEX
  5
3C0D
  8
0
 10
134.3879918984488029
 20
35.9415742322913019
 30
0.0
  0
VERTEX
  5
3C0E
  8
0
 10
134.384994015436007
 20
35.9476195920651023
 30
0.0
  0
VERTEX
  5
3C0F
  8
0
 10
134.3819240232166123
 20
35.9536641891206017
 30
0.0
  0
VERTEX
  5
3C10
  8
0
 10
134.3755677481983923
 20
35.9657510225719506
 30
0.0
  0
VERTEX
  5
3C11
  8
0
 10
134.368923149640608
 20
35.9778345876595012
 30
0.0
  0
VERTEX
  5
3C12
  8
0
 10
134.3619903072471118
 20
35.9899147394366281
 30
0.0
  0
VERTEX
  5
3C13
  8
0
 10
134.3547693041797118
 20
36.0019913329978607
 30
0.0
  0
VERTEX
  5
3C14
  8
0
 10
134.3472602270570064
 20
36.0140642234800197
 30
0.0
  0
VERTEX
  5
3C15
  8
0
 10
134.3433976887380084
 20
36.020099234809031
 30
0.0
  0
VERTEX
  5
3C16
  8
0
 10
134.3394631659529068
 20
36.0261332660648321
 30
0.0
  0
VERTEX
  5
3C17
  8
0
 10
134.3313782143960111
 20
36.0381983159797272
 30
0.0
  0
VERTEX
  5
3C18
  8
0
 10
134.3230054693680131
 20
36.0502592285004511
 30
0.0
  0
VERTEX
  5
3C19
  8
0
 10
134.3143450313025937
 20
36.0623158589519832
 30
0.0
  0
VERTEX
  5
3C1A
  8
0
 10
134.3053970040853926
 20
36.0743680627108887
 30
0.0
  0
VERTEX
  5
3C1B
  8
0
 10
134.2961614950505123
 20
36.0864156952068669
 30
0.0
  0
VERTEX
  5
3C1C
  8
0
 10
134.2914359693365043
 20
36.0924377520679371
 30
0.0
  0
VERTEX
  5
3C1D
  8
0
 10
134.2866386149813991
 20
36.0984586119243929
 30
0.0
  0
VERTEX
  5
3C1E
  8
0
 10
134.2768284781080865
 20
36.1104966684043092
 30
0.0
  0
VERTEX
  5
3C1F
  8
0
 10
134.2667312021067971
 20
36.1225297202461704
 30
0.0
  0
VERTEX
  5
3C20
  8
0
 10
134.2615749246486985
 20
36.1285443243189519
 30
0.0
  0
VERTEX
  5
3C21
  8
0
 10
134.2563469080978962
 20
36.1345576231092735
 30
0.0
  0
VERTEX
  5
3C22
  8
0
 10
134.2456757206441864
 20
36.1465802327145767
 30
0.0
  0
VERTEX
  5
3C23
  8
0
 10
134.2347177677509933
 20
36.1585974048469296
 30
0.0
  0
VERTEX
  5
3C24
  8
0
 10
134.2291312952062015
 20
36.1646039068112302
 30
0.0
  0
VERTEX
  5
3C25
  8
0
 10
134.223473180861987
 20
36.1706089953561829
 30
0.0
  0
VERTEX
  5
3C26
  8
0
 10
134.2119420948604898
 20
36.1826148601588073
 30
0.0
  0
VERTEX
  5
3C27
  8
0
 10
134.200124648065497
 20
36.1946148552406584
 30
0.0
  0
VERTEX
  5
3C28
  8
0
 10
134.156510570590001
 20
36.2365665364371097
 30
0.0
  0
VERTEX
  5
3C29
  8
0
 10
134.0736051543806866
 20
36.3082945662295486
 30
0.0
  0
VERTEX
  5
3C2A
  8
0
 10
134.028306701357991
 20
36.3440609226737905
 30
0.0
  0
SEQEND
  5
3C2B
  8
0
  0
POLYLINE
  5
2D87
  8
0
 66
     1
 10
0.0
 20
0.0
 30
0.0
  0
VERTEX
  5
3C2C
  8
0
 10
134.028306701357991
 20
36.3440609226737905
 30
0.0
  0
VERTEX
  5
3C2D
  8
0
 10
133.9094677235196968
 20
36.4349130497752611
 30
0.0
  0
VERTEX
  5
3C2E
  8
0
 10
133.6593764330467025
 20
36.6244506749184708
 30
0.0
  0
VERTEX
  5
3C2F
  8
0
 10
133.3967839451840121
 20
36.8215213339543013
 30
0.0
  0
VERTEX
  5
3C30
  8
0
 10
133.2608275454344096
 20
36.9228319323118868
 30
0.0
  0
VERTEX
  5
3C31
  8
0
 10
133.1220846559137101
 20
37.025703437274089
 30
0.0
  0
VERTEX
  5
3C32
  8
0
 10
132.8382746980990987
 20
37.2344094027055732
 30
0.0
  0
VERTEX
  5
3C33
  8
0
 10
132.5493336498821861
 20
37.444224736742548
 30
0.0
  0
VERTEX
  5
3C34
  8
0
 10
132.2590711955365919
 20
37.6518227577948181
 30
0.0
  0
VERTEX
  5
3C35
  8
0
 10
131.9711767010666108
 20
37.8539698918061021
 30
0.0
  0
VERTEX
  5
3C36
  8
0
 10
131.6882453002621105
 20
38.0482304735769929
 30
0.0
  0
VERTEX
  5
3C37
  8
0
 10
131.5464672084175106
 20
38.1436437744558106
 30
0.0
  0
VERTEX
  5
3C38
  8
0
 10
131.4043339796253917
 20
38.2378133240005624
 30
0.0
  0
VERTEX
  5
3C39
  8
0
 10
131.1210706835852875
 20
38.4203639580193084
 30
0.0
  0
VERTEX
  5
3C3A
  8
0
 10
130.8424186442219934
 20
38.5918660665847
 30
0.0
  0
VERTEX
  5
3C3B
  8
0
 10
130.6834793499488967
 20
38.6852674356291999
 30
0.0
  0
VERTEX
  5
3C3C
  8
0
 10
130.6386857727173947
 20
38.7109175157874432
 30
0.0
  0
VERTEX
  5
3C3D
  8
0
 10
130.5941956093105034
 20
38.7360760370869883
 30
0.0
  0
VERTEX
  5
3C3E
  8
0
 10
130.5720691050235871
 20
38.7484657505256465
 30
0.0
  0
VERTEX
  5
3C3F
  8
0
 10
130.550024173225097
 20
38.7607263448815473
 30
0.0
  0
VERTEX
  5
3C40
  8
0
 10
130.5061864708771964
 20
38.7848519944930601
 30
0.0
  0
VERTEX
  5
3C41
  8
0
 10
130.4626971817826018
 20
38.8084367628236322
 30
0.0
  0
VERTEX
  5
3C42
  8
0
 10
130.419570574990189
 20
38.8314646927832925
 30
0.0
  0
VERTEX
  5
3C43
  8
0
 10
130.3768165931965939
 20
38.8539221291309076
 30
0.0
  0
VERTEX
  5
3C44
  8
0
 10
130.3344467836016918
 20
38.8757944996718123
 30
0.0
  0
VERTEX
  5
3C45
  8
0
 10
130.3134102847631084
 20
38.8865063504687711
 30
0.0
  0
VERTEX
  5
3C46
  8
0
 10
130.2924750148700923
 20
38.8970660326880804
 30
0.0
  0
VERTEX
  5
3C47
  8
0
 10
130.2509149584645058
 20
38.9177211192749581
 30
0.0
  0
VERTEX
  5
3C48
  8
0
 10
130.2097800650072941
 20
38.9377443324137218
 30
0.0
  0
VERTEX
  5
3C49
  8
0
 10
130.169083540555107
 20
38.9571204455249216
 30
0.0
  0
VERTEX
  5
3C4A
  8
0
 10
130.1288383227895906
 20
38.9758344503910976
 30
0.0
  0
VERTEX
  5
3C4B
  8
0
 10
130.0890570571581009
 20
38.9938715743121875
 30
0.0
  0
VERTEX
  5
3C4C
  8
0
 10
130.0693442723107864
 20
39.0026317578655579
 30
0.0
  0
VERTEX
  5
3C4D
  8
0
 10
130.0497520729975918
 20
39.0112172963388701
 30
0.0
  0
VERTEX
  5
3C4E
  8
0
 10
130.0109353597021027
 20
39.0278573624020027
 30
0.0
  0
VERTEX
  5
3C4F
  8
0
 10
129.9726185430052965
 20
39.0437777991308366
 30
0.0
  0
VERTEX
  5
3C50
  8
0
 10
129.953651123694101
 20
39.0514638696273977
 30
0.0
  0
VERTEX
  5
3C51
  8
0
 10
129.9348128614745974
 20
39.0589649261314023
 30
0.0
  0
VERTEX
  5
3C52
  8
0
 10
129.8975291433274037
 20
39.073405366463632
 30
0.0
  0
VERTEX
  5
3C53
  8
0
 10
129.8607777837056005
 20
39.0870860550360675
 30
0.0
  0
VERTEX
  5
3C54
  8
0
 10
129.8426048629478942
 20
39.0936374963732121
 30
0.0
  0
VERTEX
  5
3C55
  8
0
 10
129.8245687224863048
 20
39.0999942446325619
 30
0.0
  0
VERTEX
  5
3C56
  8
0
 10
129.788911445010001
 20
39.11211750186947
 30
0.0
  0
VERTEX
  5
3C57
  8
0
 10
129.753815115926102
 20
39.1234436609468474
 30
0.0
  0
VERTEX
  5
3C58
  8
0
 10
129.7192886516764929
 20
39.1339608098368572
 30
0.0
  0
VERTEX
  5
3C59
  8
0
 10
129.6853406935007058
 20
39.1436573135474006
 30
0.0
  0
VERTEX
  5
3C5A
  8
0
 10
129.651979576346605
 20
39.1525218375351614
 30
0.0
  0
VERTEX
  5
3C5B
  8
0
 10
129.6355215965589878
 20
39.1566386526072208
 30
0.0
  0
VERTEX
  5
3C5C
  8
0
 10
129.6192132984012062
 20
39.1605433693402318
 30
0.0
  0
VERTEX
  5
3C5D
  8
0
 10
129.5870494913793891
 20
39.1677112381631076
 30
0.0
  0
VERTEX
  5
3C5E
  8
0
 10
129.5554953917223031
 20
39.1740151320832908
 30
0.0
  0
VERTEX
  5
3C5F
  8
0
 10
129.524557812874292
 20
39.1794451125999075
 30
0.0
  0
VERTEX
  5
3C60
  8
0
 10
129.4942431188235901
 20
39.1839916261553114
 30
0.0
  0
VERTEX
  5
3C61
  8
0
 10
129.4645571991052861
 20
39.187645512288249
 30
0.0
  0
VERTEX
  5
3C62
  8
0
 10
129.449951734589888
 20
39.1891349660838131
 30
0.0
  0
VERTEX
  5
3C63
  8
0
 10
129.4355054454798051
 20
39.1903980080497121
 30
0.0
  0
VERTEX
  5
3C64
  8
0
 10
129.4070927305114083
 20
39.1922407483098567
 30
0.0
  0
VERTEX
  5
3C65
  8
0
 10
129.3793233882801132
 20
39.1931657615809215
 30
0.0
  0
VERTEX
  5
3C66
  8
0
 10
129.3656811848833001
 20
39.193281735024847
 30
0.0
  0
SEQEND
  5
3C67
  8
0
  0
LINE
  5
2D88
  8
0
 10
137.6396912511976041
 20
32.1932817350248612
 30
0.0
 11
129.3656811848833001
 21
32.1932817350248612
 31
0.0
  0
POLYLINE
  5
2D89
  8
0
 66
     1
 10
0.0
 20
0.0
 30
0.0
  0
VERTEX
  5
3C68
  8
0
 10
137.6396912511976041
 20
32.1932817350248612
 30
0.0
  0
VERTEX
  5
3C69
  8
0
 10
137.4548865909310962
 20
32.0958755987035573
 30
0.0
  0
VERTEX
  5
3C6A
  8
0
 10
136.9351246238879014
 20
31.9015424618793695
 30
0.0
  0
VERTEX
  5
3C6B
  8
0
 10
136.2158177642230044
 20
31.7080830193982983
 30
0.0
  0
VERTEX
  5
3C6C
  8
0
 10
135.7816498454400005
 20
31.6117687038973116
 30
0.0
  0
SEQEND
  5
3C6D
  8
0
  0
POLYLINE
  5
2D8A
  8
0
 66
     1
 10
0.0
 20
0.0
 30
0.0
  0
VERTEX
  5
3C6E
  8
0
 10
125.8240575042101028
 20
31.6952679934102406
 30
0.0
  0
VERTEX
  5
3C6F
  8
0
 10
125.8243230138951958
 20
31.6978341772824486
 30
0.0
  0
VERTEX
  5
3C70
  8
0
 10
125.8264469979017974
 20
31.7029659427404802
 30
0.0
  0
VERTEX
  5
3C71
  8
0
 10
125.830694467413295
 20
31.708095901480231
 30
0.0
  0
VERTEX
  5
3C72
  8
0
 10
125.8336142171690994
 20
31.7106598270538989
 30
0.0
  0
VERTEX
  5
3C73
  8
0
 10
125.837064425543403
 20
31.7132228494937607
 30
0.0
  0
VERTEX
  5
3C74
  8
0
 10
125.8455553772546978
 20
31.7183455834802288
 30
0.0
  0
VERTEX
  5
3C75
  8
0
 10
125.8561653297105067
 20
31.7234629011274407
 30
0.0
  0
VERTEX
  5
3C76
  8
0
 10
125.8688917927417066
 20
31.7285736013944195
 30
0.0
  0
VERTEX
  5
3C77
  8
0
 10
125.8837317794310025
 20
31.7336764847936301
 30
0.0
  0
VERTEX
  5
3C78
  8
0
 10
125.900681806815598
 20
31.7387703536718817
 30
0.0
  0
VERTEX
  5
3C79
  8
0
 10
125.909946861903407
 20
31.74131353396983
 30
0.0
  0
VERTEX
  5
3C7A
  8
0
 10
125.9197378967025003
 20
31.7438540124916706
 30
0.0
  0
VERTEX
  5
3C7B
  8
0
 10
125.9408955766037934
 20
31.7489262681120188
 30
0.0
  0
VERTEX
  5
3C7C
  8
0
 10
125.9641498807851008
 20
31.7539859300682501
 30
0.0
  0
VERTEX
  5
3C7D
  8
0
 10
125.9894953514327938
 20
31.7590318108512299
 30
0.0
  0
VERTEX
  5
3C7E
  8
0
 10
126.0169260399325992
 20
31.764062726186399
 30
0.0
  0
VERTEX
  5
3C7F
  8
0
 10
126.0464355082680044
 20
31.7690774953118087
 30
0.0
  0
VERTEX
  5
3C80
  8
0
 10
126.0619676395418054
 20
31.7715784570862496
 30
0.0
  0
VERTEX
  5
3C81
  8
0
 10
126.0780168305294069
 20
31.7740749412547991
 30
0.0
  0
VERTEX
  5
3C82
  8
0
 10
126.111662594541599
 20
31.7790538911084894
 30
0.0
  0
VERTEX
  5
3C83
  8
0
 10
126.1473649036012006
 20
31.7840131763071412
 30
0.0
  0
VERTEX
  5
3C84
  8
0
 10
126.1659846627701995
 20
31.7864850807387
 30
0.0
  0
SEQEND
  5
3C85
  8
0
  0
LINE
  5
2D8B
  8
0
 10
126.1659846627701995
 20
31.7864850807387
 30
0.0
 11
129.0023934489437067
 21
32.1575395316081512
 31
0.0
  0
POLYLINE
  5
2D8C
  8
0
 66
     1
 10
0.0
 20
0.0
 30
0.0
  0
VERTEX
  5
3C86
  8
0
 10
129.0023934489437067
 20
32.1575395316081512
 30
0.0
  0
VERTEX
  5
3C87
  8
0
 10
129.051579309743687
 20
32.1636459036027773
 30
0.0
  0
VERTEX
  5
3C88
  8
0
 10
129.1637230905865863
 20
32.1756935722240129
 30
0.0
  0
VERTEX
  5
3C89
  8
0
 10
129.2939298767159073
 20
32.1874896572062781
 30
0.0
  0
VERTEX
  5
3C8A
  8
0
 10
129.3656811848833001
 20
32.1932817350248612
 30
0.0
  0
SEQEND
  5
3C8B
  8
0
  0
POLYLINE
  5
2D8D
  8
0
 66
     1
 10
0.0
 20
0.0
 30
0.0
  0
VERTEX
  5
3C8C
  8
0
 10
135.7816498454400005
 20
31.6117687038973116
 30
0.0
  0
VERTEX
  5
3C8D
  8
0
 10
135.7761728677008932
 20
31.610718044367939
 30
0.0
  0
VERTEX
  5
3C8E
  8
0
 10
135.7652282847180913
 20
31.6091965412139615
 30
0.0
  0
VERTEX
  5
3C8F
  8
0
 10
135.7542995453866865
 20
31.6084404520509388
 30
0.0
  0
VERTEX
  5
3C90
  8
0
 10
135.748842381192901
 20
31.6083464130423799
 30
0.0
  0
SEQEND
  5
3C91
  8
0
  0
LINE
  5
2D8E
  8
0
 10
125.8240575042101028
 20
31.6083464130423799
 30
0.0
 11
125.8240575042101028
 21
39.7782170570073319
 31
0.0
  0
POLYLINE
  5
2D8F
  8
0
 66
     1
 10
0.0
 20
0.0
 30
0.0
  0
VERTEX
  5
3C92
  8
0
 10
130.4182637065518122
 20
42.693281735024847
 30
0.0
  0
VERTEX
  5
3C93
  8
0
 10
130.46209222454479
 20
42.6921088183177417
 30
0.0
  0
VERTEX
  5
3C94
  8
0
 10
130.5486545733876085
 20
42.6828275516970024
 30
0.0
  0
VERTEX
  5
3C95
  8
0
 10
130.6335703858891009
 20
42.6645605638495198
 30
0.0
  0
VERTEX
  5
3C96
  8
0
 10
130.6753427242460077
 20
42.6521711312894212
 30
0.0
  0
VERTEX
  5
3C97
  8
0
 10
130.7167128170308956
 20
42.6376459931219998
 30
0.0
  0
VERTEX
  5
3C98
  8
0
 10
130.7996090458547087
 20
42.6016437620159323
 30
0.0
  0
VERTEX
  5
3C99
  8
0
 10
130.8826574394639124
 20
42.5560779195591721
 30
0.0
  0
VERTEX
  5
3C9A
  8
0
 10
130.9655750069784119
 20
42.5007298224385721
 30
0.0
  0
VERTEX
  5
3C9B
  8
0
 10
131.0480886273018086
 20
42.4354511505908221
 30
0.0
  0
VERTEX
  5
3C9C
  8
0
 10
131.1299386786820946
 20
42.360160295370207
 30
0.0
  0
VERTEX
  5
3C9D
  8
0
 10
131.170537935570394
 20
42.3187519843564033
 30
0.0
  0
VERTEX
  5
3C9E
  8
0
 10
131.2108803034273876
 20
42.2748388575337586
 30
0.0
  0
VERTEX
  5
3C9F
  8
0
 10
131.2906781556526994
 20
42.1795354833533693
 30
0.0
  0
VERTEX
  5
3CA0
  8
0
 10
131.3691063193039952
 20
42.0743671548503215
 30
0.0
  0
VERTEX
  5
3CA1
  8
0
 10
131.4459516275599924
 20
41.9595158030260009
 30
0.0
  0
VERTEX
  5
3CA2
  8
0
 10
131.5210217624295126
 20
41.8352140111435702
 30
0.0
  0
VERTEX
  5
3CA3
  8
0
 10
131.5941646031427013
 20
41.7017011159309021
 30
0.0
  0
VERTEX
  5
3CA4
  8
0
 10
131.6299604480545042
 20
41.6315936335449024
 30
0.0
  0
VERTEX
  5
3CA5
  8
0
 10
131.6652113170011091
 20
41.5593171884109296
 30
0.0
  0
VERTEX
  5
3CA6
  8
0
 10
131.733999268011388
 20
41.4084764322213204
 30
0.0
  0
VERTEX
  5
3CA7
  8
0
 10
131.8003804017610889
 20
41.2496535062567133
 30
0.0
  0
VERTEX
  5
3CA8
  8
0
 10
131.8326268054858019
 20
41.1674117877317229
 30
0.0
  0
SEQEND
  5
3CA9
  8
0
  0
POLYLINE
  5
2D90
  8
0
 66
     1
 10
0.0
 20
0.0
 30
0.0
  0
VERTEX
  5
3CAA
  8
0
 10
131.8326268054858019
 20
30.2191516823179889
 30
0.0
  0
VERTEX
  5
3CAB
  8
0
 10
131.8003804017604068
 20
30.1369099637909592
 30
0.0
  0
VERTEX
  5
3CAC
  8
0
 10
131.7339992680107059
 20
29.9780870378265689
 30
0.0
  0
VERTEX
  5
3CAD
  8
0
 10
131.6652113170003986
 20
29.8272462816371906
 30
0.0
  0
VERTEX
  5
3CAE
  8
0
 10
131.6299604480537937
 20
29.7549698365033208
 30
0.0
  0
VERTEX
  5
3CAF
  8
0
 10
131.5941646031421044
 20
29.6848623541174383
 30
0.0
  0
VERTEX
  5
3CB0
  8
0
 10
131.5210217624286031
 20
29.5513494589048804
 30
0.0
  0
VERTEX
  5
3CB1
  8
0
 10
131.4459516275593103
 20
29.4270476670226806
 30
0.0
  0
VERTEX
  5
3CB2
  8
0
 10
131.369106319303512
 20
29.3121963151984808
 30
0.0
  0
VERTEX
  5
3CB3
  8
0
 10
131.2906781556521878
 20
29.2070279866955396
 30
0.0
  0
VERTEX
  5
3CB4
  8
0
 10
131.2108803034267055
 20
29.1117246125153706
 30
0.0
  0
VERTEX
  5
3CB5
  8
0
 10
131.1705379355699961
 20
29.0678114856927294
 30
0.0
  0
VERTEX
  5
3CB6
  8
0
 10
131.1299386786816967
 20
29.0264031746790288
 30
0.0
  0
VERTEX
  5
3CB7
  8
0
 10
131.048088627301297
 20
28.9511123194585416
 30
0.0
  0
VERTEX
  5
3CB8
  8
0
 10
130.9655750069779003
 20
28.8858336476107986
 30
0.0
  0
VERTEX
  5
3CB9
  8
0
 10
130.8826574394634861
 20
28.8304855504903088
 30
0.0
  0
VERTEX
  5
3CBA
  8
0
 10
130.7996090458545098
 20
28.7849197080336587
 30
0.0
  0
VERTEX
  5
3CBB
  8
0
 10
130.7167128170306967
 20
28.7489174769275913
 30
0.0
  0
VERTEX
  5
3CBC
  8
0
 10
130.6753427242456951
 20
28.7343923387601805
 30
0.0
  0
VERTEX
  5
3CBD
  8
0
 10
130.6335703858891009
 20
28.7220029062001885
 30
0.0
  0
VERTEX
  5
3CBE
  8
0
 10
130.5486545733876085
 20
28.7037359183527094
 30
0.0
  0
VERTEX
  5
3CBF
  8
0
 10
130.46209222454479
 20
28.6944546517319594
 30
0.0
  0
VERTEX
  5
3CC0
  8
0
 10
130.4182637065518122
 20
28.6932817350248612
 30
0.0
  0
SEQEND
  5
3CC1
  8
0
  0
POLYLINE
  5
2D91
  8
0
 66
     1
 10
0.0
 20
0.0
 30
0.0
  0
VERTEX
  5
3CC2
  8
0
 10
135.748842381192901
 20
39.7782170570073319
 30
0.0
  0
VERTEX
  5
3CC3
  8
0
 10
135.7542995453866865
 20
39.778123017998773
 30
0.0
  0
VERTEX
  5
3CC4
  8
0
 10
135.7652282847180913
 20
39.7773669288357468
 30
0.0
  0
VERTEX
  5
3CC5
  8
0
 10
135.7761728677008932
 20
39.7758454256817728
 30
0.0
  0
VERTEX
  5
3CC6
  8
0
 10
135.7816498454400005
 20
39.7747947661523966
 30
0.0
  0
SEQEND
  5
3CC7
  8
0
  0
POLYLINE
  5
2D92
  8
0
 66
     1
 10
0.0
 20
0.0
 30
0.0
  0
VERTEX
  5
3CC8
  8
0
 10
125.8240575042101028
 20
39.4387176068971002
 30
0.0
  0
VERTEX
  5
3CC9
  8
0
 10
125.8237010385136045
 20
39.4308885709249779
 30
0.0
  0
VERTEX
  5
3CCA
  8
0
 10
125.8208286921123005
 20
39.4158161162630876
 30
0.0
  0
VERTEX
  5
3CCB
  8
0
 10
125.8150338912005992
 20
39.4015451742578122
 30
0.0
  0
VERTEX
  5
3CCC
  8
0
 10
125.8110255381804024
 20
39.3947175059584396
 30
0.0
  0
VERTEX
  5
3CCD
  8
0
 10
125.8062691700930031
 20
39.3880986099661001
 30
0.0
  0
VERTEX
  5
3CCE
  8
0
 10
125.7944921749182043
 20
39.3754969535628305
 30
0.0
  0
VERTEX
  5
3CCF
  8
0
 10
125.7796656943900047
 20
39.3637583167025369
 30
0.0
  0
VERTEX
  5
3CD0
  8
0
 10
125.7617576444771004
 20
39.3528983292984975
 30
0.0
  0
VERTEX
  5
3CD1
  8
0
 10
125.7407410061135948
 20
39.3429300968037268
 30
0.0
  0
VERTEX
  5
3CD2
  8
0
 10
125.7165937148451036
 20
39.333864178052572
 30
0.0
  0
VERTEX
  5
3CD3
  8
0
 10
125.7033404957346931
 20
39.3296721888123528
 30
0.0
  0
VERTEX
  5
3CD4
  8
0
 10
125.689298501106407
 20
39.3257085836678897
 30
0.0
  0
VERTEX
  5
3CD5
  8
0
 10
125.6588426796890019
 20
39.3184687949788412
 30
0.0
  0
VERTEX
  5
3CD6
  8
0
 10
125.6252179195694936
 20
39.3121478087363627
 30
0.0
  0
VERTEX
  5
3CD7
  8
0
 10
125.5884203893890998
 20
39.3067462498306028
 30
0.0
  0
VERTEX
  5
3CD8
  8
0
 10
125.5484511182126965
 20
39.3022624444031834
 30
0.0
  0
VERTEX
  5
3CD9
  8
0
 10
125.5053160382372965
 20
39.2986924078839408
 30
0.0
  0
VERTEX
  5
3CDA
  8
0
 10
125.4825645058480035
 20
39.2972481753126175
 30
0.0
  0
VERTEX
  5
3CDB
  8
0
 10
125.459025946231904
 20
39.2960298441026197
 30
0.0
  0
VERTEX
  5
3CDC
  8
0
 10
125.4095964224394066
 20
39.2942661646979303
 30
0.0
  0
VERTEX
  5
3CDD
  8
0
 10
125.3570477076425931
 20
39.2933905279170901
 30
0.0
  0
VERTEX
  5
3CDE
  8
0
 10
125.3296112136410017
 20
39.2932817350248769
 30
0.0
  0
SEQEND
  5
3CDF
  8
0
  0
POLYLINE
  5
2D93
  8
0
 66
     1
 10
0.0
 20
0.0
 30
0.0
  0
VERTEX
  5
3CE0
  8
0
 10
125.3296112136410017
 20
39.2932817350248769
 30
0.0
  0
VERTEX
  5
3CE1
  8
0
 10
125.2974973045436968
 20
39.2934213598138484
 30
0.0
  0
VERTEX
  5
3CE2
  8
0
 10
125.2303081994739955
 20
39.2945293693090179
 30
0.0
  0
VERTEX
  5
3CE3
  8
0
 10
125.1592124784039015
 20
39.2967206990759195
 30
0.0
  0
VERTEX
  5
3CE4
  8
0
 10
125.122216023782201
 20
39.2982137623535408
 30
0.0
  0
SEQEND
  5
3CE5
  8
0
  0
POLYLINE
  5
2D94
  8
0
 66
     1
 10
0.0
 20
0.0
 30
0.0
  0
VERTEX
  5
3CE6
  8
0
 10
131.8326268054858019
 20
41.1674117877317229
 30
0.0
  0
VERTEX
  5
3CE7
  8
0
 10
132.0883369435944985
 20
40.8680205004799717
 30
0.0
  0
VERTEX
  5
3CE8
  8
0
 10
132.5831880697101894
 20
40.3515260773369135
 30
0.0
  0
VERTEX
  5
3CE9
  8
0
 10
133.0518257743827917
 20
39.9439763675892934
 30
0.0
  0
VERTEX
  5
3CEA
  8
0
 10
133.2778782638098107
 20
39.778096186522518
 30
0.0
  0
SEQEND
  5
3CEB
  8
0
  0
LINE
  5
2D95
  8
0
 10
110.8240575042101028
 20
29.1932817350248506
 30
0.0
 11
110.8240575042101028
 21
42.193281735024847
 31
0.0
  0
LINE
  5
2D96
  8
0
 10
121.3240575042101028
 20
42.693281735024847
 30
0.0
 11
121.3240575042101028
 21
28.6932817350248612
 31
0.0
  0
POLYLINE
  5
2D97
  8
0
 66
     1
 10
0.0
 20
0.0
 30
0.0
  0
VERTEX
  5
3CEC
  8
0
 10
125.122216023782201
 20
39.2982137623535408
 30
0.0
  0
VERTEX
  5
3CED
  8
0
 10
125.0295752481525966
 20
39.3030188505543308
 30
0.0
  0
VERTEX
  5
3CEE
  8
0
 10
124.8412964350674059
 20
39.3175335483345378
 30
0.0
  0
VERTEX
  5
3CEF
  8
0
 10
124.6491467756548985
 20
39.3386281520354686
 30
0.0
  0
VERTEX
  5
3CF0
  8
0
 10
124.5516700611562015
 20
39.3516525437122908
 30
0.0
  0
VERTEX
  5
3CF1
  8
0
 10
124.4532868571273951
 20
39.3663304790414301
 30
0.0
  0
VERTEX
  5
3CF2
  8
0
 10
124.2538898794239941
 20
39.4006445375500078
 30
0.0
  0
VERTEX
  5
3CF3
  8
0
 10
124.051140950373906
 20
39.4415507747237797
 30
0.0
  0
VERTEX
  5
3CF4
  8
0
 10
123.8452363451315961
 20
39.4890064805249921
 30
0.0
  0
VERTEX
  5
3CF5
  8
0
 10
123.6363827025066939
 20
39.5429463381797603
 30
0.0
  0
VERTEX
  5
3CF6
  8
0
 10
123.4247957094981984
 20
39.6032832453176269
 30
0.0
  0
VERTEX
  5
3CF7
  8
0
 10
123.3180416909499968
 20
39.635819235557662
 30
0.0
  0
VERTEX
  5
3CF8
  8
0
 10
123.2106826318835004
 20
39.6699145440698402
 30
0.0
  0
VERTEX
  5
3CF9
  8
0
 10
122.9942683689531009
 20
39.742715627384932
 30
0.0
  0
VERTEX
  5
3CFA
  8
0
 10
122.7757977130527962
 20
39.8215384073772967
 30
0.0
  0
VERTEX
  5
3CFB
  8
0
 10
122.5555257821395969
 20
39.9062142120296102
 30
0.0
  0
VERTEX
  5
3CFC
  8
0
 10
122.3337171265219041
 20
39.9965544210679624
 30
0.0
  0
VERTEX
  5
3CFD
  8
0
 10
122.1106448148657933
 20
40.0923511935725827
 30
0.0
  0
VERTEX
  5
3CFE
  8
0
 10
121.9987222204379975
 20
40.1422257834874898
 30
0.0
  0
VERTEX
  5
3CFF
  8
0
 10
121.8865894875853968
 20
40.1933782834043214
 30
0.0
  0
VERTEX
  5
3D00
  8
0
 10
121.6618384151973942
 20
40.2993919181540505
 30
0.0
  0
VERTEX
  5
3D01
  8
0
 10
121.4366878034477963
 20
40.4101301049804889
 30
0.0
  0
VERTEX
  5
3D02
  8
0
 10
121.3240575042101028
 20
40.4671841843677669
 30
0.0
  0
SEQEND
  5
3D03
  8
0
  0
POLYLINE
  5
2D98
  8
0
 66
     1
 10
0.0
 20
0.0
 30
0.0
  0
VERTEX
  5
3D04
  8
0
 10
121.3240575042101028
 20
30.9193792856820409
 30
0.0
  0
VERTEX
  5
3D05
  8
0
 10
121.4366878034477963
 20
30.9764333650692194
 30
0.0
  0
VERTEX
  5
3D06
  8
0
 10
121.6618384151973942
 20
31.0871715518956506
 30
0.0
  0
VERTEX
  5
3D07
  8
0
 10
121.8865894875853968
 20
31.1931851866454899
 30
0.0
  0
VERTEX
  5
3D08
  8
0
 10
121.9987222204379975
 20
31.2443376865622184
 30
0.0
  0
VERTEX
  5
3D09
  8
0
 10
122.1106448148655943
 20
31.2942122764771291
 30
0.0
  0
VERTEX
  5
3D0A
  8
0
 10
122.3337171265219041
 20
31.3900090489817494
 30
0.0
  0
VERTEX
  5
3D0B
  8
0
 10
122.5555257821395969
 20
31.4803492580201016
 30
0.0
  0
VERTEX
  5
3D0C
  8
0
 10
122.7757977130527962
 20
31.5650250626724116
 30
0.0
  0
VERTEX
  5
3D0D
  8
0
 10
122.9942683689531009
 20
31.6438478426647798
 30
0.0
  0
VERTEX
  5
3D0E
  8
0
 10
123.2106826318835004
 20
31.7166489259798716
 30
0.0
  0
VERTEX
  5
3D0F
  8
0
 10
123.3180416909499968
 20
31.75074423449216
 30
0.0
  0
VERTEX
  5
3D10
  8
0
 10
123.4247957094981984
 20
31.7832802247321986
 30
0.0
  0
VERTEX
  5
3D11
  8
0
 10
123.6363827025066939
 20
31.8436171318700616
 30
0.0
  0
VERTEX
  5
3D12
  8
0
 10
123.8452363451315961
 20
31.8975569895247197
 30
0.0
  0
VERTEX
  5
3D13
  8
0
 10
124.051140950373906
 20
31.9450126953259286
 30
0.0
  0
VERTEX
  5
3D14
  8
0
 10
124.2538898794239941
 20
31.9859189324997004
 30
0.0
  0
VERTEX
  5
3D15
  8
0
 10
124.4532868571273951
 20
32.0202329910082923
 30
0.0
  0
VERTEX
  5
3D16
  8
0
 10
124.5516700611562015
 20
32.0349109263374174
 30
0.0
  0
VERTEX
  5
3D17
  8
0
 10
124.6491467756548985
 20
32.0479353180142397
 30
0.0
  0
VERTEX
  5
3D18
  8
0
 10
124.8412964350674059
 20
32.0690299217151704
 30
0.0
  0
VERTEX
  5
3D19
  8
0
 10
125.0295752481525966
 20
32.0835446194953775
 30
0.0
  0
VERTEX
  5
3D1A
  8
0
 10
125.122216023782201
 20
32.0883497076962811
 30
0.0
  0
SEQEND
  5
3D1B
  8
0
  0
LINE
  5
2D99
  8
0
 10
106.8240575042101028
 20
40.3932817350248925
 30
0.0
 11
106.8240575042101028
 21
30.9932817350248087
 31
0.0
  0
LINE
  5
2D9A
  8
0
 10
107.1240575042102989
 20
40.693281735024847
 30
0.0
 11
107.1240575042102989
 21
30.6932817350248612
 31
0.0
  0
LINE
  5
2D9B
  8
1
 10
140.6910989232262921
 20
35.6932817350248612
 30
0.0
 11
76.5240575042104183
 21
35.693281735024911
 31
0.0
  0
LINE
  5
2D9C
  8
1
 10
79.0240575042101909
 20
158.6932817350248115
 30
0.0
 11
79.0240575042101909
 21
146.6932817350248115
 31
0.0
  0
LINE
  5
2D9D
  8
1
 10
100.0240575042102051
 20
158.6932817350248115
 30
0.0
 11
100.0240575042102051
 21
146.6932817350248115
 31
0.0
  0
LINE
  5
2D9E
  8
1
 10
89.5240575042102051
 20
162.6932817350248115
 30
0.0
 11
89.5240575042102051
 21
109.1932817350246978
 31
0.0
  0
LINE
  5
2D9F
  8
0
 10
135.6731957292066113
 20
78.1932817350247831
 30
0.0
 11
134.4487348385297025
 21
78.1932817350247831
 31
0.0
  0
LINE
  5
2DA0
  8
0
 10
121.3240575042101028
 20
111.7032817350247029
 30
0.0
 11
110.8240575042101028
 21
111.7032817350247029
 31
0.0
  0
LINE
  5
2DA1
  8
0
 10
110.9740348524997984
 20
124.7032817350247029
 30
0.0
 11
125.6113832777466968
 21
124.7032817350247029
 31
0.0
  0
LINE
  5
2DA2
  8
0
 10
106.8240575042101028
 20
122.8932817350248001
 30
0.0
 11
107.1240575042101
 21
123.1932817350246978
 31
0.0
  0
LINE
  5
2DA3
  8
0
 10
107.1240575042101
 20
113.1932817350246978
 30
0.0
 11
106.8240575042101028
 21
113.493281735024695
 31
0.0
  0
LINE
  5
2DA4
  8
0
 10
128.8649807919076125
 20
122.493281735024695
 30
0.0
 11
131.3240575042100886
 21
122.493281735024695
 31
0.0
  0
LINE
  5
2DA5
  8
0
 10
107.1240575042101
 20
123.1932817350246978
 30
0.0
 11
110.8240575042101028
 21
123.1932817350246978
 31
0.0
  0
LINE
  5
2DA6
  8
0
 10
110.8240575042101028
 20
113.1932817350246978
 30
0.0
 11
107.1240575042101
 21
113.1932817350246978
 31
0.0
  0
POLYLINE
  5
2DA7
  8
0
 66
     1
 10
0.0
 20
0.0
 30
0.0
  0
VERTEX
  5
3D1C
  8
0
 10
135.5985365314687101
 20
98.416660535116165
 30
0.0
  0
VERTEX
  5
3D1D
  8
0
 10
135.5159086144242906
 20
98.8607869619234947
 30
0.0
  0
VERTEX
  5
3D1E
  8
0
 10
135.3453947591929989
 20
99.7529204440522506
 30
0.0
  0
VERTEX
  5
3D1F
  8
0
 10
135.1681168347280106
 20
100.648471255933103
 30
0.0
  0
VERTEX
  5
3D20
  8
0
 10
135.0770425955556959
 20
101.0968903904798992
 30
0.0
  0
VERTEX
  5
3D21
  8
0
 10
134.984392073540505
 20
101.5454637783740992
 30
0.0
  0
VERTEX
  5
3D22
  8
0
 10
134.7945651246126033
 20
102.4420413065534063
 30
0.0
  0
VERTEX
  5
3D23
  8
0
 10
134.5990854906929997
 20
103.3361015552228963
 30
0.0
  0
VERTEX
  5
3D24
  8
0
 10
134.3984628623792048
 20
104.2255302768086977
 30
0.0
  0
VERTEX
  5
3D25
  8
0
 10
134.1932602379015975
 20
105.1082324358106064
 30
0.0
  0
VERTEX
  5
3D26
  8
0
 10
133.9840872165574126
 20
105.9821560524417947
 30
0.0
  0
VERTEX
  5
3D27
  8
0
 10
133.8782151432970977
 20
106.4151940345560945
 30
0.0
  0
VERTEX
  5
3D28
  8
0
 10
133.7716013086233886
 20
106.8452787569851949
 30
0.0
  0
VERTEX
  5
3D29
  8
0
 10
133.5565135886693895
 20
107.6955783727337064
 30
0.0
  0
VERTEX
  5
3D2A
  8
0
 10
133.3395828342682989
 20
108.5310506066020935
 30
0.0
  0
VERTEX
  5
3D2B
  8
0
 10
133.1216071220968047
 20
109.3497323227780953
 30
0.0
  0
VERTEX
  5
3D2C
  8
0
 10
132.901098580579287
 20
110.1581148524066975
 30
0.0
  0
VERTEX
  5
3D2D
  8
0
 10
132.6739238072588023
 20
110.971446327649403
 30
0.0
  0
VERTEX
  5
3D2E
  8
0
 10
132.5579343711640945
 20
111.379489714808301
 30
0.0
  0
VERTEX
  5
3D2F
  8
0
 10
132.4404296181436109
 20
111.7880958595736018
 30
0.0
  0
VERTEX
  5
3D30
  8
0
 10
132.2011476830097081
 20
112.605947335327798
 30
0.0
  0
VERTEX
  5
3D31
  8
0
 10
131.9566473638292905
 20
113.4229423268057957
 30
0.0
  0
VERTEX
  5
3D32
  8
0
 10
131.8326268054854893
 20
113.8304959087376034
 30
0.0
  0
SEQEND
  5
3D33
  8
0
  0
LINE
  5
2DA8
  8
0
 10
121.3240575042101028
 20
124.7032817350247029
 30
0.0
 11
121.3240575042101028
 21
111.7032817350247029
 31
0.0
  0
POLYLINE
  5
2DA9
  8
0
 66
     1
 10
0.0
 20
0.0
 30
0.0
  0
VERTEX
  5
3D34
  8
0
 10
125.122216023782002
 20
103.9372461776346057
 30
0.0
  0
VERTEX
  5
3D35
  8
0
 10
125.160913487489907
 20
103.8433206355308016
 30
0.0
  0
VERTEX
  5
3D36
  8
0
 10
125.2351332999951978
 20
103.6541966352353938
 30
0.0
  0
VERTEX
  5
3D37
  8
0
 10
125.3050691097374028
 20
103.4635103254198043
 30
0.0
  0
VERTEX
  5
3D38
  8
0
 10
125.3384128539105973
 20
103.3676343923282985
 30
0.0
  0
VERTEX
  5
3D39
  8
0
 10
125.3706653946165943
 20
103.2714322514691929
 30
0.0
  0
VERTEX
  5
3D3A
  8
0
 10
125.4318747269722962
 20
103.0781379638161042
 30
0.0
  0
VERTEX
  5
3D3B
  8
0
 10
125.4886583385047061
 20
102.8838069717135966
 30
0.0
  0
VERTEX
  5
3D3C
  8
0
 10
125.5409865698039056
 20
102.6886216509084022
 30
0.0
  0
VERTEX
  5
3D3D
  8
0
 10
125.5888392039558994
 20
102.4927661043141001
 30
0.0
  0
VERTEX
  5
3D3E
  8
0
 10
125.6322056828828977
 20
102.2964249743696996
 30
0.0
  0
VERTEX
  5
3D3F
  8
0
 10
125.6522059821615045
 20
102.1981298604301003
 30
0.0
  0
VERTEX
  5
3D40
  8
0
 10
125.6710852027577943
 20
102.0997822133005997
 30
0.0
  0
VERTEX
  5
3D41
  8
0
 10
125.705486473904898
 20
101.9030211108223938
 30
0.0
  0
VERTEX
  5
3D42
  8
0
 10
125.7354269727885026
 20
101.7063282339565973
 30
0.0
  0
VERTEX
  5
3D43
  8
0
 10
125.7609331058752957
 20
101.5098944277612958
 30
0.0
  0
VERTEX
  5
3D44
  8
0
 10
125.7820407370304991
 20
101.3139136403767964
 30
0.0
  0
VERTEX
  5
3D45
  8
0
 10
125.7987955817897046
 20
101.1185816978313028
 30
0.0
  0
VERTEX
  5
3D46
  8
0
 10
125.8055577547594055
 20
101.0212204518109047
 30
0.0
  0
VERTEX
  5
3D47
  8
0
 10
125.8112534624849985
 20
100.924095082575306
 30
0.0
  0
VERTEX
  5
3D48
  8
0
 10
125.8194804284918007
 20
100.7306497159776058
 30
0.0
  0
VERTEX
  5
3D49
  8
0
 10
125.8235527450552951
 20
100.5384397431108994
 30
0.0
  0
VERTEX
  5
3D4A
  8
0
 10
125.8240575042101028
 20
100.4428579147053995
 30
0.0
  0
SEQEND
  5
3D4B
  8
0
  0
POLYLINE
  5
2DAA
  8
0
 66
     1
 10
0.0
 20
0.0
 30
0.0
  0
VERTEX
  5
3D4C
  8
0
 10
135.6731957292066113
 20
78.1932817350247831
 30
0.0
  0
VERTEX
  5
3D4D
  8
0
 10
135.6735245861572139
 20
78.1933573006917584
 30
0.0
  0
VERTEX
  5
3D4E
  8
0
 10
135.6760971413399091
 20
78.193949980543465
 30
0.0
  0
VERTEX
  5
3D4F
  8
0
 10
135.6810853708792024
 20
78.1951070395539034
 30
0.0
  0
VERTEX
  5
3D50
  8
0
 10
135.6844313897985046
 20
78.1958889794130698
 30
0.0
  0
VERTEX
  5
3D51
  8
0
 10
135.6883159607870084
 20
78.1968026278724153
 30
0.0
  0
VERTEX
  5
3D52
  8
0
 10
135.6976129734904077
 20
78.199014855342142
 30
0.0
  0
VERTEX
  5
3D53
  8
0
 10
135.7088042601353948
 20
78.2017257897643532
 30
0.0
  0
VERTEX
  5
3D54
  8
0
 10
135.7217257858285961
 20
78.2049212363516233
 30
0.0
  0
VERTEX
  5
3D55
  8
0
 10
135.7362238701851993
 20
78.2085903012648203
 30
0.0
  0
VERTEX
  5
3D56
  8
0
 10
135.7521558167775879
 20
78.2127248096206529
 30
0.0
  0
VERTEX
  5
3D57
  8
0
 10
135.7606178222320921
 20
78.2149646376137468
 30
0.0
  0
VERTEX
  5
3D58
  8
0
 10
135.7693895568166909
 20
78.2173186721008449
 30
0.0
  0
VERTEX
  5
3D59
  8
0
 10
135.7878028786508935
 20
78.2223672905945193
 30
0.0
  0
VERTEX
  5
3D5A
  8
0
 10
135.8072833528418073
 20
78.2278672727838682
 30
0.0
  0
VERTEX
  5
3D5B
  8
0
 10
135.8277296170033992
 20
78.2338166702149636
 30
0.0
  0
VERTEX
  5
3D5C
  8
0
 10
135.8490508560354044
 20
78.2402148492240883
 30
0.0
  0
VERTEX
  5
3D5D
  8
0
 10
135.871165466836203
 20
78.2470621813997411
 30
0.0
  0
VERTEX
  5
3D5E
  8
0
 10
135.8824969767698008
 20
78.2506545975952292
 30
0.0
  0
VERTEX
  5
3D5F
  8
0
 10
135.893999734881703
 20
78.2543597479143216
 30
0.0
  0
VERTEX
  5
3D60
  8
0
 10
135.9174866276547107
 20
78.2621090733210565
 30
0.0
  0
VERTEX
  5
3D61
  8
0
 10
135.9415647530601063
 20
78.2703118967920943
 30
0.0
  0
VERTEX
  5
3D62
  8
0
 10
135.9538076696422877
 20
78.2745839254937152
 30
0.0
  0
VERTEX
  5
3D63
  8
0
 10
136.0297035078311865
 20
78.3026138318631126
 30
0.0
  0
VERTEX
  5
3D64
  8
0
 10
136.1895932544379093
 20
78.370736932217568
 30
0.0
  0
VERTEX
  5
3D65
  8
0
 10
136.3529905771578115
 20
78.4540411192203635
 30
0.0
  0
VERTEX
  5
3D66
  8
0
 10
136.5130147353569043
 20
78.5505527337082583
 30
0.0
  0
VERTEX
  5
3D67
  8
0
 10
136.6687501035789012
 20
78.6606393391083145
 30
0.0
  0
VERTEX
  5
3D68
  8
0
 10
136.8253791476386994
 20
78.7902049383108931
 30
0.0
  0
VERTEX
  5
3D69
  8
0
 10
136.9027754679532904
 20
78.8623895883757484
 30
0.0
  0
VERTEX
  5
3D6A
  8
0
 10
136.9155605424579107
 20
78.8748955826883531
 30
0.0
  0
VERTEX
  5
3D6B
  8
0
 10
136.9410110748461875
 20
78.9003116307237349
 30
0.0
  0
VERTEX
  5
3D6C
  8
0
 10
136.9662863832512016
 20
78.9262634687835032
 30
0.0
  0
VERTEX
  5
3D6D
  8
0
 10
136.9788524930027904
 20
78.9394390955942242
 30
0.0
  0
VERTEX
  5
3D6E
  8
0
 10
136.9913678308402041
 20
78.9527471592250265
 30
0.0
  0
VERTEX
  5
3D6F
  8
0
 10
137.0162370802300984
 20
78.9797583342355836
 30
0.0
  0
VERTEX
  5
3D70
  8
0
 10
137.0408761150027885
 20
79.0072922171213747
 30
0.0
  0
VERTEX
  5
3D71
  8
0
 10
137.0652672615441077
 20
79.0353436474584612
 30
0.0
  0
VERTEX
  5
3D72
  8
0
 10
137.0893932111115134
 20
79.0639071104854736
 30
0.0
  0
VERTEX
  5
3D73
  8
0
 10
137.113237042002396
 20
79.0929767711363354
 30
0.0
  0
VERTEX
  5
3D74
  8
0
 10
137.1250479880139892
 20
79.1076995263332208
 30
0.0
  0
VERTEX
  5
3D75
  8
0
 10
137.1367825043105881
 20
79.1225468479594554
 30
0.0
  0
VERTEX
  5
3D76
  8
0
 10
137.1600145104096953
 20
79.1526123247973317
 30
0.0
  0
VERTEX
  5
3D77
  8
0
 10
137.1829166724533877
 20
79.1831657903705661
 30
0.0
  0
VERTEX
  5
3D78
  8
0
 10
137.2054726307310943
 20
79.2141989676142373
 30
0.0
  0
VERTEX
  5
3D79
  8
0
 10
137.2276662934903868
 20
79.245702982744973
 30
0.0
  0
VERTEX
  5
3D7A
  8
0
 10
137.2494818672730901
 20
79.2776683776339439
 30
0.0
  0
VERTEX
  5
3D7B
  8
0
 10
137.2602430244263019
 20
79.2938209808030194
 30
0.0
  0
VERTEX
  5
3D7C
  8
0
 10
137.2709038874860141
 20
79.3100851253895769
 30
0.0
  0
VERTEX
  5
3D7D
  8
0
 10
137.2919172491648112
 20
79.3429426495573296
 30
0.0
  0
VERTEX
  5
3D7E
  8
0
 10
137.3125072378400944
 20
79.3762298473796761
 30
0.0
  0
VERTEX
  5
3D7F
  8
0
 10
137.332659560395399
 20
79.4099351175960635
 30
0.0
  0
VERTEX
  5
3D80
  8
0
 10
137.3523603757506066
 20
79.4440463932939736
 30
0.0
  0
VERTEX
  5
3D81
  8
0
 10
137.3715963251968901
 20
79.4785511803968063
 30
0.0
  0
VERTEX
  5
3D82
  8
0
 10
137.3810359394313991
 20
79.4959471296299114
 30
0.0
  0
VERTEX
  5
3D83
  8
0
 10
137.3903545526252969
 20
79.5134365843782405
 30
0.0
  0
VERTEX
  5
3D84
  8
0
 10
137.4086226295216022
 20
79.5486891542297769
 30
0.0
  0
VERTEX
  5
3D85
  8
0
 10
137.4263885008855084
 20
79.5842947307617834
 30
0.0
  0
VERTEX
  5
3D86
  8
0
 10
137.4436405241121122
 20
79.6202384552894671
 30
0.0
  0
VERTEX
  5
3D87
  8
0
 10
137.4603675143376904
 20
79.6565047951922622
 30
0.0
  0
VERTEX
  5
3D88
  8
0
 10
137.4765587891220946
 20
79.6930775746261304
 30
0.0
  0
VERTEX
  5
3D89
  8
0
 10
137.4844503431395992
 20
79.711473657167133
 30
0.0
  0
VERTEX
  5
3D8A
  8
0
 10
137.4922042122288133
 20
79.7299400109268106
 30
0.0
  0
VERTEX
  5
3D8B
  8
0
 10
137.507294236212914
 20
79.767074757281847
 30
0.0
  0
VERTEX
  5
3D8C
  8
0
 10
137.5218199434744974
 20
79.8044639522720161
 30
0.0
  0
VERTEX
  5
3D8D
  8
0
 10
137.5357730853737053
 20
79.8420892769189265
 30
0.0
  0
VERTEX
  5
3D8E
  8
0
 10
137.549146118941195
 20
79.8799320198882867
 30
0.0
  0
VERTEX
  5
3D8F
  8
0
 10
137.5619945594347087
 20
79.9181634362973625
 30
0.0
  0
VERTEX
  5
3D90
  8
0
 10
137.5682583541153008
 20
79.9375483140299536
 30
0.0
  0
VERTEX
  5
3D91
  8
0
 10
137.5744103050122931
 20
79.9571113903652702
 30
0.0
  0
VERTEX
  5
3D92
  8
0
 10
137.5863617337138862
 20
79.996760414560498
 30
0.0
  0
VERTEX
  5
3D93
  8
0
 10
137.5978155483622913
 20
80.0370862767458249
 30
0.0
  0
VERTEX
  5
3D94
  8
0
 10
137.603345718286505
 20
80.0574951205468039
 30
0.0
  0
VERTEX
  5
3D95
  8
0
 10
137.6087394609490957
 20
80.0780635510820531
 30
0.0
  0
VERTEX
  5
3D96
  8
0
 10
137.6191022901346912
 20
80.1196657177624445
 30
0.0
  0
VERTEX
  5
3D97
  8
0
 10
137.6288740522390128
 20
80.1618652833628573
 30
0.0
  0
VERTEX
  5
3D98
  8
0
 10
137.6335292612853891
 20
80.1831802676155974
 30
0.0
  0
VERTEX
  5
3D99
  8
0
 10
137.6380260439862866
 20
80.2046339242253623
 30
0.0
  0
VERTEX
  5
3D9A
  8
0
 10
137.6465309148910023
 20
80.2479426551635271
 30
0.0
  0
VERTEX
  5
3D9B
  8
0
 10
137.6543627266634076
 20
80.2917620249346271
 30
0.0
  0
VERTEX
  5
3D9C
  8
0
 10
137.661496961821797
 20
80.3360621102090846
 30
0.0
  0
VERTEX
  5
3D9D
  8
0
 10
137.6679104387505106
 20
80.3808118024427074
 30
0.0
  0
VERTEX
  5
3D9E
  8
0
 10
137.6735813623562024
 20
80.4259785943587246
 30
0.0
  0
VERTEX
  5
3D9F
  8
0
 10
137.6761319629318905
 20
80.4487079024863476
 30
0.0
  0
VERTEX
  5
3DA0
  8
0
 10
137.6784894372405006
 20
80.4715287480358654
 30
0.0
  0
VERTEX
  5
3DA1
  8
0
 10
137.6826159674193093
 20
80.5174274894154394
 30
0.0
  0
VERTEX
  5
3DA2
  8
0
 10
137.6859439390869966
 20
80.5636392231640173
 30
0.0
  0
VERTEX
  5
3DA3
  8
0
 10
137.6884580840658998
 20
80.6101277691973053
 30
0.0
  0
VERTEX
  5
3DA4
  8
0
 10
137.6901449213401918
 20
80.6568566218341658
 30
0.0
  0
VERTEX
  5
3DA5
  8
0
 10
137.69099277608899
 20
80.7037894791035058
 30
0.0
  0
VERTEX
  5
3DA6
  8
0
 10
137.6910989228861979
 20
80.7273252197927462
 30
0.0
  0
VERTEX
  5
3DA7
  8
0
 10
137.6909916282282893
 20
80.750903559750526
 30
0.0
  0
VERTEX
  5
3DA8
  8
0
 10
137.6901324466120116
 20
80.7981686080243833
 30
0.0
  0
VERTEX
  5
3DA9
  8
0
 10
137.6884079232123099
 20
80.8455454220959098
 30
0.0
  0
VERTEX
  5
3DAA
  8
0
 10
137.687219417245899
 20
80.8692633888632315
 30
0.0
  0
SEQEND
  5
3DAB
  8
0
  0
POLYLINE
  5
2DAB
  8
0
 66
     1
 10
0.0
 20
0.0
 30
0.0
  0
VERTEX
  5
3DAC
  8
0
 10
137.687219417245899
 20
80.8692633888632315
 30
0.0
  0
VERTEX
  5
3DAD
  8
0
 10
137.6859619477311867
 20
80.892221379095389
 30
0.0
  0
VERTEX
  5
3DAE
  8
0
 10
137.6834325664829919
 20
80.938191244818853
 30
0.0
  0
VERTEX
  5
3DAF
  8
0
 10
137.680884593550303
 20
80.9842198961864312
 30
0.0
  0
VERTEX
  5
3DB0
  8
0
 10
137.6796038906865078
 20
81.0072513437904433
 30
0.0
  0
VERTEX
  5
3DB1
  8
0
 10
137.6783188491968986
 20
81.0302915789266791
 30
0.0
  0
VERTEX
  5
3DB2
  8
0
 10
137.675736159555214
 20
81.076390808013997
 30
0.0
  0
VERTEX
  5
3DB3
  8
0
 10
137.673137373041186
 20
81.1225020700578341
 30
0.0
  0
VERTEX
  5
3DB4
  8
0
 10
137.6705233767075924
 20
81.1686095369783231
 30
0.0
  0
VERTEX
  5
3DB5
  8
0
 10
137.6678950910414869
 20
81.2146971663129023
 30
0.0
  0
VERTEX
  5
3DB6
  8
0
 10
137.665253468449805
 20
81.2607487335612575
 30
0.0
  0
VERTEX
  5
3DB7
  8
0
 10
137.6639279617706109
 20
81.2837558819414454
 30
0.0
  0
VERTEX
  5
3DB8
  8
0
 10
137.6625994916610978
 20
81.3067478645780142
 30
0.0
  0
VERTEX
  5
3DB9
  8
0
 10
137.6599341720369125
 20
81.3526780680097943
 30
0.0
  0
VERTEX
  5
3DBA
  8
0
 10
137.6572585477979942
 20
81.3985227677811451
 30
0.0
  0
VERTEX
  5
3DBB
  8
0
 10
137.6545736821582011
 20
81.4442653356472448
 30
0.0
  0
VERTEX
  5
3DBC
  8
0
 10
137.6518806613694892
 20
81.4898891238444349
 30
0.0
  0
VERTEX
  5
3DBD
  8
0
 10
137.6491805926729057
 20
81.5353774978736539
 30
0.0
  0
VERTEX
  5
3DBE
  8
0
 10
137.6478282665852078
 20
81.5580657180301642
 30
0.0
  0
VERTEX
  5
3DBF
  8
0
 10
137.6464746021526082
 20
81.5807138694694629
 30
0.0
  0
VERTEX
  5
3DC0
  8
0
 10
137.6437638324912882
 20
81.6258817298115389
 30
0.0
  0
VERTEX
  5
3DC1
  8
0
 10
137.641049440622794
 20
81.6708646830480518
 30
0.0
  0
VERTEX
  5
3DC2
  8
0
 10
137.6396912511974051
 20
81.6932817350247831
 30
0.0
  0
SEQEND
  5
3DC3
  8
0
  0
POLYLINE
  5
2DAC
  8
0
 66
     1
 10
0.0
 20
0.0
 30
0.0
  0
VERTEX
  5
3DC4
  8
0
 10
129.3656811848831012
 20
81.6932817350247831
 30
0.0
  0
VERTEX
  5
3DC5
  8
0
 10
129.3793233882798859
 20
81.6647896193152008
 30
0.0
  0
VERTEX
  5
3DC6
  8
0
 10
129.4070927305112093
 20
81.6079247004505248
 30
0.0
  0
VERTEX
  5
3DC7
  8
0
 10
129.4355054454796061
 20
81.5512332470196668
 30
0.0
  0
VERTEX
  5
3DC8
  8
0
 10
129.4499517345896891
 20
81.5229579642388842
 30
0.0
  0
VERTEX
  5
3DC9
  8
0
 10
129.4645571991050872
 20
81.4947325165691865
 30
0.0
  0
VERTEX
  5
3DCA
  8
0
 10
129.4942431188235901
 20
81.4384397134431026
 30
0.0
  0
VERTEX
  5
3DCB
  8
0
 10
129.5245578128740931
 20
81.3823719332259259
 30
0.0
  0
VERTEX
  5
3DCC
  8
0
 10
129.5554953917219905
 20
81.3265461100824751
 30
0.0
  0
VERTEX
  5
3DCD
  8
0
 10
129.5870494913791049
 20
81.2709789671883556
 30
0.0
  0
VERTEX
  5
3DCE
  8
0
 10
129.6192132984008936
 20
81.2156869703919426
 30
0.0
  0
VERTEX
  5
3DCF
  8
0
 10
129.6355215965589878
 20
81.1881492163382461
 30
0.0
  0
VERTEX
  5
3DD0
  8
0
 10
129.651979576346406
 20
81.1606862851899251
 30
0.0
  0
VERTEX
  5
3DD1
  8
0
 10
129.6853406935007058
 20
81.1059927370560843
 30
0.0
  0
VERTEX
  5
3DD2
  8
0
 10
129.7192886516764929
 20
81.0516217751157626
 30
0.0
  0
VERTEX
  5
3DD3
  8
0
 10
129.753815115926102
 20
80.997588439128279
 30
0.0
  0
VERTEX
  5
3DD4
  8
0
 10
129.788911445009802
 20
80.9439073297081251
 30
0.0
  0
VERTEX
  5
3DD5
  8
0
 10
129.8245687224861058
 20
80.8905925816895746
 30
0.0
  0
VERTEX
  5
3DD6
  8
0
 10
129.8426048629476952
 20
80.8640768771849423
 30
0.0
  0
VERTEX
  5
3DD7
  8
0
 10
129.8607777837056005
 20
80.8376578471669234
 30
0.0
  0
VERTEX
  5
3DD8
  8
0
 10
129.8975291433274037
 20
80.7851164217755411
 30
0.0
  0
VERTEX
  5
3DD9
  8
0
 10
129.9348128614745974
 20
80.7329814397507732
 30
0.0
  0
VERTEX
  5
3DDA
  8
0
 10
129.953651123693902
 20
80.7070704235724037
 30
0.0
  0
VERTEX
  5
3DDB
  8
0
 10
129.9726185430050975
 20
80.6812658634050592
 30
0.0
  0
VERTEX
  5
3DDC
  8
0
 10
130.01093535970179
 20
80.6299824425852592
 30
0.0
  0
VERTEX
  5
3DDD
  8
0
 10
130.0497520729973928
 20
80.5791436776155336
 30
0.0
  0
VERTEX
  5
3DDE
  8
0
 10
130.0693442723105022
 20
80.5538948708190929
 30
0.0
  0
VERTEX
  5
3DDF
  8
0
 10
130.0890570571579019
 20
80.5287617855204445
 30
0.0
  0
VERTEX
  5
3DE0
  8
0
 10
130.1288383227893917
 20
80.4788486694169052
 30
0.0
  0
VERTEX
  5
3DE1
  8
0
 10
130.1690835405547944
 20
80.4294158909412715
 30
0.0
  0
VERTEX
  5
3DE2
  8
0
 10
130.2097800650072941
 20
80.3804746455616339
 30
0.0
  0
VERTEX
  5
3DE3
  8
0
 10
130.2509149584641932
 20
80.332035740614927
 30
0.0
  0
VERTEX
  5
3DE4
  8
0
 10
130.2924750148700923
 20
80.2841095759019652
 30
0.0
  0
VERTEX
  5
3DE5
  8
0
 10
130.3134102847631084
 20
80.2603419054007361
 30
0.0
  0
VERTEX
  5
3DE6
  8
0
 10
130.3344467836016918
 20
80.2367061266682811
 30
0.0
  0
VERTEX
  5
3DE7
  8
0
 10
130.3768165931965939
 20
80.1898349288008632
 30
0.0
  0
VERTEX
  5
3DE8
  8
0
 10
130.419570574990189
 20
80.1435050660705741
 30
0.0
  0
VERTEX
  5
3DE9
  8
0
 10
130.4626971817826018
 20
80.0977225375082469
 30
0.0
  0
VERTEX
  5
3DEA
  8
0
 10
130.5061864708769122
 20
80.0524912758949938
 30
0.0
  0
VERTEX
  5
3DEB
  8
0
 10
130.550024173225097
 20
80.0078193161435536
 30
0.0
  0
VERTEX
  5
3DEC
  8
0
 10
130.5720691050233881
 20
79.9856955347325709
 30
0.0
  0
VERTEX
  5
3DED
  8
0
 10
130.5941956093105034
 20
79.9637144957021917
 30
0.0
  0
VERTEX
  5
3DEE
  8
0
 10
130.6386857727173947
 20
79.9201843618776309
 30
0.0
  0
VERTEX
  5
3DEF
  8
0
 10
130.6834793499486977
 20
79.8772361498648422
 30
0.0
  0
VERTEX
  5
3DF0
  8
0
 10
130.8424186442219934
 20
79.7315965225515839
 30
0.0
  0
VERTEX
  5
3DF1
  8
0
 10
131.1210706835852875
 20
79.4994215414327243
 30
0.0
  0
VERTEX
  5
3DF2
  8
0
 10
131.4043339796251928
 20
79.2900840750923805
 30
0.0
  0
VERTEX
  5
3DF3
  8
0
 10
131.5464672084175106
 20
79.194136706076705
 30
0.0
  0
VERTEX
  5
3DF4
  8
0
 10
131.6882453002621105
 20
79.1040315658075031
 30
0.0
  0
VERTEX
  5
3DF5
  8
0
 10
131.9711767010664119
 20
78.9398426692117425
 30
0.0
  0
VERTEX
  5
3DF6
  8
0
 10
132.2590711955365919
 20
78.7925719835799043
 30
0.0
  0
VERTEX
  5
3DF7
  8
0
 10
132.5493336498819872
 20
78.6627374596947391
 30
0.0
  0
VERTEX
  5
3DF8
  8
0
 10
132.8382746980990987
 20
78.5508423144617325
 30
0.0
  0
VERTEX
  5
3DF9
  8
0
 10
133.1220846559133975
 20
78.4568249676053426
 30
0.0
  0
VERTEX
  5
3DFA
  8
0
 10
133.2608275454344096
 20
78.4163614869333685
 30
0.0
  0
VERTEX
  5
3DFB
  8
0
 10
133.3967839451840121
 20
78.3801147595454211
 30
0.0
  0
VERTEX
  5
3DFC
  8
0
 10
133.6593764330465035
 20
78.3194227567363157
 30
0.0
  0
VERTEX
  5
3DFD
  8
0
 10
133.9094677235194979
 20
78.2727579457519766
 30
0.0
  0
VERTEX
  5
3DFE
  8
0
 10
134.028306701357991
 20
78.2543158368334559
 30
0.0
  0
SEQEND
  5
3DFF
  8
0
  0
POLYLINE
  5
2DAD
  8
0
 66
     1
 10
0.0
 20
0.0
 30
0.0
  0
VERTEX
  5
3E00
  8
0
 10
134.028306701357991
 20
78.2543158368334559
 30
0.0
  0
VERTEX
  5
3E01
  8
0
 10
134.051275915209402
 20
78.2509813660577436
 30
0.0
  0
VERTEX
  5
3E02
  8
0
 10
134.0952938162164116
 20
78.2445912298752262
 30
0.0
  0
VERTEX
  5
3E03
  8
0
 10
134.1367470837224971
 20
78.2385734048878874
 30
0.0
  0
VERTEX
  5
3E04
  8
0
 10
134.156510570590001
 20
78.2357043136856447
 30
0.0
  0
VERTEX
  5
3E05
  8
0
 10
134.1756312425465012
 20
78.232928540763595
 30
0.0
  0
VERTEX
  5
3E06
  8
0
 10
134.2119420948602908
 20
78.2276572469063183
 30
0.0
  0
VERTEX
  5
3E07
  8
0
 10
134.2456757206441864
 20
78.2227600923906436
 30
0.0
  0
VERTEX
  5
3E08
  8
0
 10
134.2768284781080865
 20
78.2182376058999154
 30
0.0
  0
VERTEX
  5
3E09
  8
0
 10
134.3053970040851937
 20
78.2140902756694629
 30
0.0
  0
VERTEX
  5
3E0A
  8
0
 10
134.3313782143958122
 20
78.2103185494336941
 30
0.0
  0
VERTEX
  5
3E0B
  8
0
 10
134.3433976887380084
 20
78.2085736666444689
 30
0.0
  0
VERTEX
  5
3E0C
  8
0
 10
134.3547693041797118
 20
78.2069228343779912
 30
0.0
  0
VERTEX
  5
3E0D
  8
0
 10
134.3755677481983923
 20
78.20390349709416
 30
0.0
  0
VERTEX
  5
3E0E
  8
0
 10
134.3937713011090125
 20
78.2012608635419326
 30
0.0
  0
VERTEX
  5
3E0F
  8
0
 10
134.4093779977056897
 20
78.1989952190125166
 30
0.0
  0
VERTEX
  5
3E10
  8
0
 10
134.4223861531320949
 20
78.1971068080988232
 30
0.0
  0
VERTEX
  5
3E11
  8
0
 10
134.4327943630636071
 20
78.1955958346686373
 30
0.0
  0
VERTEX
  5
3E12
  8
0
 10
134.4370231263629876
 20
78.1949819395771044
 30
0.0
  0
VERTEX
  5
3E13
  8
0
 10
134.4376646911183002
 20
78.1948888027835238
 30
0.0
  0
VERTEX
  5
3E14
  8
0
 10
134.4388936197836983
 20
78.1947103976040978
 30
0.0
  0
VERTEX
  5
3E15
  8
0
 10
134.4400502776055077
 20
78.1945424840773455
 30
0.0
  0
VERTEX
  5
3E16
  8
0
 10
134.4406015038580904
 20
78.1944624618423347
 30
0.0
  0
VERTEX
  5
3E17
  8
0
 10
134.4411346611157967
 20
78.1943850627068002
 30
0.0
  0
VERTEX
  5
3E18
  8
0
 10
134.44214676706261
 20
78.1942381339646033
 30
0.0
  0
VERTEX
  5
3E19
  8
0
 10
134.4430865924103955
 20
78.1941016982912913
 30
0.0
  0
VERTEX
  5
3E1A
  8
0
 10
134.4439541343411975
 20
78.1939757560961368
 30
0.0
  0
VERTEX
  5
3E1B
  8
0
 10
134.4447493902528947
 20
78.1938603077566938
 30
0.0
  0
VERTEX
  5
3E1C
  8
0
 10
134.4454723577611048
 20
78.1937553536191245
 30
0.0
  0
VERTEX
  5
3E1D
  8
0
 10
134.445806732677994
 20
78.1937068119758152
 30
0.0
  0
VERTEX
  5
3E1E
  8
0
 10
134.4461230346977061
 20
78.1936608939983842
 30
0.0
  0
VERTEX
  5
3E1F
  8
0
 10
134.4467014191112071
 20
78.1935769291776239
 30
0.0
  0
VERTEX
  5
3E20
  8
0
 10
134.4472075092675141
 20
78.1935034594086744
 30
0.0
  0
VERTEX
  5
3E21
  8
0
 10
134.4476413036483109
 20
78.1934404849118607
 30
0.0
  0
VERTEX
  5
3E22
  8
0
 10
134.4480028009533044
 20
78.193388005875903
 30
0.0
  0
VERTEX
  5
3E23
  8
0
 10
134.4482920000980926
 20
78.1933460224582575
 30
0.0
  0
VERTEX
  5
3E24
  8
0
 10
134.4484094875809888
 20
78.1933289666469307
 30
0.0
  0
VERTEX
  5
3E25
  8
0
 10
134.448508900215586
 20
78.1933145347848892
 30
0.0
  0
VERTEX
  5
3E26
  8
0
 10
134.4486535006552117
 20
78.193293542950272
 30
0.0
  0
VERTEX
  5
3E27
  8
0
 10
134.4487258009835955
 20
78.1932830470171609
 30
0.0
  0
VERTEX
  5
3E28
  8
0
 10
134.4487348385297025
 20
78.1932817350247831
 30
0.0
  0
SEQEND
  5
3E29
  8
0
  0
POLYLINE
  5
2DAE
  8
0
 66
     1
 10
0.0
 20
0.0
 30
0.0
  0
VERTEX
  5
3E2A
  8
0
 10
137.6396912511974051
 20
81.6932817350247831
 30
0.0
  0
VERTEX
  5
3E2B
  8
0
 10
137.4548865909308972
 20
84.3246087935878847
 30
0.0
  0
VERTEX
  5
3E2C
  8
0
 10
136.9351246238875888
 20
89.5743195470650733
 30
0.0
  0
VERTEX
  5
3E2D
  8
0
 10
136.2158177642230044
 20
94.8004283422585274
 30
0.0
  0
VERTEX
  5
3E2E
  8
0
 10
135.7816498454398015
 20
97.4022609790516469
 30
0.0
  0
SEQEND
  5
3E2F
  8
0
  0
LINE
  5
2DAF
  8
0
 10
125.8240575042101028
 20
100.4428579147053995
 30
0.0
 11
125.8240575042101028
 21
95.1466131506524277
 31
0.0
  0
POLYLINE
  5
2DB0
  8
0
 66
     1
 10
0.0
 20
0.0
 30
0.0
  0
VERTEX
  5
3E30
  8
0
 10
125.8240575042101028
 20
95.1466131506524277
 30
0.0
  0
VERTEX
  5
3E31
  8
0
 10
125.8243230138951958
 20
95.0772903203316844
 30
0.0
  0
VERTEX
  5
3E32
  8
0
 10
125.8264469979017974
 20
94.9386609298449855
 30
0.0
  0
VERTEX
  5
3E33
  8
0
 10
125.830694467413295
 20
94.8000803460047052
 30
0.0
  0
VERTEX
  5
3E34
  8
0
 10
125.8336142171689005
 20
94.7308185213070857
 30
0.0
  0
VERTEX
  5
3E35
  8
0
 10
125.837064425543204
 20
94.6615810938472748
 30
0.0
  0
VERTEX
  5
3E36
  8
0
 10
125.8455553772546978
 20
94.5231956793203096
 30
0.0
  0
VERTEX
  5
3E37
  8
0
 10
125.8561653297105067
 20
94.3849565816537677
 30
0.0
  0
VERTEX
  5
3E38
  8
0
 10
125.8688917927413939
 20
94.2468962457369059
 30
0.0
  0
VERTEX
  5
3E39
  8
0
 10
125.8837317794310025
 20
94.1090470745031951
 30
0.0
  0
VERTEX
  5
3E3A
  8
0
 10
125.900681806815399
 20
93.971441421325693
 30
0.0
  0
VERTEX
  5
3E3B
  8
0
 10
125.909946861903407
 20
93.9027400090162558
 30
0.0
  0
VERTEX
  5
3E3C
  8
0
 10
125.9197378967025003
 20
93.834111582423219
 30
0.0
  0
VERTEX
  5
3E3D
  8
0
 10
125.940895576603495
 20
93.6970897892807244
 30
0.0
  0
VERTEX
  5
3E3E
  8
0
 10
125.9641498807851008
 20
93.5604082010847549
 30
0.0
  0
VERTEX
  5
3E3F
  8
0
 10
125.9894953514324953
 20
93.4240988971747157
 30
0.0
  0
VERTEX
  5
3E40
  8
0
 10
126.0169260399324003
 20
93.2881938695150836
 30
0.0
  0
VERTEX
  5
3E41
  8
0
 10
126.0464355082678054
 20
93.1527250151856236
 30
0.0
  0
VERTEX
  5
3E42
  8
0
 10
126.0619676395416064
 20
93.085164093069551
 30
0.0
  0
VERTEX
  5
3E43
  8
0
 10
126.0780168305294069
 20
93.0177241288961056
 30
0.0
  0
VERTEX
  5
3E44
  8
0
 10
126.1116625945414
 20
92.8832228955232893
 30
0.0
  0
VERTEX
  5
3E45
  8
0
 10
126.1473649036012006
 20
92.7492528826749947
 30
0.0
  0
VERTEX
  5
3E46
  8
0
 10
126.1659846627700006
 20
92.6824769149352221
 30
0.0
  0
SEQEND
  5
3E47
  8
0
  0
LINE
  5
2DB1
  8
0
 10
126.1659846627700006
 20
92.6824769149352221
 30
0.0
 11
129.0023934489435078
 21
82.6588207712195242
 31
0.0
  0
POLYLINE
  5
2DB2
  8
0
 66
     1
 10
0.0
 20
0.0
 30
0.0
  0
VERTEX
  5
3E48
  8
0
 10
129.0023934489435078
 20
82.6588207712195242
 30
0.0
  0
VERTEX
  5
3E49
  8
0
 10
129.051579309743687
 20
82.4938633828432728
 30
0.0
  0
VERTEX
  5
3E4A
  8
0
 10
129.1637230905865863
 20
82.1684079481774035
 30
0.0
  0
VERTEX
  5
3E4B
  8
0
 10
129.2939298767155947
 20
81.8497487879746757
 30
0.0
  0
VERTEX
  5
3E4C
  8
0
 10
129.3656811848831012
 20
81.6932817350247831
 30
0.0
  0
SEQEND
  5
3E4D
  8
0
  0
POLYLINE
  5
2DB3
  8
0
 66
     1
 10
0.0
 20
0.0
 30
0.0
  0
VERTEX
  5
3E4E
  8
0
 10
135.7816498454398015
 20
97.4022609790516469
 30
0.0
  0
VERTEX
  5
3E4F
  8
0
 10
135.7519686784189901
 20
97.5696608474980565
 30
0.0
  0
VERTEX
  5
3E50
  8
0
 10
135.6918285873240109
 20
97.9052450112245509
 30
0.0
  0
VERTEX
  5
3E51
  8
0
 10
135.6299515501611097
 20
98.2456574182758402
 30
0.0
  0
VERTEX
  5
3E52
  8
0
 10
135.5985365314687101
 20
98.416660535116165
 30
0.0
  0
SEQEND
  5
3E53
  8
0
  0
POLYLINE
  5
2DB4
  8
0
 66
     1
 10
0.0
 20
0.0
 30
0.0
  0
VERTEX
  5
3E54
  8
0
 10
131.8326268054854893
 20
113.8304959087376034
 30
0.0
  0
VERTEX
  5
3E55
  8
0
 10
131.8220748583563022
 20
113.8649649356191986
 30
0.0
  0
VERTEX
  5
3E56
  8
0
 10
131.8007615867061872
 20
113.9344893976110029
 30
0.0
  0
VERTEX
  5
3E57
  8
0
 10
131.7791726879960095
 20
114.0047805032523058
 30
0.0
  0
VERTEX
  5
3E58
  8
0
 10
131.7682762613673049
 20
114.0402076782068974
 30
0.0
  0
VERTEX
  5
3E59
  8
0
 10
131.7573126156624994
 20
114.0758193908024936
 30
0.0
  0
VERTEX
  5
3E5A
  8
0
 10
131.7351860464038111
 20
114.1475865686033018
 30
0.0
  0
VERTEX
  5
3E5B
  8
0
 10
131.7127978711419871
 20
114.2200619541931985
 30
0.0
  0
VERTEX
  5
3E5C
  8
0
 10
131.6901531855411065
 20
114.2932249144981967
 30
0.0
  0
VERTEX
  5
3E5D
  8
0
 10
131.6672572800626995
 20
114.3670543071085035
 30
0.0
  0
VERTEX
  5
3E5E
  8
0
 10
131.6441156295431085
 20
114.4415285226599934
 30
0.0
  0
VERTEX
  5
3E5F
  8
0
 10
131.6324544085163097
 20
114.4790005691134951
 30
0.0
  0
VERTEX
  5
3E60
  8
0
 10
131.6207338822692918
 20
114.5166255283444059
 30
0.0
  0
VERTEX
  5
3E61
  8
0
 10
131.5971178485343103
 20
114.5923229125781972
 30
0.0
  0
VERTEX
  5
3E62
  8
0
 10
131.5732734886452135
 20
114.6685979308651042
 30
0.0
  0
VERTEX
  5
3E63
  8
0
 10
131.5492069003597067
 20
114.7454275528922949
 30
0.0
  0
VERTEX
  5
3E64
  8
0
 10
131.5249243057280921
 20
114.822788510903294
 30
0.0
  0
VERTEX
  5
3E65
  8
0
 10
131.5004320373076041
 20
114.9006573493948054
 30
0.0
  0
VERTEX
  5
3E66
  8
0
 10
131.488109281028386
 20
114.9397748551781007
 30
0.0
  0
VERTEX
  5
3E67
  8
0
 10
131.4757362778497054
 20
114.9790112554880039
 30
0.0
  0
VERTEX
  5
3E68
  8
0
 10
131.4508402702263936
 20
115.057836880264901
 30
0.0
  0
VERTEX
  5
3E69
  8
0
 10
131.4257496032911092
 20
115.1371135593219037
 30
0.0
  0
VERTEX
  5
3E6A
  8
0
 10
131.4131333925801073
 20
115.1769134505078966
 30
0.0
  0
VERTEX
  5
3E6B
  8
0
 10
131.400471087881499
 20
115.216816931313204
 30
0.0
  0
VERTEX
  5
3E6C
  8
0
 10
131.3750117463735876
 20
115.2969221552702948
 30
0.0
  0
VERTEX
  5
3E6D
  8
0
 10
131.3493788018795954
 20
115.3774039524140989
 30
0.0
  0
VERTEX
  5
3E6E
  8
0
 10
131.3364995378906883
 20
115.4177780569896044
 30
0.0
  0
VERTEX
  5
3E6F
  8
0
 10
131.3235796671106925
 20
115.4582366484167011
 30
0.0
  0
VERTEX
  5
3E70
  8
0
 10
131.2976219328905927
 20
115.539394216126496
 30
0.0
  0
VERTEX
  5
3E71
  8
0
 10
131.2715133563085885
 20
115.6208503187715024
 30
0.0
  0
VERTEX
  5
3E72
  8
0
 10
131.2452618484931861
 20
115.7025783536748946
 30
0.0
  0
VERTEX
  5
3E73
  8
0
 10
131.218875461985391
 20
115.7845514965203932
 30
0.0
  0
VERTEX
  5
3E74
  8
0
 10
131.1923623776893919
 20
115.8667427462204955
 30
0.0
  0
VERTEX
  5
3E75
  8
0
 10
131.1790609121896125
 20
115.9079116861548044
 30
0.0
  0
VERTEX
  5
3E76
  8
0
 10
131.1657308913711972
 20
115.9491249704449984
 30
0.0
  0
VERTEX
  5
3E77
  8
0
 10
131.1389893996808098
 20
116.0316709518814946
 30
0.0
  0
VERTEX
  5
3E78
  8
0
 10
131.1121463856619016
 20
116.114353435303002
 30
0.0
  0
VERTEX
  5
3E79
  8
0
 10
131.085210404114207
 20
116.1971451743071952
 30
0.0
  0
VERTEX
  5
3E7A
  8
0
 10
131.0581900998903109
 20
116.280018876371301
 30
0.0
  0
VERTEX
  5
3E7B
  8
0
 10
131.0310942996559902
 20
116.3629469238205019
 30
0.0
  0
VERTEX
  5
3E7C
  8
0
 10
131.0175209032566954
 20
116.4044225883114052
 30
0.0
  0
VERTEX
  5
3E7D
  8
0
 10
131.0039320350456933
 20
116.4459013074800993
 30
0.0
  0
VERTEX
  5
3E7E
  8
0
 10
130.9767125298720885
 20
116.5288536704193945
 30
0.0
  0
VERTEX
  5
3E7F
  8
0
 10
130.9494451866420093
 20
116.6117753530537016
 30
0.0
  0
VERTEX
  5
3E80
  8
0
 10
130.8537722185496079
 20
116.9013403364941013
 30
0.0
  0
VERTEX
  5
3E81
  8
0
 10
130.6898971981040916
 20
117.392425518618893
 30
0.0
  0
VERTEX
  5
3E82
  8
0
 10
130.5227628960043091
 20
117.8870857214216983
 30
0.0
  0
VERTEX
  5
3E83
  8
0
 10
130.436775606096802
 20
118.1392096659107978
 30
0.0
  0
VERTEX
  5
3E84
  8
0
 10
130.3494646392138065
 20
118.3936044396088931
 30
0.0
  0
VERTEX
  5
3E85
  8
0
 10
130.2462263072756059
 20
118.6923497151956042
 30
0.0
  0
VERTEX
  5
3E86
  8
0
 10
130.2165041590139083
 20
118.7779506698547038
 30
0.0
  0
VERTEX
  5
3E87
  8
0
 10
130.1866970876876906
 20
118.8636152013404939
 30
0.0
  0
VERTEX
  5
3E88
  8
0
 10
130.1717643582649941
 20
118.906463537591506
 30
0.0
  0
VERTEX
  5
3E89
  8
0
 10
130.156813593739713
 20
118.9493184324663986
 30
0.0
  0
VERTEX
  5
3E8A
  8
0
 10
130.1268622758437914
 20
119.035035413361399
 30
0.0
  0
VERTEX
  5
3E8B
  8
0
 10
130.0968518171173969
 20
119.1207411620855936
 30
0.0
  0
VERTEX
  5
3E8C
  8
0
 10
130.0667909713502866
 20
119.2064107045365944
 30
0.0
  0
VERTEX
  5
3E8D
  8
0
 10
130.0366885492250049
 20
119.292019113729296
 30
0.0
  0
VERTEX
  5
3E8E
  8
0
 10
130.0065534045043876
 20
119.3775415485234959
 30
0.0
  0
VERTEX
  5
3E8F
  8
0
 10
129.9914763363406962
 20
119.4202627955607028
 30
0.0
  0
VERTEX
  5
3E90
  8
0
 10
129.9763944201654908
 20
119.4629532918772981
 30
0.0
  0
VERTEX
  5
3E91
  8
0
 10
129.9462204944539963
 20
119.5482297886926943
 30
0.0
  0
VERTEX
  5
3E92
  8
0
 10
129.9160405268413001
 20
119.6333466833225998
 30
0.0
  0
VERTEX
  5
3E93
  8
0
 10
129.8858634038660114
 20
119.7182798567990005
 30
0.0
  0
VERTEX
  5
3E94
  8
0
 10
129.855697984839793
 20
119.8030054638408046
 30
0.0
  0
VERTEX
  5
3E95
  8
0
 10
129.8255530874087924
 20
119.8874999696907935
 30
0.0
  0
VERTEX
  5
3E96
  8
0
 10
129.8104910748226075
 20
119.9296532990032063
 30
0.0
  0
VERTEX
  5
3E97
  8
0
 10
129.7954369604863984
 20
119.9717416188480001
 30
0.0
  0
VERTEX
  5
3E98
  8
0
 10
129.7653547364490123
 20
120.0557175210971934
 30
0.0
  0
VERTEX
  5
3E99
  8
0
 10
129.7353145020449858
 20
120.139406665124497
 30
0.0
  0
VERTEX
  5
3E9A
  8
0
 10
129.7053251055245937
 20
120.2227860900619021
 30
0.0
  0
VERTEX
  5
3E9B
  8
0
 10
129.6753954465739866
 20
120.3058328719993
 30
0.0
  0
VERTEX
  5
3E9C
  8
0
 10
129.645534461073396
 20
120.3885241643218933
 30
0.0
  0
VERTEX
  5
3E9D
  8
0
 10
129.6306325194960891
 20
120.429729393177098
 30
0.0
  0
VERTEX
  5
3E9E
  8
0
 10
129.6157511059462877
 20
120.4708372371859042
 30
0.0
  0
VERTEX
  5
3E9F
  8
0
 10
129.5860543440832089
 20
120.5527495162032068
 30
0.0
  0
VERTEX
  5
3EA0
  8
0
 10
129.5564531293240123
 20
120.6342386204022006
 30
0.0
  0
VERTEX
  5
3EA1
  8
0
 10
129.5269563914754087
 20
120.7152823995299968
 30
0.0
  0
VERTEX
  5
3EA2
  8
0
 10
129.4975730213537872
 20
120.7958589707669006
 30
0.0
  0
VERTEX
  5
3EA3
  8
0
 10
129.4683118558313026
 20
120.8759467549149065
 30
0.0
  0
VERTEX
  5
3EA4
  8
0
 10
129.4537298428838881
 20
120.9158007001537953
 30
0.0
  0
VERTEX
  5
3EA5
  8
0
 10
129.439181662869089
 20
120.9555245121265017
 30
0.0
  0
VERTEX
  5
3EA6
  8
0
 10
129.4101911265258025
 20
121.0345713772343998
 30
0.0
  0
VERTEX
  5
3EA7
  8
0
 10
129.3813488319208886
 20
121.1130668947414932
 30
0.0
  0
VERTEX
  5
3EA8
  8
0
 10
129.366985927354591
 20
121.1521016263674966
 30
0.0
  0
VERTEX
  5
3EA9
  8
0
 10
129.281689718436013
 20
121.3831737133110948
 30
0.0
  0
VERTEX
  5
3EAA
  8
0
 10
129.1163391440823887
 20
121.8275562112026051
 30
0.0
  0
VERTEX
  5
3EAB
  8
0
 10
128.9594293629531023
 20
122.2450060682035939
 30
0.0
  0
VERTEX
  5
3EAC
  8
0
 10
128.8836889774808014
 20
122.4450608649381991
 30
0.0
  0
SEQEND
  5
3EAD
  8
0
  0
LINE
  5
2DB5
  8
0
 10
110.8240575042101028
 20
124.5533043867351068
 30
0.0
 11
110.8240575042101028
 21
111.7032817350247029
 31
0.0
  0
POLYLINE
  5
2DB6
  8
0
 66
     1
 10
0.0
 20
0.0
 30
0.0
  0
VERTEX
  5
3EAE
  8
0
 10
121.3240575042101028
 20
111.7032817350247029
 30
0.0
  0
VERTEX
  5
3EAF
  8
0
 10
121.4366878034475974
 20
111.5027547090140985
 30
0.0
  0
VERTEX
  5
3EB0
  8
0
 10
121.6618384151970957
 20
111.0974593866080937
 30
0.0
  0
VERTEX
  5
3EB1
  8
0
 10
121.8865894875851978
 20
110.6868144254541022
 30
0.0
  0
VERTEX
  5
3EB2
  8
0
 10
121.9987222204377986
 20
110.4796021420018945
 30
0.0
  0
VERTEX
  5
3EB3
  8
0
 10
122.1106448148655943
 20
110.2711924289257013
 30
0.0
  0
VERTEX
  5
3EB4
  8
0
 10
122.3337171265217052
 20
109.8509723974562036
 30
0.0
  0
VERTEX
  5
3EB5
  8
0
 10
122.5555257821395969
 20
109.4265447326833964
 30
0.0
  0
VERTEX
  5
3EB6
  8
0
 10
122.7757977130527962
 20
108.9983103013447021
 30
0.0
  0
VERTEX
  5
3EB7
  8
0
 10
122.9942683689529019
 20
108.566679334088704
 30
0.0
  0
VERTEX
  5
3EB8
  8
0
 10
123.2106826318833015
 20
108.1320702162558973
 30
0.0
  0
VERTEX
  5
3EB9
  8
0
 10
123.3180416909497978
 20
107.9137814964112039
 30
0.0
  0
VERTEX
  5
3EBA
  8
0
 10
123.4247957094979995
 20
107.694908134560194
 30
0.0
  0
VERTEX
  5
3EBB
  8
0
 10
123.6363827025063955
 20
107.255605358858304
 30
0.0
  0
VERTEX
  5
3EBC
  8
0
 10
123.8452363451313971
 20
106.8145646163436027
 30
0.0
  0
VERTEX
  5
3EBD
  8
0
 10
124.051140950373906
 20
106.3722343485787007
 30
0.0
  0
VERTEX
  5
3EBE
  8
0
 10
124.2538898794239941
 20
105.929073796716807
 30
0.0
  0
VERTEX
  5
3EBF
  8
0
 10
124.4532868571270967
 20
105.4855504849692949
 30
0.0
  0
VERTEX
  5
3EC0
  8
0
 10
124.5516700611559031
 20
105.2638007458715066
 30
0.0
  0
VERTEX
  5
3EC1
  8
0
 10
124.6491467756548985
 20
105.0421385278055055
 30
0.0
  0
VERTEX
  5
3EC2
  8
0
 10
124.841296435067207
 20
104.599316829096594
 30
0.0
  0
VERTEX
  5
3EC3
  8
0
 10
125.0295752481522982
 20
104.1575671008071993
 30
0.0
  0
VERTEX
  5
3EC4
  8
0
 10
125.122216023782201
 20
103.9372461776346057
 30
0.0
  0
SEQEND
  5
3EC5
  8
0
  0
POLYLINE
  5
2DB7
  8
0
 66
     1
 10
0.0
 20
0.0
 30
0.0
  0
VERTEX
  5
3EC6
  8
0
 10
110.8240575042101028
 20
124.5533043867351068
 30
0.0
  0
VERTEX
  5
3EC7
  8
0
 10
110.8322438489816051
 20
124.5614907315067938
 30
0.0
  0
VERTEX
  5
3EC8
  8
0
 10
110.8479344347307034
 20
124.5771813172558069
 30
0.0
  0
VERTEX
  5
3EC9
  8
0
 10
110.8627136927961061
 20
124.5919605753209964
 30
0.0
  0
VERTEX
  5
3ECA
  8
0
 10
110.8697609085023998
 20
124.5990077910274039
 30
0.0
  0
VERTEX
  5
3ECB
  8
0
 10
110.8765795100680975
 20
124.605826392593201
 30
0.0
  0
VERTEX
  5
3ECC
  8
0
 10
110.8895299040399038
 20
124.6187767865649931
 30
0.0
  0
VERTEX
  5
3ECD
  8
0
 10
110.9015630230890963
 20
124.6308099056141003
 30
0.0
  0
VERTEX
  5
3ECE
  8
0
 10
110.9126771467441017
 20
124.6419240292692052
 30
0.0
  0
VERTEX
  5
3ECF
  8
0
 10
110.922870685929297
 20
124.652117568454301
 30
0.0
  0
VERTEX
  5
3ED0
  8
0
 10
110.9321421831921981
 20
124.6613890657171027
 30
0.0
  0
VERTEX
  5
3ED1
  8
0
 10
110.9364317466913974
 20
124.6656786292164014
 30
0.0
  0
VERTEX
  5
3ED2
  8
0
 10
110.9404903129124023
 20
124.6697371954374063
 30
0.0
  0
VERTEX
  5
3ED3
  8
0
 10
110.947913881490507
 20
124.6771607640156958
 30
0.0
  0
VERTEX
  5
3ED4
  8
0
 10
110.9544118275197064
 20
124.6836587100445968
 30
0.0
  0
VERTEX
  5
3ED5
  8
0
 10
110.9599832219359001
 20
124.6892301044608047
 30
0.0
  0
VERTEX
  5
3ED6
  8
0
 10
110.9646272681519008
 20
124.6938741506770043
 30
0.0
  0
VERTEX
  5
3ED7
  8
0
 10
110.9683433021718031
 20
124.6975901846966934
 30
0.0
  0
VERTEX
  5
3ED8
  8
0
 10
110.9698531433876951
 20
124.6991000259127986
 30
0.0
  0
VERTEX
  5
3ED9
  8
0
 10
110.9711307926834962
 20
124.7003776752085997
 30
0.0
  0
VERTEX
  5
3EDA
  8
0
 10
110.9729893411375059
 20
124.7022362236625952
 30
0.0
  0
VERTEX
  5
3EDB
  8
0
 10
110.9739186818023029
 20
124.7031655643273069
 30
0.0
  0
VERTEX
  5
3EDC
  8
0
 10
110.9740348524997984
 20
124.7032817350247029
 30
0.0
  0
SEQEND
  5
3EDD
  8
0
  0
POLYLINE
  5
2DB8
  8
0
 66
     1
 10
0.0
 20
0.0
 30
0.0
  0
VERTEX
  5
3EDE
  8
0
 10
128.8836889774808014
 20
122.4450608649381991
 30
0.0
  0
VERTEX
  5
3EDF
  8
0
 10
128.8380652626925098
 20
122.5592033286379063
 30
0.0
  0
VERTEX
  5
3EE0
  8
0
 10
128.7361794211720962
 20
122.7798758686030993
 30
0.0
  0
VERTEX
  5
3EE1
  8
0
 10
128.6211852053037035
 20
122.9896446200158948
 30
0.0
  0
VERTEX
  5
3EE2
  8
0
 10
128.5592075135928951
 20
123.0901660119635039
 30
0.0
  0
VERTEX
  5
3EE3
  8
0
 10
128.494488749399892
 20
123.1876463283702066
 30
0.0
  0
VERTEX
  5
3EE4
  8
0
 10
128.3575907515188135
 20
123.3731537383924035
 30
0.0
  0
VERTEX
  5
3EE5
  8
0
 10
128.2120488504712057
 20
123.5456178720565958
 30
0.0
  0
VERTEX
  5
3EE6
  8
0
 10
128.0594812274576952
 20
123.7046446492417999
 30
0.0
  0
VERTEX
  5
3EE7
  8
0
 10
127.9012941713454978
 20
123.8502248963671946
 30
0.0
  0
VERTEX
  5
3EE8
  8
0
 10
127.7328220197048978
 20
123.9870736927900055
 30
0.0
  0
VERTEX
  5
3EE9
  8
0
 10
127.6441011043889944
 20
124.0525023718392958
 30
0.0
  0
VERTEX
  5
3EEA
  8
0
 10
127.552562406137298
 20
124.1156387858517007
 30
0.0
  0
VERTEX
  5
3EEB
  8
0
 10
127.3615255741033963
 20
124.234288488976901
 30
0.0
  0
VERTEX
  5
3EEC
  8
0
 10
127.1606149259058043
 20
124.3417337898349047
 30
0.0
  0
VERTEX
  5
3EED
  8
0
 10
126.9505170880610052
 20
124.436967037906399
 30
0.0
  0
VERTEX
  5
3EEE
  8
0
 10
126.8239516139978065
 20
124.4865237349269051
 30
0.0
  0
VERTEX
  5
3EEF
  8
0
 10
126.7872812464094068
 20
124.4998350816726003
 30
0.0
  0
VERTEX
  5
3EF0
  8
0
 10
126.750380461885598
 20
124.5127658964196939
 30
0.0
  0
VERTEX
  5
3EF1
  8
0
 10
126.7318424545943003
 20
124.5190880069618942
 30
0.0
  0
VERTEX
  5
3EF2
  8
0
 10
126.7132452985736961
 20
124.5253142585048067
 30
0.0
  0
VERTEX
  5
3EF3
  8
0
 10
126.6758710362130955
 20
124.5374781617632038
 30
0.0
  0
VERTEX
  5
3EF4
  8
0
 10
126.6382521808996984
 20
124.5492554730773946
 30
0.0
  0
VERTEX
  5
3EF5
  8
0
 10
126.6003824604145933
 20
124.5606438865780063
 30
0.0
  0
VERTEX
  5
3EF6
  8
0
 10
126.5622548324443954
 20
124.5716408736063983
 30
0.0
  0
VERTEX
  5
3EF7
  8
0
 10
126.5238615083050036
 20
124.5822436286774035
 30
0.0
  0
VERTEX
  5
3EF8
  8
0
 10
126.5045625820587958
 20
124.5873962027029052
 30
0.0
  0
VERTEX
  5
3EF9
  8
0
 10
126.4851939950499968
 20
124.5924490118534038
 30
0.0
  0
VERTEX
  5
3EFA
  8
0
 10
126.4462431590475973
 20
124.6022534881575012
 30
0.0
  0
VERTEX
  5
3EFB
  8
0
 10
126.4069993142339996
 20
124.6116530649247949
 30
0.0
  0
VERTEX
  5
3EFC
  8
0
 10
126.3872643635238973
 20
124.6161996274935007
 30
0.0
  0
VERTEX
  5
3EFD
  8
0
 10
126.3674523382135959
 20
124.6206432283123036
 30
0.0
  0
VERTEX
  5
3EFE
  8
0
 10
126.3275918191519054
 20
124.6292188805687005
 30
0.0
  0
VERTEX
  5
3EFF
  8
0
 10
126.2874086044972017
 20
124.6373740106621
 30
0.0
  0
VERTEX
  5
3F00
  8
0
 10
126.2671943096500939
 20
124.6412916085465952
 30
0.0
  0
VERTEX
  5
3F01
  8
0
 10
126.246896070737705
 20
124.6451015283819004
 30
0.0
  0
VERTEX
  5
3F02
  8
0
 10
126.2060401656656978
 20
124.652395126267507
 30
0.0
  0
VERTEX
  5
3F03
  8
0
 10
126.1648248498172933
 20
124.6592479423687934
 30
0.0
  0
VERTEX
  5
3F04
  8
0
 10
126.123232821594101
 20
124.6656523166441985
 30
0.0
  0
VERTEX
  5
3F05
  8
0
 10
126.0812457050115967
 20
124.671599670198006
 30
0.0
  0
VERTEX
  5
3F06
  8
0
 10
126.0388443063480963
 20
124.6770803862171988
 30
0.0
  0
VERTEX
  5
3F07
  8
0
 10
126.0174821085309986
 20
124.6796424383516069
 30
0.0
  0
VERTEX
  5
3F08
  8
0
 10
125.9960089405055044
 20
124.6820836982798966
 30
0.0
  0
VERTEX
  5
3F09
  8
0
 10
125.9527198168097044
 20
124.6865975930975026
 30
0.0
  0
VERTEX
  5
3F0A
  8
0
 10
125.9089569842686984
 20
124.6906087757806034
 30
0.0
  0
VERTEX
  5
3F0B
  8
0
 10
125.8646992282995996
 20
124.6941027028195066
 30
0.0
  0
VERTEX
  5
3F0C
  8
0
 10
125.8199238884968025
 20
124.6970634702891942
 30
0.0
  0
VERTEX
  5
3F0D
  8
0
 10
125.7746072104155957
 20
124.699473655930106
 30
0.0
  0
VERTEX
  5
3F0E
  8
0
 10
125.7517382533250014
 20
124.700466385687406
 30
0.0
  0
VERTEX
  5
3F0F
  8
0
 10
125.728724782439798
 20
124.7013141778812013
 30
0.0
  0
VERTEX
  5
3F10
  8
0
 10
125.6822520292467971
 20
124.7025641786210031
 30
0.0
  0
VERTEX
  5
3F11
  8
0
 10
125.6351647297389036
 20
124.703200940169495
 30
0.0
  0
VERTEX
  5
3F12
  8
0
 10
125.6113832777466968
 20
124.7032817350247029
 30
0.0
  0
SEQEND
  5
3F13
  8
0
  0
POLYLINE
  5
2DB9
  8
0
 66
     1
 10
0.0
 20
0.0
 30
0.0
  0
VERTEX
  5
3F14
  8
0
 10
128.864916391601696
 20
122.4934453979178954
 30
0.0
  0
VERTEX
  5
3F15
  8
0
 10
128.8576196475802078
 20
122.5116965894077055
 30
0.0
  0
VERTEX
  5
3F16
  8
0
 10
128.8469006472836043
 20
122.537982956806502
 30
0.0
  0
VERTEX
  5
3F17
  8
0
 10
128.8415392938183004
 20
122.5509063533207978
 30
0.0
  0
VERTEX
  5
3F18
  8
0
 10
128.8408757738314989
 20
122.5524956608838067
 30
0.0
  0
SEQEND
  5
3F19
  8
0
  0
POLYLINE
  5
2DBA
  8
0
 66
     1
 10
0.0
 20
0.0
 30
0.0
  0
VERTEX
  5
3F1A
  8
0
 10
131.913498610201799
 20
113.5652481436923011
 30
0.0
  0
VERTEX
  5
3F1B
  8
0
 10
131.9130401948119982
 20
113.566757062111094
 30
0.0
  0
VERTEX
  5
3F1C
  8
0
 10
131.9093124117374032
 20
113.5790251263508992
 30
0.0
  0
VERTEX
  5
3F1D
  8
0
 10
131.9017274617714008
 20
113.6039744591140987
 30
0.0
  0
VERTEX
  5
3F1E
  8
0
 10
131.8964587898666139
 20
113.6212948832448006
 30
0.0
  0
VERTEX
  5
3F1F
  8
0
 10
131.8901958479492009
 20
113.6418733363508977
 30
0.0
  0
VERTEX
  5
3F20
  8
0
 10
131.8746724682058016
 20
113.6928298705292946
 30
0.0
  0
VERTEX
  5
3F21
  8
0
 10
131.8551541463338026
 20
113.7568005200070047
 30
0.0
  0
VERTEX
  5
3F22
  8
0
 10
131.8316815646875
 20
113.8335849430655031
 30
0.0
  0
VERTEX
  5
3F23
  8
0
 10
131.8043377523551101
 20
113.922832939330803
 30
0.0
  0
VERTEX
  5
3F24
  8
0
 10
131.7732272987595081
 20
114.0241147239569983
 30
0.0
  0
VERTEX
  5
3F25
  8
0
 10
131.7563003775952097
 20
114.0791055883537979
 30
0.0
  0
VERTEX
  5
3F26
  8
0
 10
131.73848860041889
 20
114.1368835569230953
 30
0.0
  0
VERTEX
  5
3F27
  8
0
 10
131.7003153622218861
 20
114.2604095425512014
 30
0.0
  0
VERTEX
  5
3F28
  8
0
 10
131.6589415638725882
 20
114.3938328957947022
 30
0.0
  0
VERTEX
  5
3F29
  8
0
 10
131.6146374883691124
 20
114.5361811378755021
 30
0.0
  0
VERTEX
  5
3F2A
  8
0
 10
131.5677165606838059
 20
114.6863516484679053
 30
0.0
  0
VERTEX
  5
3F2B
  8
0
 10
131.5185377189608005
 20
114.8431089964450962
 30
0.0
  0
VERTEX
  5
3F2C
  8
0
 10
131.4932227494103927
 20
114.9235475055464946
 30
0.0
  0
VERTEX
  5
3F2D
  8
0
 10
131.4672238218003031
 20
115.0059817907387014
 30
0.0
  0
VERTEX
  5
3F2E
  8
0
 10
131.4127037952067099
 20
115.1782679524437043
 30
0.0
  0
VERTEX
  5
3F2F
  8
0
 10
131.3549505163396987
 20
115.3599244269124995
 30
0.0
  0
VERTEX
  5
3F30
  8
0
 10
131.3249173470138089
 20
115.4540496882914056
 30
0.0
  0
SEQEND
  5
3F31
  8
0
  0
LINE
  5
2DBB
  8
0
 10
106.8240575042101028
 20
113.493281735024695
 30
0.0
 11
106.8240575042101028
 21
122.8932817350248001
 31
0.0
  0
LINE
  5
2DBC
  8
0
 10
131.3240575042100886
 20
115.4563468487806972
 30
0.0
 11
131.3240575042100886
 21
122.493281735024695
 31
0.0
  0
LINE
  5
2DBD
  8
0
 10
107.1240575042101
 20
113.1932817350246978
 30
0.0
 11
107.1240575042101
 21
123.1932817350246978
 31
0.0
  0
LINE
  5
2DBE
  8
1
 10
79.0240575042101909
 20
211.6932817350248115
 30
0.0
 11
79.0240575042101909
 21
192.6932817350246978
 31
0.0
  0
LINE
  5
2DBF
  8
1
 10
89.5240575042102051
 20
212.3932817350248001
 30
0.0
 11
89.5240575042102051
 21
191.9932817350247944
 31
0.0
  0
LINE
  5
2DC0
  8
1
 10
100.0240575042102051
 20
211.6932817350248115
 30
0.0
 11
100.0240575042102051
 21
192.6932817350246978
 31
0.0
  0
LINE
  5
2DC1
  8
0
 10
137.6910989232262068
 20
198.8292295971860995
 30
0.0
 11
137.6910989232262068
 21
205.5573338728636941
 31
0.0
  0
LINE
  5
2DC2
  8
0
 10
135.7488423811927873
 20
206.2782170570073959
 30
0.0
 11
133.2778282316700995
 21
206.2782170570073959
 31
0.0
  0
LINE
  5
2DC3
  8
0
 10
121.3240575042101028
 20
195.1932817350248968
 30
0.0
 11
130.4182637065516133
 21
195.1932817350248968
 31
0.0
  0
LINE
  5
2DC4
  8
0
 10
130.4182637065516133
 20
209.1932817350248968
 30
0.0
 11
121.3240575042101028
 21
209.1932817350248968
 31
0.0
  0
LINE
  5
2DC5
  8
0
 10
133.2778282316702132
 20
198.1083464130423977
 30
0.0
 11
135.7488423811927873
 21
198.1083464130423977
 31
0.0
  0
LINE
  5
2DC6
  8
0
 10
121.3240575042101028
 20
208.6932817350248968
 30
0.0
 11
110.8240575042101028
 21
208.6932817350248968
 31
0.0
  0
LINE
  5
2DC7
  8
0
 10
110.8240575042101028
 20
195.6932817350248968
 30
0.0
 11
121.3240575042101028
 21
195.6932817350248968
 31
0.0
  0
LINE
  5
2DC8
  8
0
 10
106.8240575042101028
 20
197.4932817350249081
 30
0.0
 11
107.1240575042101995
 21
197.1932817350248968
 31
0.0
  0
LINE
  5
2DC9
  8
0
 10
107.1240575042101995
 20
207.1932817350248968
 30
0.0
 11
106.8240575042101028
 21
206.8932817350249991
 31
0.0
  0
LINE
  5
2DCA
  8
0
 10
130.0069485350720129
 20
197.8932817350249991
 30
0.0
 11
131.3240575042100886
 21
197.8932817350249991
 31
0.0
  0
LINE
  5
2DCB
  8
0
 10
131.3240575042100886
 20
206.4932817350249081
 30
0.0
 11
130.0069468897727063
 21
206.4932817350249081
 31
0.0
  0
LINE
  5
2DCC
  8
0
 10
107.1240575042101995
 20
197.1932817350248968
 30
0.0
 11
110.8240575042101028
 21
197.1932817350248968
 31
0.0
  0
LINE
  5
2DCD
  8
0
 10
110.8240575042101028
 20
207.1932817350248968
 30
0.0
 11
107.1240575042101995
 21
207.1932817350248968
 31
0.0
  0
POLYLINE
  5
2DCE
  8
0
 66
     1
 10
0.0
 20
0.0
 30
0.0
  0
VERTEX
  5
3F32
  8
0
 10
135.5985365314689091
 20
206.2089405824384869
 30
0.0
  0
VERTEX
  5
3F33
  8
0
 10
135.4438868325914882
 20
206.0819605659725084
 30
0.0
  0
VERTEX
  5
3F34
  8
0
 10
135.1169375453860084
 20
205.8969525328463988
 30
0.0
  0
VERTEX
  5
3F35
  8
0
 10
134.7681549647772954
 20
205.8047317588024896
 30
0.0
  0
VERTEX
  5
3F36
  8
0
 10
134.5863726871704955
 20
205.7932817350248911
 30
0.0
  0
SEQEND
  5
3F37
  8
0
  0
POLYLINE
  5
2DCF
  8
0
 66
     1
 10
0.0
 20
0.0
 30
0.0
  0
VERTEX
  5
3F38
  8
0
 10
134.5863726871704955
 20
205.7932817350248911
 30
0.0
  0
VERTEX
  5
3F39
  8
0
 10
134.5175117426443023
 20
205.7948604202643139
 30
0.0
  0
VERTEX
  5
3F3A
  8
0
 10
134.3780511673051024
 20
205.8074297286792955
 30
0.0
  0
VERTEX
  5
3F3B
  8
0
 10
134.2364317938449005
 20
205.8323937114624016
 30
0.0
  0
VERTEX
  5
3F3C
  8
0
 10
134.1648747776314963
 20
205.8494564857327873
 30
0.0
  0
VERTEX
  5
3F3D
  8
0
 10
134.0928539163618893
 20
205.8695324285392871
 30
0.0
  0
VERTEX
  5
3F3E
  8
0
 10
133.9475279150366873
 20
205.9185873143970866
 30
0.0
  0
VERTEX
  5
3F3F
  8
0
 10
133.8006764324580047
 20
205.9792607861120075
 30
0.0
  0
VERTEX
  5
3F40
  8
0
 10
133.6525344431051963
 20
206.0512157745708919
 30
0.0
  0
VERTEX
  5
3F41
  8
0
 10
133.5033480521126137
 20
206.1340758371160007
 30
0.0
  0
VERTEX
  5
3F42
  8
0
 10
133.3533732018323974
 20
206.2274256714131013
 30
0.0
  0
VERTEX
  5
3F43
  8
0
 10
133.2781724421128899
 20
206.2778940556308953
 30
0.0
  0
VERTEX
  5
3F44
  8
0
 10
133.2028743079756907
 20
206.3308119997560084
 30
0.0
  0
VERTEX
  5
3F45
  8
0
 10
133.0520723319687022
 20
206.4437841650072869
 30
0.0
  0
VERTEX
  5
3F46
  8
0
 10
132.8990252414367035
 20
206.5676874283873872
 30
0.0
  0
VERTEX
  5
3F47
  8
0
 10
132.7427299964880945
 20
206.703509599121503
 30
0.0
  0
VERTEX
  5
3F48
  8
0
 10
132.5833452879743959
 20
206.8513756497837903
 30
0.0
  0
VERTEX
  5
3F49
  8
0
 10
132.4210402254383041
 20
207.0113749842664106
 30
0.0
  0
VERTEX
  5
3F4A
  8
0
 10
132.3388480315275899
 20
207.0959430374796
 30
0.0
  0
VERTEX
  5
3F4B
  8
0
 10
132.2559934133728063
 20
207.1835622438871951
 30
0.0
  0
VERTEX
  5
3F4C
  8
0
 10
132.088391936053398
 20
207.3679584434813137
 30
0.0
  0
VERTEX
  5
3F4D
  8
0
 10
131.9184302456831972
 20
207.5645524442444128
 30
0.0
  0
VERTEX
  5
3F4E
  8
0
 10
131.8326268054856882
 20
207.667411787731794
 30
0.0
  0
SEQEND
  5
3F4F
  8
0
  0
POLYLINE
  5
2DD0
  8
0
 66
     1
 10
0.0
 20
0.0
 30
0.0
  0
VERTEX
  5
3F50
  8
0
 10
135.7816498454400005
 20
198.1117687038974111
 30
0.0
  0
VERTEX
  5
3F51
  8
0
 10
136.2158177642232033
 20
198.2080830193984013
 30
0.0
  0
VERTEX
  5
3F52
  8
0
 10
136.9351246238877025
 20
198.4015424618793872
 30
0.0
  0
VERTEX
  5
3F53
  8
0
 10
137.4548865909310109
 20
198.5958755987036
 30
0.0
  0
VERTEX
  5
3F54
  8
0
 10
137.6396912511976041
 20
198.6932817350248968
 30
0.0
  0
SEQEND
  5
3F55
  8
0
  0
POLYLINE
  5
2DD1
  8
0
 66
     1
 10
0.0
 20
0.0
 30
0.0
  0
VERTEX
  5
3F56
  8
0
 10
137.6396912511976041
 20
198.6932817350248968
 30
0.0
  0
VERTEX
  5
3F57
  8
0
 10
137.6410494214377991
 20
198.6933535229044878
 30
0.0
  0
VERTEX
  5
3F58
  8
0
 10
137.6437637799342895
 20
198.693930744194887
 30
0.0
  0
VERTEX
  5
3F59
  8
0
 10
137.6464745225156889
 20
198.6950923783429914
 30
0.0
  0
VERTEX
  5
3F5A
  8
0
 10
137.6478281756293995
 20
198.6958945615980099
 30
0.0
  0
VERTEX
  5
3F5B
  8
0
 10
137.6491804918061916
 20
198.6968454368698076
 30
0.0
  0
VERTEX
  5
3F5C
  8
0
 10
137.6518805446870033
 20
198.6991964115692042
 30
0.0
  0
VERTEX
  5
3F5D
  8
0
 10
137.6545735546457934
 20
198.7021512717309122
 30
0.0
  0
VERTEX
  5
3F5E
  8
0
 10
137.6572584140222091
 20
198.7057154634474045
 30
0.0
  0
VERTEX
  5
3F5F
  8
0
 10
137.6599340361539134
 20
198.7098939109997957
 30
0.0
  0
VERTEX
  5
3F60
  8
0
 10
137.6625993574278937
 20
198.7146910203263985
 30
0.0
  0
VERTEX
  5
3F61
  8
0
 10
137.6639278296499072
 20
198.7173228096019102
 30
0.0
  0
VERTEX
  5
3F62
  8
0
 10
137.6652533392363864
 20
198.720110684584597
 30
0.0
  0
VERTEX
  5
3F63
  8
0
 10
137.6678949698429051
 20
198.7261562918286018
 30
0.0
  0
VERTEX
  5
3F64
  8
0
 10
137.6705232661585114
 20
198.7328307348319072
 30
0.0
  0
VERTEX
  5
3F65
  8
0
 10
137.6731372754294966
 20
198.7401364230890124
 30
0.0
  0
VERTEX
  5
3F66
  8
0
 10
137.6757360768386889
 20
198.7480752970379001
 30
0.0
  0
VERTEX
  5
3F67
  8
0
 10
137.6783187830193071
 20
198.7566488445509094
 30
0.0
  0
VERTEX
  5
3F68
  8
0
 10
137.6796038333199874
 20
198.7611739692833908
 30
0.0
  0
VERTEX
  5
3F69
  8
0
 10
137.680884545290013
 20
198.7658581339319994
 30
0.0
  0
VERTEX
  5
3F6A
  8
0
 10
137.6834325371006003
 20
198.7757037687428863
 30
0.0
  0
VERTEX
  5
3F6B
  8
0
 10
137.685961937846713
 20
198.7861858169669063
 30
0.0
  0
VERTEX
  5
3F6C
  8
0
 10
137.687219417245899
 20
198.791665389052099
 30
0.0
  0
SEQEND
  5
3F6D
  8
0
  0
POLYLINE
  5
2DD2
  8
0
 66
     1
 10
0.0
 20
0.0
 30
0.0
  0
VERTEX
  5
3F6E
  8
0
 10
137.687219417245899
 20
198.791665389052099
 30
0.0
  0
VERTEX
  5
3F6F
  8
0
 10
137.6884082443133082
 20
198.7975003541521914
 30
0.0
  0
VERTEX
  5
3F70
  8
0
 10
137.6901330224359015
 20
198.8096838441375098
 30
0.0
  0
VERTEX
  5
3F71
  8
0
 10
137.6909919468378121
 20
198.8225463216001003
 30
0.0
  0
VERTEX
  5
3F72
  8
0
 10
137.6910989232262068
 20
198.8292295971932049
 30
0.0
  0
SEQEND
  5
3F73
  8
0
  0
POLYLINE
  5
2DD3
  8
0
 66
     1
 10
0.0
 20
0.0
 30
0.0
  0
VERTEX
  5
3F74
  8
0
 10
137.6910989232262068
 20
205.5573338728565886
 30
0.0
  0
VERTEX
  5
3F75
  8
0
 10
137.6909919468378121
 20
205.5640171484496932
 30
0.0
  0
VERTEX
  5
3F76
  8
0
 10
137.6901330224359015
 20
205.5768796259123121
 30
0.0
  0
VERTEX
  5
3F77
  8
0
 10
137.6884082443133082
 20
205.5890631158976021
 30
0.0
  0
VERTEX
  5
3F78
  8
0
 10
137.687219417245899
 20
205.5948980809976945
 30
0.0
  0
SEQEND
  5
3F79
  8
0
  0
POLYLINE
  5
2DD4
  8
0
 66
     1
 10
0.0
 20
0.0
 30
0.0
  0
VERTEX
  5
3F7A
  8
0
 10
137.687219417245899
 20
205.5948980809976945
 30
0.0
  0
VERTEX
  5
3F7B
  8
0
 10
137.6859619477313004
 20
205.600377610717004
 30
0.0
  0
VERTEX
  5
3F7C
  8
0
 10
137.6834325664831908
 20
205.6108595836774953
 30
0.0
  0
VERTEX
  5
3F7D
  8
0
 10
137.6808845935503882
 20
205.620705156299806
 30
0.0
  0
VERTEX
  5
3F7E
  8
0
 10
137.6796038906865931
 20
205.625389294863794
 30
0.0
  0
VERTEX
  5
3F7F
  8
0
 10
137.6783188491970975
 20
205.6299143969364138
 30
0.0
  0
VERTEX
  5
3F80
  8
0
 10
137.6757361595552993
 20
205.6384879094318876
 30
0.0
  0
VERTEX
  5
3F81
  8
0
 10
137.6731373730412997
 20
205.6464267615274935
 30
0.0
  0
VERTEX
  5
3F82
  8
0
 10
137.6705233767077061
 20
205.653732440438489
 30
0.0
  0
VERTEX
  5
3F83
  8
0
 10
137.6678950910414869
 20
205.6604068857213008
 30
0.0
  0
VERTEX
  5
3F84
  8
0
 10
137.6652534684498903
 20
205.6664525057537105
 30
0.0
  0
VERTEX
  5
3F85
  8
0
 10
137.6639279617708098
 20
205.6692403906560003
 30
0.0
  0
VERTEX
  5
3F86
  8
0
 10
137.6625994916610978
 20
205.6718721919482107
 30
0.0
  0
VERTEX
  5
3F87
  8
0
 10
137.6599341720371967
 20
205.6766693307449998
 30
0.0
  0
VERTEX
  5
3F88
  8
0
 10
137.6572585477981931
 20
205.6808478134283007
 30
0.0
  0
VERTEX
  5
3F89
  8
0
 10
137.6545736821582864
 20
205.6844120437991137
 30
0.0
  0
VERTEX
  5
3F8A
  8
0
 10
137.6518806613696029
 20
205.6873669437337071
 30
0.0
  0
VERTEX
  5
3F8B
  8
0
 10
137.649180592672991
 20
205.6897179566497016
 30
0.0
  0
VERTEX
  5
3F8C
  8
0
 10
137.6478282665852078
 20
205.6906688495359958
 30
0.0
  0
VERTEX
  5
3F8D
  8
0
 10
137.6464746021526935
 20
205.6914710488906906
 30
0.0
  0
VERTEX
  5
3F8E
  8
0
 10
137.6437638324914019
 20
205.6926327090338873
 30
0.0
  0
VERTEX
  5
3F8F
  8
0
 10
137.6410494406229077
 20
205.6932099451144893
 30
0.0
  0
VERTEX
  5
3F90
  8
0
 10
137.6396912511976041
 20
205.6932817350248968
 30
0.0
  0
SEQEND
  5
3F91
  8
0
  0
POLYLINE
  5
2DD5
  8
0
 66
     1
 10
0.0
 20
0.0
 30
0.0
  0
VERTEX
  5
3F92
  8
0
 10
137.6396912511976041
 20
205.6932817350248968
 30
0.0
  0
VERTEX
  5
3F93
  8
0
 10
137.4548865909310109
 20
205.7906878713461936
 30
0.0
  0
VERTEX
  5
3F94
  8
0
 10
136.9351246238877025
 20
205.9850210081704063
 30
0.0
  0
VERTEX
  5
3F95
  8
0
 10
136.2158177642232033
 20
206.1784804506515059
 30
0.0
  0
VERTEX
  5
3F96
  8
0
 10
135.7816498454400005
 20
206.2747947661524961
 30
0.0
  0
SEQEND
  5
3F97
  8
0
  0
POLYLINE
  5
2DD6
  8
0
 66
     1
 10
0.0
 20
0.0
 30
0.0
  0
VERTEX
  5
3F98
  8
0
 10
135.7816498454400005
 20
206.2747947661524961
 30
0.0
  0
VERTEX
  5
3F99
  8
0
 10
135.776172867700808
 20
206.2758454256818084
 30
0.0
  0
VERTEX
  5
3F9A
  8
0
 10
135.7652282847180913
 20
206.2773669288357894
 30
0.0
  0
VERTEX
  5
3F9B
  8
0
 10
135.7542995453866013
 20
206.2781230179988938
 30
0.0
  0
VERTEX
  5
3F9C
  8
0
 10
135.7488423811927873
 20
206.2782170570073959
 30
0.0
  0
SEQEND
  5
3F9D
  8
0
  0
POLYLINE
  5
2DD7
  8
0
 66
     1
 10
0.0
 20
0.0
 30
0.0
  0
VERTEX
  5
3F9E
  8
0
 10
135.7488423811927873
 20
206.2782170570073959
 30
0.0
  0
VERTEX
  5
3F9F
  8
0
 10
135.7245137753274093
 20
206.2763609274516057
 30
0.0
  0
VERTEX
  5
3FA0
  8
0
 10
135.6748764213839138
 20
206.2612331943618074
 30
0.0
  0
VERTEX
  5
3FA1
  8
0
 10
135.6241828538495895
 20
206.2303885738757003
 30
0.0
  0
VERTEX
  5
3FA2
  8
0
 10
135.5985365314689091
 20
206.2089405824384869
 30
0.0
  0
SEQEND
  5
3FA3
  8
0
  0
LINE
  5
2DD8
  8
0
 10
121.3240575042101028
 20
199.6203651020964003
 30
0.0
 11
125.6113832777468957
 21
199.6203651020964003
 31
0.0
  0
POLYLINE
  5
2DD9
  8
0
 66
     1
 10
0.0
 20
0.0
 30
0.0
  0
VERTEX
  5
3FA4
  8
0
 10
128.8836889774808014
 20
196.6324927415066952
 30
0.0
  0
VERTEX
  5
3FA5
  8
0
 10
128.9210636828094891
 20
196.5584685109614043
 30
0.0
  0
VERTEX
  5
3FA6
  8
0
 10
128.9964014619698105
 20
196.4167751292609125
 30
0.0
  0
VERTEX
  5
3FA7
  8
0
 10
129.073897665470497
 20
196.2809589693898999
 30
0.0
  0
VERTEX
  5
3FA8
  8
0
 10
129.1134726028579109
 20
196.2152978587106986
 30
0.0
  0
VERTEX
  5
3FA9
  8
0
 10
129.1535652772734863
 20
196.1512319627410932
 30
0.0
  0
VERTEX
  5
3FAA
  8
0
 10
129.235199734582892
 20
196.0281583287803073
 30
0.0
  0
VERTEX
  5
3FAB
  8
0
 10
129.3185886704550001
 20
195.9122492455190923
 30
0.0
  0
VERTEX
  5
3FAC
  8
0
 10
129.4035157912771865
 20
195.8039600154170898
 30
0.0
  0
VERTEX
  5
3FAD
  8
0
 10
129.4897623203056014
 20
195.7036915344841077
 30
0.0
  0
VERTEX
  5
3FAE
  8
0
 10
129.5771029743110887
 20
195.6117971292277957
 30
0.0
  0
VERTEX
  5
3FAF
  8
0
 10
129.621111573439606
 20
195.5690874019769012
 30
0.0
  0
VERTEX
  5
3FB0
  8
0
 10
129.6653068700850042
 20
195.528581423390392
 30
0.0
  0
VERTEX
  5
3FB1
  8
0
 10
129.7541409210454049
 20
195.4542970256092076
 30
0.0
  0
VERTEX
  5
3FB2
  8
0
 10
129.8433763342291911
 20
195.389140481101208
 30
0.0
  0
VERTEX
  5
3FB3
  8
0
 10
129.9328152726999122
 20
195.3332399669797041
 30
0.0
  0
VERTEX
  5
3FB4
  8
0
 10
130.022235714745392
 20
195.2866971942021905
 30
0.0
  0
VERTEX
  5
3FB5
  8
0
 10
130.1114061415185006
 20
195.2495686455040129
 30
0.0
  0
VERTEX
  5
3FB6
  8
0
 10
130.1558256359901122
 20
195.2345375315512968
 30
0.0
  0
VERTEX
  5
3FB7
  8
0
 10
130.2000967658520096
 20
195.2218564044881077
 30
0.0
  0
VERTEX
  5
3FB8
  8
0
 10
130.2880827058864099
 20
195.2035066709634918
 30
0.0
  0
VERTEX
  5
3FB9
  8
0
 10
130.3751457475846962
 20
195.1944097757404961
 30
0.0
  0
VERTEX
  5
3FBA
  8
0
 10
130.4182637065516133
 20
195.1932817350248968
 30
0.0
  0
SEQEND
  5
3FBB
  8
0
  0
POLYLINE
  5
2DDA
  8
0
 66
     1
 10
0.0
 20
0.0
 30
0.0
  0
VERTEX
  5
3FBC
  8
0
 10
130.4182637065516133
 20
195.1932817350248968
 30
0.0
  0
VERTEX
  5
3FBD
  8
0
 10
130.46209222454479
 20
195.194454651732002
 30
0.0
  0
VERTEX
  5
3FBE
  8
0
 10
130.5486545733876085
 20
195.2037359183528054
 30
0.0
  0
VERTEX
  5
3FBF
  8
0
 10
130.6335703858891009
 20
195.2220029062002027
 30
0.0
  0
VERTEX
  5
3FC0
  8
0
 10
130.6753427242458088
 20
195.2343923387603013
 30
0.0
  0
VERTEX
  5
3FC1
  8
0
 10
130.7167128170308956
 20
195.2489174769278009
 30
0.0
  0
VERTEX
  5
3FC2
  8
0
 10
130.7996090458547087
 20
195.2849197080338115
 30
0.0
  0
VERTEX
  5
3FC3
  8
0
 10
130.8826574394637987
 20
195.3304855504906072
 30
0.0
  0
VERTEX
  5
3FC4
  8
0
 10
130.965575006978213
 20
195.3858336476112072
 30
0.0
  0
VERTEX
  5
3FC5
  8
0
 10
131.0480886273016949
 20
195.4511123194589004
 30
0.0
  0
VERTEX
  5
3FC6
  8
0
 10
131.1299386786820946
 20
195.5264031746795013
 30
0.0
  0
VERTEX
  5
3FC7
  8
0
 10
131.170537935570394
 20
195.5678114856933121
 30
0.0
  0
VERTEX
  5
3FC8
  8
0
 10
131.2108803034273024
 20
195.6117246125160136
 30
0.0
  0
VERTEX
  5
3FC9
  8
0
 10
131.2906781556526994
 20
195.7070279866964029
 30
0.0
  0
VERTEX
  5
3FCA
  8
0
 10
131.3691063193039952
 20
195.8121963151994009
 30
0.0
  0
VERTEX
  5
3FCB
  8
0
 10
131.4459516275599071
 20
195.927047667023686
 30
0.0
  0
VERTEX
  5
3FCC
  8
0
 10
131.5210217624293989
 20
196.051349458906202
 30
0.0
  0
VERTEX
  5
3FCD
  8
0
 10
131.5941646031429002
 20
196.1848623541187919
 30
0.0
  0
VERTEX
  5
3FCE
  8
0
 10
131.6299604480543053
 20
196.254969836504813
 30
0.0
  0
VERTEX
  5
3FCF
  8
0
 10
131.6652113170009102
 20
196.3272462816387929
 30
0.0
  0
VERTEX
  5
3FD0
  8
0
 10
131.7339992680115017
 20
196.4780870378284021
 30
0.0
  0
VERTEX
  5
3FD1
  8
0
 10
131.8003804017610889
 20
196.6369099637931015
 30
0.0
  0
VERTEX
  5
3FD2
  8
0
 10
131.8326268054856882
 20
196.7191516823179995
 30
0.0
  0
SEQEND
  5
3FD3
  8
0
  0
LINE
  5
2DDB
  8
0
 10
121.3240575042101028
 20
195.1932817350248968
 30
0.0
 11
121.3240575042101028
 21
209.1932817350248968
 31
0.0
  0
POLYLINE
  5
2DDC
  8
0
 66
     1
 10
0.0
 20
0.0
 30
0.0
  0
VERTEX
  5
3FD4
  8
0
 10
131.8326268054858019
 20
207.667411787731794
 30
0.0
  0
VERTEX
  5
3FD5
  8
0
 10
131.8003804017602931
 20
207.7496535062587952
 30
0.0
  0
VERTEX
  5
3FD6
  8
0
 10
131.7339992680107059
 20
207.9084764322232104
 30
0.0
  0
VERTEX
  5
3FD7
  8
0
 10
131.6652113170003133
 20
208.0593171884125923
 30
0.0
  0
VERTEX
  5
3FD8
  8
0
 10
131.6299604480537084
 20
208.1315936335464869
 30
0.0
  0
VERTEX
  5
3FD9
  8
0
 10
131.5941646031421044
 20
208.201701115932309
 30
0.0
  0
VERTEX
  5
3FDA
  8
0
 10
131.5210217624286884
 20
208.3352140111448989
 30
0.0
  0
VERTEX
  5
3FDB
  8
0
 10
131.4459516275591966
 20
208.4595158030271023
 30
0.0
  0
VERTEX
  5
3FDC
  8
0
 10
131.3691063193033983
 20
208.5743671548513021
 30
0.0
  0
VERTEX
  5
3FDD
  8
0
 10
131.2906781556521025
 20
208.6795354833541865
 30
0.0
  0
VERTEX
  5
3FDE
  8
0
 10
131.2108803034267055
 20
208.7748388575344052
 30
0.0
  0
VERTEX
  5
3FDF
  8
0
 10
131.1705379355697971
 20
208.818751984356993
 30
0.0
  0
VERTEX
  5
3FE0
  8
0
 10
131.1299386786816967
 20
208.8601602953708039
 30
0.0
  0
VERTEX
  5
3FE1
  8
0
 10
131.0480886273012118
 20
208.9354511505912058
 30
0.0
  0
VERTEX
  5
3FE2
  8
0
 10
130.9655750069779003
 20
209.0007298224390127
 30
0.0
  0
VERTEX
  5
3FE3
  8
0
 10
130.8826574394634861
 20
209.0560779195594989
 30
0.0
  0
VERTEX
  5
3FE4
  8
0
 10
130.7996090458545098
 20
209.1016437620160957
 30
0.0
  0
VERTEX
  5
3FE5
  8
0
 10
130.7167128170306967
 20
209.1376459931221916
 30
0.0
  0
VERTEX
  5
3FE6
  8
0
 10
130.6753427242456098
 20
209.1521711312896059
 30
0.0
  0
VERTEX
  5
3FE7
  8
0
 10
130.6335703858889872
 20
209.1645605638495908
 30
0.0
  0
VERTEX
  5
3FE8
  8
0
 10
130.5486545733874095
 20
209.1828275516971019
 30
0.0
  0
VERTEX
  5
3FE9
  8
0
 10
130.4620922245447048
 20
209.1921088183177915
 30
0.0
  0
VERTEX
  5
3FEA
  8
0
 10
130.4182637065516133
 20
209.1932817350248968
 30
0.0
  0
SEQEND
  5
3FEB
  8
0
  0
POLYLINE
  5
2DDD
  8
0
 66
     1
 10
0.0
 20
0.0
 30
0.0
  0
VERTEX
  5
3FEC
  8
0
 10
130.4182637065516133
 20
209.1932817350248968
 30
0.0
  0
VERTEX
  5
3FED
  8
0
 10
130.3751457475846962
 20
209.1921536943094111
 30
0.0
  0
VERTEX
  5
3FEE
  8
0
 10
130.2880827058864099
 20
209.1830567990863017
 30
0.0
  0
VERTEX
  5
3FEF
  8
0
 10
130.2000967658520096
 20
209.1647070655616858
 30
0.0
  0
VERTEX
  5
3FF0
  8
0
 10
130.1558256359901122
 20
209.1520259384984968
 30
0.0
  0
VERTEX
  5
3FF1
  8
0
 10
130.1114061415185006
 20
209.136994824545809
 30
0.0
  0
VERTEX
  5
3FF2
  8
0
 10
130.022235714745392
 20
209.099866275847603
 30
0.0
  0
VERTEX
  5
3FF3
  8
0
 10
129.9328152726999122
 20
209.0533235030700894
 30
0.0
  0
VERTEX
  5
3FF4
  8
0
 10
129.8433763342291911
 20
208.9974229889486139
 30
0.0
  0
VERTEX
  5
3FF5
  8
0
 10
129.7541409210454049
 20
208.9322664444405859
 30
0.0
  0
VERTEX
  5
3FF6
  8
0
 10
129.6653068700850042
 20
208.8579820466594015
 30
0.0
  0
VERTEX
  5
3FF7
  8
0
 10
129.621111573439606
 20
208.8174760680728923
 30
0.0
  0
VERTEX
  5
3FF8
  8
0
 10
129.5771029743110887
 20
208.7747663408219978
 30
0.0
  0
VERTEX
  5
3FF9
  8
0
 10
129.4897623203056014
 20
208.6828719355656858
 30
0.0
  0
VERTEX
  5
3FFA
  8
0
 10
129.4035157912771865
 20
208.5826034546327037
 30
0.0
  0
VERTEX
  5
3FFB
  8
0
 10
129.3185886704550001
 20
208.4743142245307013
 30
0.0
  0
VERTEX
  5
3FFC
  8
0
 10
129.235199734582892
 20
208.3584051412694862
 30
0.0
  0
VERTEX
  5
3FFD
  8
0
 10
129.1535652772734863
 20
208.2353315073087003
 30
0.0
  0
VERTEX
  5
3FFE
  8
0
 10
129.1134726028579109
 20
208.1712656113390949
 30
0.0
  0
VERTEX
  5
3FFF
  8
0
 10
129.073897665470497
 20
208.1056045006600073
 30
0.0
  0
VERTEX
  5
4000
  8
0
 10
128.9964014619698105
 20
207.9697883407889094
 30
0.0
  0
VERTEX
  5
4001
  8
0
 10
128.9210636828094891
 20
207.8280949590883893
 30
0.0
  0
VERTEX
  5
4002
  8
0
 10
128.8836889774808014
 20
207.7540707285430983
 30
0.0
  0
SEQEND
  5
4003
  8
0
  0
LINE
  5
2DDE
  8
0
 10
125.6113832777468957
 20
204.7661983679533932
 30
0.0
 11
121.3240575042101028
 21
204.7661983679533932
 31
0.0
  0
POLYLINE
  5
2DDF
  8
0
 66
     1
 10
0.0
 20
0.0
 30
0.0
  0
VERTEX
  5
4004
  8
0
 10
135.5985365314689091
 20
198.1776228876113919
 30
0.0
  0
VERTEX
  5
4005
  8
0
 10
135.6241828538495895
 20
198.1561748961742069
 30
0.0
  0
VERTEX
  5
4006
  8
0
 10
135.6748764213839138
 20
198.1253302756879862
 30
0.0
  0
VERTEX
  5
4007
  8
0
 10
135.7245137753274093
 20
198.1102025425981878
 30
0.0
  0
VERTEX
  5
4008
  8
0
 10
135.7488423811927873
 20
198.1083464130423977
 30
0.0
  0
SEQEND
  5
4009
  8
0
  0
POLYLINE
  5
2DE0
  8
0
 66
     1
 10
0.0
 20
0.0
 30
0.0
  0
VERTEX
  5
400A
  8
0
 10
135.7488423811927873
 20
198.1083464130423977
 30
0.0
  0
VERTEX
  5
400B
  8
0
 10
135.7542995453866013
 20
198.1084404520510134
 30
0.0
  0
VERTEX
  5
400C
  8
0
 10
135.7652282847180913
 20
198.1091965412140041
 30
0.0
  0
VERTEX
  5
400D
  8
0
 10
135.776172867700808
 20
198.1107180443680136
 30
0.0
  0
VERTEX
  5
400E
  8
0
 10
135.7816498454400005
 20
198.1117687038974111
 30
0.0
  0
SEQEND
  5
400F
  8
0
  0
POLYLINE
  5
2DE1
  8
0
 66
     1
 10
0.0
 20
0.0
 30
0.0
  0
VERTEX
  5
4010
  8
0
 10
131.8326268054856882
 20
196.7191516823179995
 30
0.0
  0
VERTEX
  5
4011
  8
0
 10
131.9184302456893931
 20
196.8220110258129125
 30
0.0
  0
VERTEX
  5
4012
  8
0
 10
132.088391936059395
 20
197.0186050265751874
 30
0.0
  0
VERTEX
  5
4013
  8
0
 10
132.2559934133782917
 20
197.2030012261683964
 30
0.0
  0
VERTEX
  5
4014
  8
0
 10
132.3388480315329048
 20
197.2906204325757074
 30
0.0
  0
VERTEX
  5
4015
  8
0
 10
132.4210402254433916
 20
197.3751884857884988
 30
0.0
  0
VERTEX
  5
4016
  8
0
 10
132.5833452879791139
 20
197.5351878202704938
 30
0.0
  0
VERTEX
  5
4017
  8
0
 10
132.7427299964921872
 20
197.683053870932099
 30
0.0
  0
VERTEX
  5
4018
  8
0
 10
132.8990252414403983
 20
197.8188760416655896
 30
0.0
  0
VERTEX
  5
4019
  8
0
 10
133.0520723319721128
 20
197.9427793050452067
 30
0.0
  0
VERTEX
  5
401A
  8
0
 10
133.2028743079787887
 20
198.055751470296002
 30
0.0
  0
VERTEX
  5
401B
  8
0
 10
133.2781724421159026
 20
198.1086694144210014
 30
0.0
  0
VERTEX
  5
401C
  8
0
 10
133.3533732018350975
 20
198.1591377986385112
 30
0.0
  0
VERTEX
  5
401D
  8
0
 10
133.5033480521150011
 20
198.2524876329352139
 30
0.0
  0
VERTEX
  5
401E
  8
0
 10
133.6525344431072142
 20
198.3353476954800101
 30
0.0
  0
VERTEX
  5
401F
  8
0
 10
133.8006764324595963
 20
198.4073026839386102
 30
0.0
  0
VERTEX
  5
4020
  8
0
 10
133.9475279150381084
 20
198.4679761556531901
 30
0.0
  0
VERTEX
  5
4021
  8
0
 10
134.0928539163629978
 20
198.5170310415107906
 30
0.0
  0
VERTEX
  5
4022
  8
0
 10
134.1648747776324058
 20
198.5371069843172052
 30
0.0
  0
VERTEX
  5
4023
  8
0
 10
134.2364317938456963
 20
198.5541697585877046
 30
0.0
  0
VERTEX
  5
4024
  8
0
 10
134.3780511673055003
 20
198.5791337413706117
 30
0.0
  0
VERTEX
  5
4025
  8
0
 10
134.5175117426443876
 20
198.591703049785508
 30
0.0
  0
VERTEX
  5
4026
  8
0
 10
134.5863726871704955
 20
198.5932817350249024
 30
0.0
  0
SEQEND
  5
4027
  8
0
  0
POLYLINE
  5
2DE2
  8
0
 66
     1
 10
0.0
 20
0.0
 30
0.0
  0
VERTEX
  5
4028
  8
0
 10
134.5863726871704955
 20
198.5932817350249024
 30
0.0
  0
VERTEX
  5
4029
  8
0
 10
134.7681549647772954
 20
198.5818317112473039
 30
0.0
  0
VERTEX
  5
402A
  8
0
 10
135.1169375453860084
 20
198.4896109372033948
 30
0.0
  0
VERTEX
  5
402B
  8
0
 10
135.4438868325914882
 20
198.3046029040773135
 30
0.0
  0
VERTEX
  5
402C
  8
0
 10
135.5985365314689091
 20
198.1776228876113919
 30
0.0
  0
SEQEND
  5
402D
  8
0
  0
LINE
  5
2DE3
  8
0
 10
110.8240575042101028
 20
195.6932817350248968
 30
0.0
 11
110.8240575042101028
 21
208.6932817350248968
 31
0.0
  0
LINE
  5
2DE4
  8
0
 10
128.8836889774808867
 20
196.6324927415066952
 30
0.0
 11
128.8836889774808867
 21
201.2146139337475859
 31
0.0
  0
POLYLINE
  5
2DE5
  8
0
 66
     1
 10
0.0
 20
0.0
 30
0.0
  0
VERTEX
  5
402E
  8
0
 10
125.6113832777468957
 20
199.6203651020964003
 30
0.0
  0
VERTEX
  5
402F
  8
0
 10
125.6351647297389036
 20
199.6201606841439116
 30
0.0
  0
VERTEX
  5
4030
  8
0
 10
125.682252029246996
 20
199.6185502792241948
 30
0.0
  0
VERTEX
  5
4031
  8
0
 10
125.7287247824398975
 20
199.615392341988894
 30
0.0
  0
VERTEX
  5
4032
  8
0
 10
125.7517382533251009
 20
199.6132530680949912
 30
0.0
  0
VERTEX
  5
4033
  8
0
 10
125.7746072104156951
 20
199.6107506726085035
 30
0.0
  0
VERTEX
  5
4034
  8
0
 10
125.8199238884970015
 20
199.6046869154288004
 30
0.0
  0
VERTEX
  5
4035
  8
0
 10
125.864699228299699
 20
199.5972604052435031
 30
0.0
  0
VERTEX
  5
4036
  8
0
 10
125.9089569842687979
 20
199.5885281333453065
 30
0.0
  0
VERTEX
  5
4037
  8
0
 10
125.9527198168098039
 20
199.5785448137837079
 30
0.0
  0
VERTEX
  5
4038
  8
0
 10
125.9960089405057033
 20
199.5673630230961919
 30
0.0
  0
VERTEX
  5
4039
  8
0
 10
126.0174821085310981
 20
199.5613385695411921
 30
0.0
  0
VERTEX
  5
403A
  8
0
 10
126.0388443063481958
 20
199.5550332534004099
 30
0.0
  0
VERTEX
  5
403B
  8
0
 10
126.0812457050117956
 20
199.5416036378923934
 30
0.0
  0
VERTEX
  5
403C
  8
0
 10
126.1232328215942005
 20
199.5271198768122076
 30
0.0
  0
VERTEX
  5
403D
  8
0
 10
126.1648248498175064
 20
199.5116253428888058
 30
0.0
  0
VERTEX
  5
403E
  8
0
 10
126.2060401656657973
 20
199.4951612412241957
 30
0.0
  0
VERTEX
  5
403F
  8
0
 10
126.2468960707378045
 20
199.4777668015279062
 30
0.0
  0
VERTEX
  5
4040
  8
0
 10
126.2671943096503071
 20
199.4687324748784931
 30
0.0
  0
VERTEX
  5
4041
  8
0
 10
126.2874086044975002
 20
199.4594794848482024
 30
0.0
  0
VERTEX
  5
4042
  8
0
 10
126.3275918191520049
 20
199.4403354844405101
 30
0.0
  0
VERTEX
  5
4043
  8
0
 10
126.3674523382136954
 20
199.4203727508345025
 30
0.0
  0
VERTEX
  5
4044
  8
0
 10
126.3872643635241957
 20
199.4100954770455871
 30
0.0
  0
VERTEX
  5
4045
  8
0
 10
126.4069993142340991
 20
199.3996265180167029
 30
0.0
  0
VERTEX
  5
4046
  8
0
 10
126.4462431590476967
 20
199.3781296845050122
 30
0.0
  0
VERTEX
  5
4047
  8
0
 10
126.4851939950500963
 20
199.3559135595556882
 30
0.0
  0
VERTEX
  5
4048
  8
0
 10
126.5045625820588953
 20
199.3445451423880002
 30
0.0
  0
VERTEX
  5
4049
  8
0
 10
126.5238615083052025
 20
199.3330079856341968
 30
0.0
  0
VERTEX
  5
404A
  8
0
 10
126.5622548324444949
 20
199.3094414656495132
 30
0.0
  0
VERTEX
  5
404B
  8
0
 10
126.600382460414707
 20
199.2852412898166108
 30
0.0
  0
VERTEX
  5
404C
  8
0
 10
126.6382521808997978
 20
199.2604336582936924
 30
0.0
  0
VERTEX
  5
404D
  8
0
 10
126.6758710362130955
 20
199.2350437968327128
 30
0.0
  0
VERTEX
  5
404E
  8
0
 10
126.7132452985737956
 20
199.2090960635910903
 30
0.0
  0
VERTEX
  5
404F
  8
0
 10
126.7318424545945987
 20
199.1959203937915106
 30
0.0
  0
VERTEX
  5
4050
  8
0
 10
126.750380461885797
 20
199.1826140459766918
 30
0.0
  0
VERTEX
  5
4051
  8
0
 10
126.7872812464094068
 20
199.1556206469697088
 30
0.0
  0
VERTEX
  5
4052
  8
0
 10
126.823951613997906
 20
199.1281381607911101
 30
0.0
  0
VERTEX
  5
4053
  8
0
 10
126.9505170880611047
 20
199.0284130428705112
 30
0.0
  0
VERTEX
  5
4054
  8
0
 10
127.1606149259061027
 20
198.8471590042063042
 30
0.0
  0
VERTEX
  5
4055
  8
0
 10
127.3615255741034957
 20
198.6568658377208862
 30
0.0
  0
VERTEX
  5
4056
  8
0
 10
127.5525624061373975
 20
198.4615680586396138
 30
0.0
  0
VERTEX
  5
4057
  8
0
 10
127.644101104389307
 20
198.3631990297656955
 30
0.0
  0
VERTEX
  5
4058
  8
0
 10
127.7328220197049973
 20
198.2649265130351921
 30
0.0
  0
VERTEX
  5
4059
  8
0
 10
127.9012941713456968
 20
198.0702980982223949
 30
0.0
  0
VERTEX
  5
405A
  8
0
 10
128.0594812274578942
 20
197.8776266482747985
 30
0.0
  0
VERTEX
  5
405B
  8
0
 10
128.2120488504714046
 20
197.6819074570223904
 30
0.0
  0
VERTEX
  5
405C
  8
0
 10
128.3575907515188987
 20
197.4848928355467876
 30
0.0
  0
VERTEX
  5
405D
  8
0
 10
128.4944887494000909
 20
197.2885572464591064
 30
0.0
  0
VERTEX
  5
405E
  8
0
 10
128.5592075135928951
 20
197.1912297182751104
 30
0.0
  0
VERTEX
  5
405F
  8
0
 10
128.6211852053039024
 20
197.0947620404978977
 30
0.0
  0
VERTEX
  5
4060
  8
0
 10
128.7361794211722099
 20
196.9052618547839018
 30
0.0
  0
VERTEX
  5
4061
  8
0
 10
128.8380652626927088
 20
196.7216523032722932
 30
0.0
  0
VERTEX
  5
4062
  8
0
 10
128.8836889774808867
 20
196.6324927415066952
 30
0.0
  0
SEQEND
  5
4063
  8
0
  0
LINE
  5
2DE6
  8
0
 10
125.6113832777468957
 20
199.6203651020964003
 30
0.0
 11
125.6113832777468957
 21
204.7661983679533932
 31
0.0
  0
POLYLINE
  5
2DE7
  8
0
 66
     1
 10
0.0
 20
0.0
 30
0.0
  0
VERTEX
  5
4064
  8
0
 10
128.8836889774808867
 20
207.7540707285430983
 30
0.0
  0
VERTEX
  5
4065
  8
0
 10
128.8380652626927088
 20
207.6649111667775003
 30
0.0
  0
VERTEX
  5
4066
  8
0
 10
128.7361794211722099
 20
207.4813016152658918
 30
0.0
  0
VERTEX
  5
4067
  8
0
 10
128.6211852053039024
 20
207.2918014295518958
 30
0.0
  0
VERTEX
  5
4068
  8
0
 10
128.5592075135928951
 20
207.1953337517747116
 30
0.0
  0
VERTEX
  5
4069
  8
0
 10
128.4944887494000909
 20
207.0980062235906871
 30
0.0
  0
VERTEX
  5
406A
  8
0
 10
128.3575907515188987
 20
206.9016706345030059
 30
0.0
  0
VERTEX
  5
406B
  8
0
 10
128.2120488504714046
 20
206.7046560130274031
 30
0.0
  0
VERTEX
  5
406C
  8
0
 10
128.0594812274578942
 20
206.508936821774995
 30
0.0
  0
VERTEX
  5
406D
  8
0
 10
127.9012941713456968
 20
206.3162653718273987
 30
0.0
  0
VERTEX
  5
406E
  8
0
 10
127.7328220197049973
 20
206.1216369570146014
 30
0.0
  0
VERTEX
  5
406F
  8
0
 10
127.644101104389307
 20
206.023364440284098
 30
0.0
  0
VERTEX
  5
4070
  8
0
 10
127.5525624061373975
 20
205.9249954114102081
 30
0.0
  0
VERTEX
  5
4071
  8
0
 10
127.3615255741034957
 20
205.7296976323289073
 30
0.0
  0
VERTEX
  5
4072
  8
0
 10
127.1606149259061027
 20
205.5394044658434893
 30
0.0
  0
VERTEX
  5
4073
  8
0
 10
126.9505170880611047
 20
205.3581504271793108
 30
0.0
  0
VERTEX
  5
4074
  8
0
 10
126.823951613997906
 20
205.2584253092587971
 30
0.0
  0
VERTEX
  5
4075
  8
0
 10
126.7872812464094068
 20
205.2309428230801132
 30
0.0
  0
VERTEX
  5
4076
  8
0
 10
126.750380461885797
 20
205.2039494240731017
 30
0.0
  0
VERTEX
  5
4077
  8
0
 10
126.7318424545945987
 20
205.1906430762583113
 30
0.0
  0
VERTEX
  5
4078
  8
0
 10
126.7132452985737956
 20
205.1774674064587032
 30
0.0
  0
VERTEX
  5
4079
  8
0
 10
126.6758710362130955
 20
205.1515196732171091
 30
0.0
  0
VERTEX
  5
407A
  8
0
 10
126.6382521808997978
 20
205.1261298117561012
 30
0.0
  0
VERTEX
  5
407B
  8
0
 10
126.600382460414707
 20
205.1013221802332112
 30
0.0
  0
VERTEX
  5
407C
  8
0
 10
126.5622548324444949
 20
205.0771220044003087
 30
0.0
  0
VERTEX
  5
407D
  8
0
 10
126.5238615083052025
 20
205.0535554844155968
 30
0.0
  0
VERTEX
  5
407E
  8
0
 10
126.5045625820588953
 20
205.0420183276619923
 30
0.0
  0
VERTEX
  5
407F
  8
0
 10
126.4851939950500963
 20
205.0306499104941906
 30
0.0
  0
VERTEX
  5
4080
  8
0
 10
126.4462431590476967
 20
205.0084337855448098
 30
0.0
  0
VERTEX
  5
4081
  8
0
 10
126.4069993142340991
 20
204.9869369520330906
 30
0.0
  0
VERTEX
  5
4082
  8
0
 10
126.3872643635241957
 20
204.9764679930042917
 30
0.0
  0
VERTEX
  5
4083
  8
0
 10
126.3674523382136954
 20
204.966190719215291
 30
0.0
  0
VERTEX
  5
4084
  8
0
 10
126.3275918191520049
 20
204.9462279856093119
 30
0.0
  0
VERTEX
  5
4085
  8
0
 10
126.2874086044975002
 20
204.9270839852015911
 30
0.0
  0
VERTEX
  5
4086
  8
0
 10
126.2671943096503071
 20
204.9178309951714141
 30
0.0
  0
VERTEX
  5
4087
  8
0
 10
126.2468960707378045
 20
204.908796668522001
 30
0.0
  0
VERTEX
  5
4088
  8
0
 10
126.2060401656657973
 20
204.8914022288255978
 30
0.0
  0
VERTEX
  5
4089
  8
0
 10
126.1648248498175064
 20
204.8749381271611014
 30
0.0
  0
VERTEX
  5
408A
  8
0
 10
126.1232328215942005
 20
204.8594435932375859
 30
0.0
  0
VERTEX
  5
408B
  8
0
 10
126.0812457050117956
 20
204.8449598321574001
 30
0.0
  0
VERTEX
  5
408C
  8
0
 10
126.0388443063481958
 20
204.8315302166494121
 30
0.0
  0
VERTEX
  5
408D
  8
0
 10
126.0174821085310981
 20
204.8252249005086014
 30
0.0
  0
VERTEX
  5
408E
  8
0
 10
125.9960089405057033
 20
204.8192004469536016
 30
0.0
  0
VERTEX
  5
408F
  8
0
 10
125.9527198168098039
 20
204.8080186562661993
 30
0.0
  0
VERTEX
  5
4090
  8
0
 10
125.9089569842687979
 20
204.798035336704487
 30
0.0
  0
VERTEX
  5
4091
  8
0
 10
125.864699228299699
 20
204.7893030648062904
 30
0.0
  0
VERTEX
  5
4092
  8
0
 10
125.8199238884970015
 20
204.7818765546209931
 30
0.0
  0
VERTEX
  5
4093
  8
0
 10
125.7746072104156951
 20
204.7758127974412901
 30
0.0
  0
VERTEX
  5
4094
  8
0
 10
125.7517382533251009
 20
204.7733104019548023
 30
0.0
  0
VERTEX
  5
4095
  8
0
 10
125.7287247824398975
 20
204.7711711280608995
 30
0.0
  0
VERTEX
  5
4096
  8
0
 10
125.682252029246996
 20
204.7680131908255987
 30
0.0
  0
VERTEX
  5
4097
  8
0
 10
125.6351647297389036
 20
204.7664027859059956
 30
0.0
  0
VERTEX
  5
4098
  8
0
 10
125.6113832777468957
 20
204.7661983679533932
 30
0.0
  0
SEQEND
  5
4099
  8
0
  0
LINE
  5
2DE8
  8
0
 10
128.8836889774808867
 20
203.1719495363022077
 30
0.0
 11
128.8836889774808867
 21
207.7540707285430983
 31
0.0
  0
POLYLINE
  5
2DE9
  8
0
 66
     1
 10
0.0
 20
0.0
 30
0.0
  0
VERTEX
  5
409A
  8
0
 10
128.8836889774808867
 20
201.2146139337475859
 30
0.0
  0
VERTEX
  5
409B
  8
0
 10
128.8791989462835943
 20
201.2690774848223043
 30
0.0
  0
VERTEX
  5
409C
  8
0
 10
128.8708850153149967
 20
201.3782116872170889
 30
0.0
  0
VERTEX
  5
409D
  8
0
 10
128.863508195944803
 20
201.4875195883672916
 30
0.0
  0
VERTEX
  5
409E
  8
0
 10
128.8601872768354895
 20
201.5421996289614981
 30
0.0
  0
VERTEX
  5
409F
  8
0
 10
128.857118681602401
 20
201.596875655477902
 30
0.0
  0
VERTEX
  5
40A0
  8
0
 10
128.8517565618147955
 20
201.7061500507201117
 30
0.0
  0
VERTEX
  5
40A1
  8
0
 10
128.847451342460289
 20
201.8152098266575081
 30
0.0
  0
VERTEX
  5
40A2
  8
0
 10
128.844221636176286
 20
201.9239201814889952
 30
0.0
  0
VERTEX
  5
40A3
  8
0
 10
128.8420750418817988
 20
202.0321457856034044
 30
0.0
  0
VERTEX
  5
40A4
  8
0
 10
128.8410082270357861
 20
202.1397521740628918
 30
0.0
  0
VERTEX
  5
40A5
  8
0
 10
128.8408757738316126
 20
202.1932817350248968
 30
0.0
  0
VERTEX
  5
40A6
  8
0
 10
128.8410082270357861
 20
202.246811295986987
 30
0.0
  0
VERTEX
  5
40A7
  8
0
 10
128.8420750418817988
 20
202.3544176844463891
 30
0.0
  0
VERTEX
  5
40A8
  8
0
 10
128.844221636176286
 20
202.4626432885607983
 30
0.0
  0
VERTEX
  5
40A9
  8
0
 10
128.847451342460289
 20
202.5713536433923991
 30
0.0
  0
VERTEX
  5
40AA
  8
0
 10
128.8517565618147955
 20
202.6804134193297955
 30
0.0
  0
VERTEX
  5
40AB
  8
0
 10
128.857118681602401
 20
202.7896878145718915
 30
0.0
  0
VERTEX
  5
40AC
  8
0
 10
128.8601872768354895
 20
202.8443638410882954
 30
0.0
  0
VERTEX
  5
40AD
  8
0
 10
128.863508195944803
 20
202.8990438816825872
 30
0.0
  0
VERTEX
  5
40AE
  8
0
 10
128.8708850153149967
 20
203.0083517828327047
 30
0.0
  0
VERTEX
  5
40AF
  8
0
 10
128.8791989462835943
 20
203.1174859852274892
 30
0.0
  0
VERTEX
  5
40B0
  8
0
 10
128.8836889774808867
 20
203.1719495363022077
 30
0.0
  0
SEQEND
  5
40B1
  8
0
  0
POLYLINE
  5
2DEA
  8
0
 66
     1
 10
0.0
 20
0.0
 30
0.0
  0
VERTEX
  5
40B2
  8
0
 10
128.8836889774808014
 20
203.1719495363022077
 30
0.0
  0
VERTEX
  5
40B3
  8
0
 10
128.8860746323748003
 20
203.199778122561014
 30
0.0
  0
VERTEX
  5
40B4
  8
0
 10
128.8910494279145951
 20
203.2553583502522088
 30
0.0
  0
VERTEX
  5
40B5
  8
0
 10
128.8962947692992032
 20
203.3108216982307113
 30
0.0
  0
VERTEX
  5
40B6
  8
0
 10
128.8990185561428916
 20
203.3385041831488138
 30
0.0
  0
VERTEX
  5
40B7
  8
0
 10
128.9018095464838893
 20
203.3661510196652955
 30
0.0
  0
VERTEX
  5
40B8
  8
0
 10
128.9075924363795025
 20
203.4213291996310886
 30
0.0
  0
VERTEX
  5
40B9
  8
0
 10
128.9136419054603095
 20
203.4763391932438026
 30
0.0
  0
VERTEX
  5
40BA
  8
0
 10
128.919956213205495
 20
203.5311640627267025
 30
0.0
  0
VERTEX
  5
40BB
  8
0
 10
128.9265334163532941
 20
203.5857870134406937
 30
0.0
  0
VERTEX
  5
40BC
  8
0
 10
128.9333713739561915
 20
203.6401914288996977
 30
0.0
  0
VERTEX
  5
40BD
  8
0
 10
128.9368874139983916
 20
203.6673065503647138
 30
0.0
  0
VERTEX
  5
40BE
  8
0
 10
128.940467753219508
 20
203.6943609048003907
 30
0.0
  0
VERTEX
  5
40BF
  8
0
 10
128.9478200361162976
 20
203.7482792820881059
 30
0.0
  0
VERTEX
  5
40C0
  8
0
 10
128.9554255267634915
 20
203.8019306790803
 30
0.0
  0
VERTEX
  5
40C1
  8
0
 10
128.9632813595559924
 20
203.855299522668588
 30
0.0
  0
VERTEX
  5
40C2
  8
0
 10
128.9713847540693905
 20
203.9083721612956879
 30
0.0
  0
VERTEX
  5
40C3
  8
0
 10
128.9797340461724957
 20
203.9611429657661859
 30
0.0
  0
VERTEX
  5
40C4
  8
0
 10
128.984000007393405
 20
203.9874111221342048
 30
0.0
  0
VERTEX
  5
40C5
  8
0
 10
128.9883262972209081
 20
204.0135986533072128
 30
0.0
  0
VERTEX
  5
40C6
  8
0
 10
128.9971581448305074
 20
204.0657244837981068
 30
0.0
  0
VERTEX
  5
40C7
  8
0
 10
129.0062260328462003
 20
204.1175058094202939
 30
0.0
  0
VERTEX
  5
40C8
  8
0
 10
129.0108473287064044
 20
204.143262739745694
 30
0.0
  0
VERTEX
  5
40C9
  8
0
 10
129.0155262153921001
 20
204.1689281112846004
 30
0.0
  0
VERTEX
  5
40CA
  8
0
 10
129.0250547615972039
 20
204.2199770345634988
 30
0.0
  0
VERTEX
  5
40CB
  8
0
 10
129.0348075609753948
 20
204.2706384221644953
 30
0.0
  0
VERTEX
  5
40CC
  8
0
 10
129.0397667234302048
 20
204.2958194280290058
 30
0.0
  0
VERTEX
  5
40CD
  8
0
 10
129.0447803294343885
 20
204.3208983469855866
 30
0.0
  0
VERTEX
  5
40CE
  8
0
 10
129.0549686158923066
 20
204.3707431427941117
 30
0.0
  0
VERTEX
  5
40CF
  8
0
 10
129.0653678094890893
 20
204.4201594337797872
 30
0.0
  0
VERTEX
  5
40D0
  8
0
 10
129.0759731473729062
 20
204.4691341628220869
 30
0.0
  0
VERTEX
  5
40D1
  8
0
 10
129.086779723055912
 20
204.5176546185273878
 30
0.0
  0
VERTEX
  5
40D2
  8
0
 10
129.097782495327408
 20
204.5657084610768948
 30
0.0
  0
VERTEX
  5
40D3
  8
0
 10
129.1033558452863872
 20
204.5895566539313108
 30
0.0
  0
VERTEX
  5
40D4
  8
0
 10
129.1089762977235864
 20
204.6132837469378956
 30
0.0
  0
VERTEX
  5
40D5
  8
0
 10
129.1203558485439089
 20
204.6603689524636138
 30
0.0
  0
VERTEX
  5
40D6
  8
0
 10
129.1319157541921925
 20
204.7069529676925015
 30
0.0
  0
VERTEX
  5
40D7
  8
0
 10
129.1436504717499929
 20
204.7530249333761105
 30
0.0
  0
VERTEX
  5
40D8
  8
0
 10
129.1555542841641966
 20
204.7985741506462034
 30
0.0
  0
VERTEX
  5
40D9
  8
0
 10
129.1676213042503036
 20
204.8435901113952866
 30
0.0
  0
VERTEX
  5
40DA
  8
0
 10
129.1737141323847879
 20
204.8658948975551084
 30
0.0
  0
VERTEX
  5
40DB
  8
0
 10
129.1798454807471046
 20
204.8880625330708085
 30
0.0
  0
VERTEX
  5
40DC
  8
0
 10
129.1922206048587896
 20
204.9319813915086002
 30
0.0
  0
VERTEX
  5
40DD
  8
0
 10
129.2047403172539077
 20
204.9753369518626016
 30
0.0
  0
VERTEX
  5
40DE
  8
0
 10
129.2173981154950013
 20
205.0181197976905025
 30
0.0
  0
VERTEX
  5
40DF
  8
0
 10
129.2301873618781087
 20
205.0603208582678008
 30
0.0
  0
VERTEX
  5
40E0
  8
0
 10
129.2431012916667896
 20
205.1019314341949098
 30
0.0
  0
VERTEX
  5
40E1
  8
0
 10
129.2496028662349943
 20
205.1225126793196125
 30
0.0
  0
VERTEX
  5
40E2
  8
0
 10
129.2561330217077114
 20
205.1429432213751909
 30
0.0
  0
VERTEX
  5
40E3
  8
0
 10
129.2692755594239031
 20
205.1833483334351911
 30
0.0
  0
VERTEX
  5
40E4
  8
0
 10
129.2825218121822104
 20
205.2231393226659009
 30
0.0
  0
VERTEX
  5
40E5
  8
0
 10
129.2958645970381895
 20
205.2623091995585014
 30
0.0
  0
VERTEX
  5
40E6
  8
0
 10
129.309296650868589
 20
205.3008514510142959
 30
0.0
  0
VERTEX
  5
40E7
  8
0
 10
129.3228596434504141
 20
205.3388959677369883
 30
0.0
  0
VERTEX
  5
40E8
  8
0
 10
129.3297156407313082
 20
205.3578029547828123
 30
0.0
  0
VERTEX
  5
40E9
  8
0
 10
129.3366210443585942
 20
205.3766311336866863
 30
0.0
  0
VERTEX
  5
40EA
  8
0
 10
129.3505785995423878
 20
205.414043472814086
 30
0.0
  0
VERTEX
  5
40EB
  8
0
 10
129.3647292805069924
 20
205.4511179522338011
 30
0.0
  0
VERTEX
  5
40EC
  8
0
 10
129.3790699258765073
 20
205.4878398022623003
 30
0.0
  0
VERTEX
  5
40ED
  8
0
 10
129.3935972489302912
 20
205.5241945356106044
 30
0.0
  0
VERTEX
  5
40EE
  8
0
 10
129.4083078453595022
 20
205.5601679651545908
 30
0.0
  0
VERTEX
  5
40EF
  8
0
 10
129.4157307770483101
 20
205.5780073436656039
 30
0.0
  0
VERTEX
  5
40F0
  8
0
 10
129.4231982012418882
 20
205.5957462203448927
 30
0.0
  0
VERTEX
  5
40F1
  8
0
 10
129.4382647012373013
 20
205.6309157623041983
 30
0.0
  0
VERTEX
  5
40F2
  8
0
 10
129.4535036370031094
 20
205.6656633976583066
 30
0.0
  0
VERTEX
  5
40F3
  8
0
 10
129.4611865861326976
 20
205.6828749750281133
 30
0.0
  0
VERTEX
  5
40F4
  8
0
 10
129.4689112158285127
 20
205.6999762911360108
 30
0.0
  0
VERTEX
  5
40F5
  8
0
 10
129.4844835694912888
 20
205.7338419769671987
 30
0.0
  0
VERTEX
  5
40F6
  8
0
 10
129.500216763335402
 20
205.767248369103811
 30
0.0
  0
VERTEX
  5
40F7
  8
0
 10
129.5081424298639092
 20
205.7837756592296046
 30
0.0
  0
VERTEX
  5
40F8
  8
0
 10
129.5161068055705016
 20
205.8001837702782097
 30
0.0
  0
VERTEX
  5
40F9
  8
0
 10
129.5321496567939903
 20
205.8326368799118029
 30
0.0
  0
VERTEX
  5
40FA
  8
0
 10
129.5483412397354925
 20
205.8645968008740965
 30
0.0
  0
VERTEX
  5
40FB
  8
0
 10
129.5646774469209959
 20
205.8960530407136957
 30
0.0
  0
VERTEX
  5
40FC
  8
0
 10
129.5811541132254092
 20
205.9269954468674939
 30
0.0
  0
VERTEX
  5
40FD
  8
0
 10
129.5977669765877067
 20
205.9574141293946923
 30
0.0
  0
VERTEX
  5
40FE
  8
0
 10
129.6061231240323082
 20
205.9724240568789924
 30
0.0
  0
VERTEX
  5
40FF
  8
0
 10
129.6145116797148944
 20
205.9872994676802875
 30
0.0
  0
VERTEX
  5
4100
  8
0
 10
129.6313837773892033
 20
206.0166421267954888
 30
0.0
  0
VERTEX
  5
4101
  8
0
 10
129.6483787438565116
 20
206.0454330725399075
 30
0.0
  0
VERTEX
  5
4102
  8
0
 10
129.665491980297702
 20
206.0736635852219081
 30
0.0
  0
VERTEX
  5
4103
  8
0
 10
129.6827188223867893
 20
206.1013252722229936
 30
0.0
  0
VERTEX
  5
4104
  8
0
 10
129.7000545479355935
 20
206.1284100793839116
 30
0.0
  0
VERTEX
  5
4105
  8
0
 10
129.7087617524028076
 20
206.1417337311901861
 30
0.0
  0
VERTEX
  5
4106
  8
0
 10
129.7174943846256951
 20
206.1549103012461899
 30
0.0
  0
VERTEX
  5
4107
  8
0
 10
129.735033517833898
 20
206.1808185901803938
 30
0.0
  0
VERTEX
  5
4108
  8
0
 10
129.7526670985519104
 20
206.2061279644246952
 30
0.0
  0
VERTEX
  5
4109
  8
0
 10
129.770390251407207
 20
206.2308318150543869
 30
0.0
  0
VERTEX
  5
410A
  8
0
 10
129.7881980827878863
 20
206.2549239118976914
 30
0.0
  0
VERTEX
  5
410B
  8
0
 10
129.8060856890782873
 20
206.2783984084069004
 30
0.0
  0
VERTEX
  5
410C
  8
0
 10
129.8150578747520001
 20
206.2899023353523944
 30
0.0
  0
VERTEX
  5
410D
  8
0
 10
129.824048165009998
 20
206.3012498454932881
 30
0.0
  0
VERTEX
  5
410E
  8
0
 10
129.8420813545133115
 20
206.323474054573893
 30
0.0
  0
VERTEX
  5
410F
  8
0
 10
129.8601825288735085
 20
206.3450687994113935
 30
0.0
  0
VERTEX
  5
4110
  8
0
 10
129.8783468950981899
 20
206.3660295335417061
 30
0.0
  0
VERTEX
  5
4111
  8
0
 10
129.8965694595682976
 20
206.386351842292413
 30
0.0
  0
VERTEX
  5
4112
  8
0
 10
129.9148451729589056
 20
206.4060316295534108
 30
0.0
  0
VERTEX
  5
4113
  8
0
 10
129.9240013691446052
 20
206.4156293879597115
 30
0.0
  0
VERTEX
  5
4114
  8
0
 10
129.9331689375198096
 20
206.4250651309313866
 30
0.0
  0
VERTEX
  5
4115
  8
0
 10
129.9515356143737961
 20
206.44344892570399
 30
0.0
  0
VERTEX
  5
4116
  8
0
 10
129.9699400308354029
 20
206.4611799476014085
 30
0.0
  0
VERTEX
  5
4117
  8
0
 10
130.0345774728359061
 20
206.5180623073518973
 30
0.0
  0
VERTEX
  5
4118
  8
0
 10
130.090128395820301
 20
206.5603695972392018
 30
0.0
  0
VERTEX
  5
4119
  8
0
 10
130.1456670175942065
 20
206.5967061846450008
 30
0.0
  0
VERTEX
  5
411A
  8
0
 10
130.2561494127932065
 20
206.6515633259544131
 30
0.0
  0
VERTEX
  5
411B
  8
0
 10
130.364895288467693
 20
206.6831388328749881
 30
0.0
  0
VERTEX
  5
411C
  8
0
 10
130.4182637065516133
 20
206.6904992229796107
 30
0.0
  0
SEQEND
  5
411D
  8
0
  0
POLYLINE
  5
2DEB
  8
0
 66
     1
 10
0.0
 20
0.0
 30
0.0
  0
VERTEX
  5
411E
  8
0
 10
130.4182637065516133
 20
206.6904992229796107
 30
0.0
  0
VERTEX
  5
411F
  8
0
 10
130.4317480001222123
 20
206.6915065756612933
 30
0.0
  0
VERTEX
  5
4120
  8
0
 10
130.45881356582899
 20
206.6924856021975074
 30
0.0
  0
VERTEX
  5
4121
  8
0
 10
130.4859929005887977
 20
206.6920614104363096
 30
0.0
  0
VERTEX
  5
4122
  8
0
 10
130.4996193893003067
 20
206.6913152557877993
 30
0.0
  0
VERTEX
  5
4123
  8
0
 10
130.5132673067301994
 20
206.6902091513015023
 30
0.0
  0
VERTEX
  5
4124
  8
0
 10
130.5406180807503915
 20
206.686906195680308
 30
0.0
  0
VERTEX
  5
4125
  8
0
 10
130.5680265751884122
 20
206.682132140870408
 30
0.0
  0
VERTEX
  5
4126
  8
0
 10
130.5954742593536082
 20
206.6758688023091963
 30
0.0
  0
VERTEX
  5
4127
  8
0
 10
130.6229427791332114
 20
206.6681001904518951
 30
0.0
  0
VERTEX
  5
4128
  8
0
 10
130.650414016056402
 20
206.6588124725141995
 30
0.0
  0
VERTEX
  5
4129
  8
0
 10
130.6641450702526868
 20
206.6535952028447127
 30
0.0
  0
VERTEX
  5
412A
  8
0
 10
130.6778701457419061
 20
206.6479939186644117
 30
0.0
  0
VERTEX
  5
412B
  8
0
 10
130.7052936958133955
 20
206.6356348321305916
 30
0.0
  0
VERTEX
  5
412C
  8
0
 10
130.7326675995489893
 20
206.621727464605101
 30
0.0
  0
VERTEX
  5
412D
  8
0
 10
130.7599751133099062
 20
206.6062659963401131
 30
0.0
  0
VERTEX
  5
412E
  8
0
 10
130.7871995737392012
 20
206.5892466522768132
 30
0.0
  0
VERTEX
  5
412F
  8
0
 10
130.8143243882608999
 20
206.570667741679614
 30
0.0
  0
VERTEX
  5
4130
  8
0
 10
130.8278442767781939
 20
206.5607934899566942
 30
0.0
  0
VERTEX
  5
4131
  8
0
 10
130.8413330930414986
 20
206.5505296547391936
 30
0.0
  0
VERTEX
  5
4132
  8
0
 10
130.8682094092432067
 20
206.5288348453289018
 30
0.0
  0
VERTEX
  5
4133
  8
0
 10
130.8949372974441019
 20
206.5055877999515133
 30
0.0
  0
VERTEX
  5
4134
  8
0
 10
130.9082406472028879
 20
206.4933841358019038
 30
0.0
  0
SEQEND
  5
4135
  8
0
  0
POLYLINE
  5
2DEC
  8
0
 66
     1
 10
0.0
 20
0.0
 30
0.0
  0
VERTEX
  5
4136
  8
0
 10
131.3239321122094054
 20
205.861716956160393
 30
0.0
  0
VERTEX
  5
4137
  8
0
 10
131.3340434985614138
 20
205.8389988677791109
 30
0.0
  0
VERTEX
  5
4138
  8
0
 10
131.354016288988106
 20
205.7928248683408015
 30
0.0
  0
VERTEX
  5
4139
  8
0
 10
131.3736496170774046
 20
205.745694614577701
 30
0.0
  0
VERTEX
  5
413A
  8
0
 10
131.3833367411671134
 20
205.7217815668039975
 30
0.0
  0
VERTEX
  5
413B
  8
0
 10
131.3929363481520909
 20
205.6976424509238086
 30
0.0
  0
VERTEX
  5
413C
  8
0
 10
131.4118696655262966
 20
205.6487041908341098
 30
0.0
  0
VERTEX
  5
413D
  8
0
 10
131.4304431062653009
 20
205.5989170466577889
 30
0.0
  0
VERTEX
  5
413E
  8
0
 10
131.448650594808214
 20
205.5483195492464858
 30
0.0
  0
VERTEX
  5
413F
  8
0
 10
131.4664864745288924
 20
205.4969514570009039
 30
0.0
  0
VERTEX
  5
4140
  8
0
 10
131.4839455373129908
 20
205.4448536539568124
 30
0.0
  0
VERTEX
  5
4141
  8
0
 10
131.4925322643042875
 20
205.418544167280487
 30
0.0
  0
VERTEX
  5
4142
  8
0
 10
131.5010330853714038
 20
205.3920364720839871
 30
0.0
  0
VERTEX
  5
4143
  8
0
 10
131.5178829525150093
 20
205.3380895104106969
 30
0.0
  0
VERTEX
  5
4144
  8
0
 10
131.5345261666419958
 20
205.2828872844405055
 30
0.0
  0
VERTEX
  5
4145
  8
0
 10
131.5509474662499088
 20
205.2264479651344118
 30
0.0
  0
VERTEX
  5
4146
  8
0
 10
131.5671320090141023
 20
205.1687915343194106
 30
0.0
  0
VERTEX
  5
4147
  8
0
 10
131.5830654090071903
 20
205.1099396735000937
 30
0.0
  0
VERTEX
  5
4148
  8
0
 10
131.5909335680217112
 20
205.0800726672312919
 30
0.0
  0
VERTEX
  5
4149
  8
0
 10
131.5987337703982121
 20
205.0499156416761082
 30
0.0
  0
VERTEX
  5
414A
  8
0
 10
131.6141237177465086
 20
204.9887441415719991
 30
0.0
  0
VERTEX
  5
414B
  8
0
 10
131.6292224229430872
 20
204.9264511737054022
 30
0.0
  0
VERTEX
  5
414C
  8
0
 10
131.6366587064856901
 20
204.8948925806170109
 30
0.0
  0
VERTEX
  5
414D
  8
0
 10
131.6440176287989061
 20
204.8630638777493971
 30
0.0
  0
VERTEX
  5
414E
  8
0
 10
131.6584976692315934
 20
204.7986103607013888
 30
0.0
  0
VERTEX
  5
414F
  8
0
 10
131.6726514859404062
 20
204.7331195114531113
 30
0.0
  0
VERTEX
  5
4150
  8
0
 10
131.6796027721281064
 20
204.6999942897913058
 30
0.0
  0
VERTEX
  5
4151
  8
0
 10
131.6864686212799995
 20
204.6666209003033998
 30
0.0
  0
VERTEX
  5
4152
  8
0
 10
131.6999390849177871
 20
204.5991453141957948
 30
0.0
  0
VERTEX
  5
4153
  8
0
 10
131.7130532765922908
 20
204.5307251440854088
 30
0.0
  0
VERTEX
  5
4154
  8
0
 10
131.7258020154500002
 20
204.4613942879041133
 30
0.0
  0
VERTEX
  5
4155
  8
0
 10
131.7381765719514135
 20
204.3911880157816938
 30
0.0
  0
VERTEX
  5
4156
  8
0
 10
131.7501686958532048
 20
204.3201428272587066
 30
0.0
  0
VERTEX
  5
4157
  8
0
 10
131.7560189044556012
 20
204.28431734461779
 30
0.0
  0
VERTEX
  5
4158
  8
0
 10
131.7617706403528928
 20
204.2482963002182998
 30
0.0
  0
VERTEX
  5
4159
  8
0
 10
131.7729751824394953
 20
204.1756869312596905
 30
0.0
  0
VERTEX
  5
415A
  8
0
 10
131.783775639466711
 20
204.1023539672308971
 30
0.0
  0
VERTEX
  5
415B
  8
0
 10
131.794165881925494
 20
204.0283372276558111
 30
0.0
  0
VERTEX
  5
415C
  8
0
 10
131.804140342362814
 20
203.9536769178162103
 30
0.0
  0
VERTEX
  5
415D
  8
0
 10
131.813695247834886
 20
203.8784035049849024
 30
0.0
  0
VERTEX
  5
415E
  8
0
 10
131.8183145215683965
 20
203.8405443418454013
 30
0.0
  0
VERTEX
  5
415F
  8
0
 10
131.8228275689208999
 20
203.802543738182095
 30
0.0
  0
VERTEX
  5
4160
  8
0
 10
131.8315328086486033
 20
203.726139388995108
 30
0.0
  0
VERTEX
  5
4161
  8
0
 10
131.8398068948388016
 20
203.6492335563094969
 30
0.0
  0
VERTEX
  5
4162
  8
0
 10
131.8476462223964916
 20
203.5718704114142099
 30
0.0
  0
VERTEX
  5
4163
  8
0
 10
131.8550476785283934
 20
203.4940950356804024
 30
0.0
  0
VERTEX
  5
4164
  8
0
 10
131.8620086637357929
 20
203.4159532526915939
 30
0.0
  0
VERTEX
  5
4165
  8
0
 10
131.8653233119775052
 20
203.3767594387119004
 30
0.0
  0
VERTEX
  5
4166
  8
0
 10
131.8685271086324065
 20
203.337491454726802
 30
0.0
  0
VERTEX
  5
4167
  8
0
 10
131.8746014866098903
 20
203.2587564234393938
 30
0.0
  0
VERTEX
  5
4168
  8
0
 10
131.8802308223511943
 20
203.179795144543391
 30
0.0
  0
VERTEX
  5
4169
  8
0
 10
131.8854146961537026
 20
203.1006546162805932
 30
0.0
  0
VERTEX
  5
416A
  8
0
 10
131.8901532432373074
 20
203.0213816648025045
 30
0.0
  0
VERTEX
  5
416B
  8
0
 10
131.8944471250397044
 20
202.9420232230665135
 30
0.0
  0
VERTEX
  5
416C
  8
0
 10
131.8964276551863861
 20
202.9023268598267862
 30
0.0
  0
VERTEX
  5
416D
  8
0
 10
131.8982974871387057
 20
202.8626271517130988
 30
0.0
  0
VERTEX
  5
416E
  8
0
 10
131.9017059775405869
 20
202.783242278889702
 30
0.0
  0
VERTEX
  5
416F
  8
0
 10
131.9046747752458941
 20
202.7039182123924093
 30
0.0
  0
VERTEX
  5
4170
  8
0
 10
131.9072066138205059
 20
202.6247051491824038
 30
0.0
  0
VERTEX
  5
4171
  8
0
 10
131.9093048000302133
 20
202.5456536833260088
 30
0.0
  0
VERTEX
  5
4172
  8
0
 10
131.9109732276309046
 20
202.4668146123763961
 30
0.0
  0
VERTEX
  5
4173
  8
0
 10
131.9116476615720046
 20
202.4274906068442021
 30
0.0
  0
VERTEX
  5
4174
  8
0
 10
131.9122163863812034
 20
202.3882387420736961
 30
0.0
  0
VERTEX
  5
4175
  8
0
 10
131.9130393663101017
 20
202.3099766891037063
 30
0.0
  0
VERTEX
  5
4176
  8
0
 10
131.9134478572372018
 20
202.2320786815305951
 30
0.0
  0
VERTEX
  5
4177
  8
0
 10
131.9134986102019127
 20
202.1932817350318885
 30
0.0
  0
VERTEX
  5
4178
  8
0
 10
131.9134478572372018
 20
202.1544847885330967
 30
0.0
  0
VERTEX
  5
4179
  8
0
 10
131.913039366310386
 20
202.0765867809600138
 30
0.0
  0
VERTEX
  5
417A
  8
0
 10
131.9122163863814876
 20
201.9983247279901946
 30
0.0
  0
VERTEX
  5
417B
  8
0
 10
131.9116476615722036
 20
201.9590728632196885
 30
0.0
  0
VERTEX
  5
417C
  8
0
 10
131.9109732276311888
 20
201.9197488576874093
 30
0.0
  0
VERTEX
  5
417D
  8
0
 10
131.9093048000304975
 20
201.8409097867379103
 30
0.0
  0
VERTEX
  5
417E
  8
0
 10
131.9072066138209038
 20
201.7618583208814869
 30
0.0
  0
VERTEX
  5
417F
  8
0
 10
131.904674775246292
 20
201.6826452576715099
 30
0.0
  0
VERTEX
  5
4180
  8
0
 10
131.9017059775410985
 20
201.6033211911743024
 30
0.0
  0
VERTEX
  5
4181
  8
0
 10
131.8982974871393878
 20
201.5239363183507919
 30
0.0
  0
VERTEX
  5
4182
  8
0
 10
131.8964276551870967
 20
201.4842366102373035
 30
0.0
  0
VERTEX
  5
4183
  8
0
 10
131.8944471250403865
 20
201.4445402469974056
 30
0.0
  0
VERTEX
  5
4184
  8
0
 10
131.8901532432379895
 20
201.3651818052614999
 30
0.0
  0
VERTEX
  5
4185
  8
0
 10
131.8854146961546121
 20
201.2859088537834964
 30
0.0
  0
VERTEX
  5
4186
  8
0
 10
131.8802308223521891
 20
201.2067683255206134
 30
0.0
  0
VERTEX
  5
4187
  8
0
 10
131.8746014866107998
 20
201.1278070466244969
 30
0.0
  0
VERTEX
  5
4188
  8
0
 10
131.8685271086334012
 20
201.0490720153370887
 30
0.0
  0
VERTEX
  5
4189
  8
0
 10
131.8653233119786137
 20
201.009804031351905
 30
0.0
  0
VERTEX
  5
418A
  8
0
 10
131.8620086637371003
 20
200.9706102173720978
 30
0.0
  0
VERTEX
  5
418B
  8
0
 10
131.8550476785295871
 20
200.8924684343834031
 30
0.0
  0
VERTEX
  5
418C
  8
0
 10
131.8476462223977137
 20
200.8146930586495102
 30
0.0
  0
VERTEX
  5
418D
  8
0
 10
131.8398068948401942
 20
200.7373299137541096
 30
0.0
  0
VERTEX
  5
418E
  8
0
 10
131.831532808649996
 20
200.6604240810684985
 30
0.0
  0
VERTEX
  5
418F
  8
0
 10
131.8228275689224915
 20
200.5840197318813978
 30
0.0
  0
VERTEX
  5
4190
  8
0
 10
131.8183145215699881
 20
200.5460191282180062
 30
0.0
  0
VERTEX
  5
4191
  8
0
 10
131.813695247836705
 20
200.5081599650785051
 30
0.0
  0
VERTEX
  5
4192
  8
0
 10
131.8041403423646898
 20
200.4328865522471119
 30
0.0
  0
VERTEX
  5
4193
  8
0
 10
131.7941658819273982
 20
200.3582262424073122
 30
0.0
  0
VERTEX
  5
4194
  8
0
 10
131.7837756394685016
 20
200.2842095028319989
 30
0.0
  0
VERTEX
  5
4195
  8
0
 10
131.7729751824415132
 20
200.2108765388032054
 30
0.0
  0
VERTEX
  5
4196
  8
0
 10
131.7617706403549107
 20
200.1382671698443971
 30
0.0
  0
VERTEX
  5
4197
  8
0
 10
131.7560189044575907
 20
200.1022461254449922
 30
0.0
  0
VERTEX
  5
4198
  8
0
 10
131.750168695855308
 20
200.0664206428039051
 30
0.0
  0
VERTEX
  5
4199
  8
0
 10
131.7381765719534883
 20
199.9953754542806905
 30
0.0
  0
VERTEX
  5
419A
  8
0
 10
131.7258020154521887
 20
199.9251691821582142
 30
0.0
  0
VERTEX
  5
419B
  8
0
 10
131.7130532765945077
 20
199.8558383259766913
 30
0.0
  0
VERTEX
  5
419C
  8
0
 10
131.6999390849200893
 20
199.7874181558661917
 30
0.0
  0
VERTEX
  5
419D
  8
0
 10
131.6864686212825006
 20
199.7199425697583024
 30
0.0
  0
VERTEX
  5
419E
  8
0
 10
131.6796027721304938
 20
199.6865691802703964
 30
0.0
  0
VERTEX
  5
419F
  8
0
 10
131.6726514859427937
 20
199.6534439586085909
 30
0.0
  0
VERTEX
  5
41A0
  8
0
 10
131.6584976692342082
 20
199.5879531093600008
 30
0.0
  0
VERTEX
  5
41A1
  8
0
 10
131.6440176288014925
 20
199.5234995923117935
 30
0.0
  0
VERTEX
  5
41A2
  8
0
 10
131.6366587064883049
 20
199.4916708894442081
 30
0.0
  0
VERTEX
  5
41A3
  8
0
 10
131.629222422945702
 20
199.4601122963557032
 30
0.0
  0
VERTEX
  5
41A4
  8
0
 10
131.614123717749294
 20
199.3978193284887936
 30
0.0
  0
VERTEX
  5
41A5
  8
0
 10
131.5987337704009121
 20
199.3366478283845993
 30
0.0
  0
VERTEX
  5
41A6
  8
0
 10
131.5909335680244112
 20
199.3064908028291882
 30
0.0
  0
VERTEX
  5
41A7
  8
0
 10
131.583065409010004
 20
199.2766237965603011
 30
0.0
  0
VERTEX
  5
41A8
  8
0
 10
131.5671320090170866
 20
199.2177719357407
 30
0.0
  0
VERTEX
  5
41A9
  8
0
 10
131.5509474662526941
 20
199.1601155049256135
 30
0.0
  0
VERTEX
  5
41AA
  8
0
 10
131.5345261666450085
 20
199.1036761856194062
 30
0.0
  0
VERTEX
  5
41AB
  8
0
 10
131.5178829525179935
 20
199.0484739596487884
 30
0.0
  0
VERTEX
  5
41AC
  8
0
 10
131.5010330853745018
 20
198.994526997975413
 30
0.0
  0
VERTEX
  5
41AD
  8
0
 10
131.4925322643074139
 20
198.9680193027787141
 30
0.0
  0
VERTEX
  5
41AE
  8
0
 10
131.4839455373160035
 20
198.9417098161023887
 30
0.0
  0
VERTEX
  5
41AF
  8
0
 10
131.4664864745319903
 20
198.8896120130580982
 30
0.0
  0
VERTEX
  5
41B0
  8
0
 10
131.4486505948115109
 20
198.8382439208124879
 30
0.0
  0
VERTEX
  5
41B1
  8
0
 10
131.4304431062685978
 20
198.7876464234009859
 30
0.0
  0
VERTEX
  5
41B2
  8
0
 10
131.4118696655297072
 20
198.7378592792246081
 30
0.0
  0
VERTEX
  5
41B3
  8
0
 10
131.3929363481555015
 20
198.6889210191347104
 30
0.0
  0
VERTEX
  5
41B4
  8
0
 10
131.3833367411704955
 20
198.6647819032544078
 30
0.0
  0
VERTEX
  5
41B5
  8
0
 10
131.3736496170809005
 20
198.6408688554807043
 30
0.0
  0
VERTEX
  5
41B6
  8
0
 10
131.3540162889916019
 20
198.5937386017172912
 30
0.0
  0
VERTEX
  5
41B7
  8
0
 10
131.3340434985649097
 20
198.5475646022788965
 30
0.0
  0
VERTEX
  5
41B8
  8
0
 10
131.3239321122129013
 20
198.5248465138975007
 30
0.0
  0
SEQEND
  5
41B9
  8
0
  0
POLYLINE
  5
2DED
  8
0
 66
     1
 10
0.0
 20
0.0
 30
0.0
  0
VERTEX
  5
41BA
  8
0
 10
130.9082406472022058
 20
197.8931793342474066
 30
0.0
  0
VERTEX
  5
41BB
  8
0
 10
130.8949372974512073
 20
197.8809756701045899
 30
0.0
  0
VERTEX
  5
41BC
  8
0
 10
130.8682094092658019
 20
197.8577286247397922
 30
0.0
  0
VERTEX
  5
41BD
  8
0
 10
130.8413330930796974
 20
197.8360338153401869
 30
0.0
  0
VERTEX
  5
41BE
  8
0
 10
130.8278442768244076
 20
197.8257699801274043
 30
0.0
  0
VERTEX
  5
41BF
  8
0
 10
130.8143243883147875
 20
197.8158957284088899
 30
0.0
  0
VERTEX
  5
41C0
  8
0
 10
130.787199573809005
 20
197.7973168178189098
 30
0.0
  0
VERTEX
  5
41C1
  8
0
 10
130.7599751133957113
 20
197.780297473760811
 30
0.0
  0
VERTEX
  5
41C2
  8
0
 10
130.7326675996507106
 20
197.7648360054994043
 30
0.0
  0
VERTEX
  5
41C3
  8
0
 10
130.7052936959312035
 20
197.7509286379757896
 30
0.0
  0
VERTEX
  5
41C4
  8
0
 10
130.6778701458756018
 20
197.7385695514419979
 30
0.0
  0
VERTEX
  5
41C5
  8
0
 10
130.6641450703945111
 20
197.732968267260901
 30
0.0
  0
VERTEX
  5
41C6
  8
0
 10
130.6504140162060992
 20
197.7277509975903911
 30
0.0
  0
VERTEX
  5
41C7
  8
0
 10
130.6229427792987963
 20
197.7184632796493133
 30
0.0
  0
VERTEX
  5
41C8
  8
0
 10
130.5954742595349103
 20
197.7106946677870098
 30
0.0
  0
VERTEX
  5
41C9
  8
0
 10
130.5680265753852893
 20
197.7044313292190907
 30
0.0
  0
VERTEX
  5
41CA
  8
0
 10
130.5406180809627017
 20
197.6996572744008063
 30
0.0
  0
VERTEX
  5
41CB
  8
0
 10
130.5132673069578004
 20
197.6963543187698065
 30
0.0
  0
VERTEX
  5
41CC
  8
0
 10
130.4996193895354963
 20
197.6952482142779104
 30
0.0
  0
VERTEX
  5
41CD
  8
0
 10
130.4859929008314054
 20
197.6945020596236873
 30
0.0
  0
VERTEX
  5
41CE
  8
0
 10
130.4588135660862918
 20
197.6940778678496997
 30
0.0
  0
VERTEX
  5
41CF
  8
0
 10
130.4317480003938954
 20
197.695056894371703
 30
0.0
  0
VERTEX
  5
41D0
  8
0
 10
130.4182637068304018
 20
197.6960642470457969
 30
0.0
  0
SEQEND
  5
41D1
  8
0
  0
POLYLINE
  5
2DEE
  8
0
 66
     1
 10
0.0
 20
0.0
 30
0.0
  0
VERTEX
  5
41D2
  8
0
 10
130.4182637068304018
 20
197.6960642470457969
 30
0.0
  0
VERTEX
  5
41D3
  8
0
 10
130.3648970654327002
 20
197.703424302695197
 30
0.0
  0
VERTEX
  5
41D4
  8
0
 10
130.256200441825797
 20
197.7349801217604011
 30
0.0
  0
VERTEX
  5
41D5
  8
0
 10
130.1458095767235932
 20
197.7897716087472872
 30
0.0
  0
VERTEX
  5
41D6
  8
0
 10
130.0903258453363947
 20
197.8260541885296959
 30
0.0
  0
VERTEX
  5
41D7
  8
0
 10
130.0348322359953102
 20
197.8682933686282865
 30
0.0
  0
VERTEX
  5
41D8
  8
0
 10
129.9702608525375069
 20
197.9250805312586863
 30
0.0
  0
VERTEX
  5
41D9
  8
0
 10
129.9518745755671034
 20
197.9427817568154921
 30
0.0
  0
VERTEX
  5
41DA
  8
0
 10
129.9335255348975124
 20
197.9611348149007881
 30
0.0
  0
VERTEX
  5
41DB
  8
0
 10
129.9243665671847907
 20
197.9705548784610869
 30
0.0
  0
VERTEX
  5
41DC
  8
0
 10
129.9152188118412994
 20
197.9801367735055919
 30
0.0
  0
VERTEX
  5
41DD
  8
0
 10
129.8969594574544999
 20
197.9997843560585977
 30
0.0
  0
VERTEX
  5
41DE
  8
0
 10
129.8787524854884907
 20
198.0200739515179009
 30
0.0
  0
VERTEX
  5
41DF
  8
0
 10
129.8606028653682074
 20
198.0410016255731023
 30
0.0
  0
VERTEX
  5
41E0
  8
0
 10
129.8425155151925878
 20
198.0625631329839962
 30
0.0
  0
VERTEX
  5
41E1
  8
0
 10
129.8244952947580941
 20
198.084753931088386
 30
0.0
  0
VERTEX
  5
41E2
  8
0
 10
129.8155117095697051
 20
198.0960840070760867
 30
0.0
  0
VERTEX
  5
41E3
  8
0
 10
129.80654599325959
 20
198.1075704925873993
 30
0.0
  0
VERTEX
  5
41E4
  8
0
 10
129.7886704062250089
 20
198.131010412463695
 30
0.0
  0
VERTEX
  5
41E5
  8
0
 10
129.7708732837627963
 20
198.1550685618981902
 30
0.0
  0
VERTEX
  5
41E6
  8
0
 10
129.7531594319254111
 20
198.1797393705784032
 30
0.0
  0
VERTEX
  5
41E7
  8
0
 10
129.7355336511955954
 20
198.2050168967521984
 30
0.0
  0
VERTEX
  5
41E8
  8
0
 10
129.7180007284947862
 20
198.2308948314525878
 30
0.0
  0
VERTEX
  5
41E9
  8
0
 10
129.709270579167594
 20
198.2440568813026971
 30
0.0
  0
VERTEX
  5
41EA
  8
0
 10
129.7005654292983934
 20
198.2573665037216131
 30
0.0
  0
VERTEX
  5
41EB
  8
0
 10
129.6832324898539923
 20
198.284424886841407
 30
0.0
  0
VERTEX
  5
41EC
  8
0
 10
129.6660066094997035
 20
198.3120626055849982
 30
0.0
  0
VERTEX
  5
41ED
  8
0
 10
129.6488924430765906
 20
198.3402719445006994
 30
0.0
  0
VERTEX
  5
41EE
  8
0
 10
129.631894593433401
 20
198.3690448572540959
 30
0.0
  0
VERTEX
  5
41EF
  8
0
 10
129.6150176040210908
 20
198.3983729770492062
 30
0.0
  0
VERTEX
  5
41F0
  8
0
 10
129.6066258336855128
 20
198.4132425401523108
 30
0.0
  0
VERTEX
  5
41F1
  8
0
 10
129.598265951574291
 20
198.4282476281607899
 30
0.0
  0
VERTEX
  5
41F2
  8
0
 10
129.5816440388798014
 20
198.4586598386104015
 30
0.0
  0
VERTEX
  5
41F3
  8
0
 10
129.5651561876316009
 20
198.4896003540233096
 30
0.0
  0
VERTEX
  5
41F4
  8
0
 10
129.5488066313727984
 20
198.5210596527107043
 30
0.0
  0
VERTEX
  5
41F5
  8
0
 10
129.5325995085582917
 20
198.5530279619586906
 30
0.0
  0
VERTEX
  5
41F6
  8
0
 10
129.5165388682098069
 20
198.5854952500480977
 30
0.0
  0
VERTEX
  5
41F7
  8
0
 10
129.5085647315736139
 20
198.6019127815133061
 30
0.0
  0
VERTEX
  5
41F8
  8
0
 10
129.5006287152095865
 20
198.618451132967806
 30
0.0
  0
VERTEX
  5
41F9
  8
0
 10
129.4848730240084933
 20
198.6518848345085075
 30
0.0
  0
VERTEX
  5
41FA
  8
0
 10
129.4692757295609908
 20
198.6857851909969099
 30
0.0
  0
VERTEX
  5
41FB
  8
0
 10
129.461537697682104
 20
198.7029067719155933
 30
0.0
  0
VERTEX
  5
41FC
  8
0
 10
129.4538407179514934
 20
198.7201406581505125
 30
0.0
  0
VERTEX
  5
41FD
  8
0
 10
129.4385718172322868
 20
198.7549393190425064
 30
0.0
  0
VERTEX
  5
41FE
  8
0
 10
129.4234727884735037
 20
198.7901688931829938
 30
0.0
  0
VERTEX
  5
41FF
  8
0
 10
129.4159881309433899
 20
198.8079413381452127
 30
0.0
  0
VERTEX
  5
4200
  8
0
 10
129.4085473170248122
 20
198.8258167467263888
 30
0.0
  0
VERTEX
  5
4201
  8
0
 10
129.3937990039906936
 20
198.8618699038210877
 30
0.0
  0
VERTEX
  5
4202
  8
0
 10
129.3792313579174902
 20
198.8983150591269009
 30
0.0
  0
VERTEX
  5
4203
  8
0
 10
129.364847786695492
 20
198.9351385915263108
 30
0.0
  0
VERTEX
  5
4204
  8
0
 10
129.3506515896731059
 20
198.972326579067186
 30
0.0
  0
VERTEX
  5
4205
  8
0
 10
129.3366459499866039
 20
199.0098648151773091
 30
0.0
  0
VERTEX
  5
4206
  8
0
 10
129.3297155502588112
 20
199.0287607633536879
 30
0.0
  0
VERTEX
  5
4207
  8
0
 10
129.3228339271061031
 20
199.0477388262002876
 30
0.0
  0
VERTEX
  5
4208
  8
0
 10
129.3092184495984895
 20
199.085933890307814
 30
0.0
  0
VERTEX
  5
4209
  8
0
 10
129.2958013602682001
 20
199.1244378090162002
 30
0.0
  0
VERTEX
  5
420A
  8
0
 10
129.2825138336627901
 20
199.1634478397064925
 30
0.0
  0
VERTEX
  5
420B
  8
0
 10
129.2693173822275128
 20
199.2030880485299917
 30
0.0
  0
VERTEX
  5
420C
  8
0
 10
129.2562194180945028
 20
199.2433515430359137
 30
0.0
  0
VERTEX
  5
420D
  8
0
 10
129.2497096617047134
 20
199.2637147348831945
 30
0.0
  0
VERTEX
  5
420E
  8
0
 10
129.2432272669364011
 20
199.2842309438939026
 30
0.0
  0
VERTEX
  5
420F
  8
0
 10
129.2303481575193018
 20
199.3257184040527079
 30
0.0
  0
VERTEX
  5
4210
  8
0
 10
129.2175892116617888
 20
199.3678056292878864
 30
0.0
  0
VERTEX
  5
4211
  8
0
 10
129.2049574345925862
 20
199.4104839002229141
 30
0.0
  0
VERTEX
  5
4212
  8
0
 10
129.1924597057038966
 20
199.4537440959070125
 30
0.0
  0
VERTEX
  5
4213
  8
0
 10
129.18010276970071
 20
199.4975767190306044
 30
0.0
  0
VERTEX
  5
4214
  8
0
 10
129.1739791678363076
 20
199.5197046266549137
 30
0.0
  0
VERTEX
  5
4215
  8
0
 10
129.167893228156089
 20
199.5419719228627002
 30
0.0
  0
VERTEX
  5
4216
  8
0
 10
129.155837531482689
 20
199.5869195399864964
 30
0.0
  0
VERTEX
  5
4217
  8
0
 10
129.1439419713398138
 20
199.6324091129091869
 30
0.0
  0
VERTEX
  5
4218
  8
0
 10
129.1322126734982874
 20
199.6784299266217886
 30
0.0
  0
VERTEX
  5
4219
  8
0
 10
129.1206555911907969
 20
199.7249710431713936
 30
0.0
  0
VERTEX
  5
421A
  8
0
 10
129.1092764989803925
 20
199.7720213383109069
 30
0.0
  0
VERTEX
  5
421B
  8
0
 10
129.1036554538804921
 20
199.7957339083565103
 30
0.0
  0
VERTEX
  5
421C
  8
0
 10
129.0980809920326919
 20
199.8195695194125108
 30
0.0
  0
VERTEX
  5
421D
  8
0
 10
129.0870745224387974
 20
199.8676039807803022
 30
0.0
  0
VERTEX
  5
421E
  8
0
 10
129.0762624253615058
 20
199.9161126790291121
 30
0.0
  0
VERTEX
  5
421F
  8
0
 10
129.0656499108883963
 20
199.9650831465052931
 30
0.0
  0
VERTEX
  5
4220
  8
0
 10
129.055242053850094
 20
200.0145025164962078
 30
0.0
  0
VERTEX
  5
4221
  8
0
 10
129.0450437842251006
 20
200.0643575495799951
 30
0.0
  0
VERTEX
  5
4222
  8
0
 10
129.0400247434737935
 20
200.089444207303103
 30
0.0
  0
VERTEX
  5
4223
  8
0
 10
129.0350598781317046
 20
200.114634661171209
 30
0.0
  0
VERTEX
  5
4224
  8
0
 10
129.0252949494160077
 20
200.1653199503134033
 30
0.0
  0
VERTEX
  5
4225
  8
0
 10
129.0157534418395073
 20
200.2163992297718096
 30
0.0
  0
VERTEX
  5
4226
  8
0
 10
129.0110678113630058
 20
200.2420821117896992
 30
0.0
  0
VERTEX
  5
4227
  8
0
 10
129.0064396218843115
 20
200.2678580574801117
 30
0.0
  0
VERTEX
  5
4228
  8
0
 10
128.9973575721874113
 20
200.3196817693921901
 30
0.0
  0
VERTEX
  5
4229
  8
0
 10
128.9885111856256117
 20
200.3718555137897113
 30
0.0
  0
VERTEX
  5
422A
  8
0
 10
128.9841775293517117
 20
200.3980689644729978
 30
0.0
  0
VERTEX
  5
422B
  8
0
 10
128.9799041600703902
 20
200.4243642870922884
 30
0.0
  0
VERTEX
  5
422C
  8
0
 10
128.9715399938421001
 20
200.4771929712165104
 30
0.0
  0
VERTEX
  5
422D
  8
0
 10
128.9634219816813925
 20
200.5303263738994133
 30
0.0
  0
VERTEX
  5
422E
  8
0
 10
128.9555522979310922
 20
200.5837555903343059
 30
0.0
  0
VERTEX
  5
422F
  8
0
 10
128.9479331328275862
 20
200.6374710951799045
 30
0.0
  0
VERTEX
  5
4230
  8
0
 10
128.9405674434410969
 20
200.6914570146365975
 30
0.0
  0
VERTEX
  5
4231
  8
0
 10
128.9369805288096984
 20
200.7185463289370091
 30
0.0
  0
VERTEX
  5
4232
  8
0
 10
128.9334580125508865
 20
200.7456971477159868
 30
0.0
  0
VERTEX
  5
4233
  8
0
 10
128.9266074400219964
 20
200.8001749986233051
 30
0.0
  0
VERTEX
  5
4234
  8
0
 10
128.9200181349764023
 20
200.8548738100793969
 30
0.0
  0
VERTEX
  5
4235
  8
0
 10
128.9136923087633022
 20
200.9097765976015069
 30
0.0
  0
VERTEX
  5
4236
  8
0
 10
128.9076319687389969
 20
200.9648661847693916
 30
0.0
  0
VERTEX
  5
4237
  8
0
 10
128.9018389128684987
 20
201.0201252395052904
 30
0.0
  0
VERTEX
  5
4238
  8
0
 10
128.8990431199586908
 20
201.0478128675374876
 30
0.0
  0
VERTEX
  5
4239
  8
0
 10
128.8963147251600105
 20
201.075536311397201
 30
0.0
  0
VERTEX
  5
423A
  8
0
 10
128.891060771948986
 20
201.1310818700960965
 30
0.0
  0
VERTEX
  5
423B
  8
0
 10
128.8860781990487112
 20
201.186744344821193
 30
0.0
  0
VERTEX
  5
423C
  8
0
 10
128.8836889774808014
 20
201.2146139337475859
 30
0.0
  0
SEQEND
  5
423D
  8
0
  0
LINE
  5
2DEF
  8
0
 10
106.8240575042101028
 20
206.8932817350249991
 30
0.0
 11
106.8240575042101028
 21
197.4932817350249081
 31
0.0
  0
LINE
  5
2DF0
  8
0
 10
131.3240575042100886
 20
206.4932817350249081
 30
0.0
 11
131.3240575042100886
 21
197.8932817350249991
 31
0.0
  0
LINE
  5
2DF1
  8
0
 10
107.1240575042101995
 20
207.1932817350248968
 30
0.0
 11
107.1240575042101995
 21
197.1932817350248968
 31
0.0
  0
LINE
  5
2DF2
  8
1
 10
140.6910989232262921
 20
202.1932817350248968
 30
0.0
 11
76.5240575042104183
 21
202.1932817350250104
 31
0.0
  0
LINE
  5
2DF3
  8
3
 10
87.5240575042101909
 20
119.8142817350246929
 30
0.0
 11
89.5240575042102051
 21
119.8142817350246929
 31
0.0
  0
LINE
  5
2DF4
  8
3
 10
87.5240575042101909
 20
116.5722817350248022
 30
0.0
 11
89.5240575042102051
 21
116.5722817350248022
 31
0.0
  0
LINE
  5
2DF5
  8
0
 10
101.0240575042102051
 20
129.1932817350248115
 30
0.0
 11
95.5240575042101909
 21
129.1932817350248115
 31
0.0
  0
ARC
  5
2DF6
  8
0
 10
101.0240575042102051
 20
131.1932817350248115
 30
0.0
 40
2.0
 50
270.0
 51
90.0
  0
LINE
  5
2DF7
  8
0
 10
93.9961934592098487
 20
133.1932817350248115
 30
0.0
 11
101.0240575042102051
 21
133.1932817350248115
 31
0.0
  0
ARC
  5
2DF8
  8
0
 10
89.5240575042102051
 20
129.1932817350248115
 30
0.0
 40
6.0000000000000018
 50
41.8103148957752566
 51
250.5287793655070914
  0
ARC
  5
2DF9
  8
0
 10
89.5240575042102051
 20
129.1932817350248115
 30
0.0
 40
6.0
 50
270.0
 51
0.0
  0
LINE
  5
2DFA
  8
2
 10
83.5240575042101767
 20
194.9932817350247944
 30
0.0
 11
83.5240575042101767
 21
209.3932817350248001
 31
0.0
  0
LINE
  5
2DFB
  8
2
 10
95.5240575042101909
 20
194.9932817350247944
 30
0.0
 11
95.5240575042101909
 21
209.3932817350248001
 31
0.0
  0
LINE
  5
2DFC
  8
1
 10
98.5240575042102051
 20
129.1932817350248115
 30
0.0
 11
80.5240575042101909
 21
129.1932817350248115
 31
0.0
  0
LINE
  5
34B7
  8
0
 10
91.0240575253877751
 20
113.693281785192994
 30
0.0
 11
92.8421894234885485
 21
113.693281785192994
 31
0.0
  0
ARC
  5
34B8
  8
0
 10
89.5240575042102051
 20
168.6932818298928964
 30
0.0
 40
55.1000002985417581
 50
273.4524510955047845
 51
285.7971452799937992
  0
LINE
  5
34B9
  8
0
 10
104.5240572502330991
 20
115.6743222587765985
 30
0.0
 11
104.5240572502330991
 21
120.4432815312157032
 31
0.0
  0
LINE
  5
34BA
  8
0
 10
91.0240575253877751
 20
120.4432815312157032
 30
0.0
 11
104.5240572502330991
 21
120.4432815312157032
 31
0.0
  0
LINE
  5
34BB
  8
0
 10
91.0240575253877751
 20
120.4432815312157032
 30
0.0
 11
91.0240575253877751
 21
113.693281785192994
 31
0.0
  0
ARC
  5
34BC
  8
0
 10
89.5240575042102051
 20
168.6932818298928964
 30
0.0
 40
55.100000298541751
 50
254.2028547200062008
 51
266.358070229004511
  0
LINE
  5
34BD
  8
0
 10
86.0240573771469457
 20
113.7045554450540976
 30
0.0
 11
86.0240573771469457
 21
120.4432815312157032
 31
0.0
  0
LINE
  5
34BE
  8
0
 10
86.0240573771469457
 20
120.4432815312157032
 30
0.0
 11
74.5240577581877233
 21
120.4432815312157032
 31
0.0
  0
LINE
  5
34BF
  8
0
 10
74.5240577581877233
 20
120.4432815312157032
 30
0.0
 11
74.5240577581877233
 21
115.6743222587765985
 31
0.0
  0
LINE
  5
34C0
  8
0
 10
78.5240575042104041
 20
118.1932816159248034
 30
0.0
 11
74.5240577581877233
 21
118.1932816159248034
 31
0.0
  0
LINE
  5
34C1
  8
0
 10
77.524057334792019
 20
114.9158699468980984
 30
0.0
 11
77.524057334792019
 21
120.4432815312157032
 31
0.0
  0
LINE
  5
34C2
  8
0
 10
78.5240575042104041
 20
120.4432815312157032
 30
0.0
 11
78.5240575042104041
 21
114.7024489700518046
 31
0.0
  0
TEXT
  5
359B
  8
0
 62
     3
 10
0.0
 20
0.0
 30
0.0
 40
10.0
  1
SKPZN04-12
  7
STANDARD1
  0
CIRCLE
  5
35C0
  8
0
 10
89.5240575042102051
 20
151.1932817350248115
 30
0.0
 40
3.1000000000000001
  0
ENDSEC
  0
EOF
