  0
SECTION
  2
HEADER
  9
$ACADVER
  1
AC1009
  9
$INSBASE
 10
0.0
 20
0.0
 30
0.0
  9
$EXTMIN
 10
0.0
 20
-2.960436562073669
 30
0.0
  9
$EXTMAX
 10
168.53559114630389
 20
179.74708744699089
 30
0.0
  9
$LIMMIN
 10
0.0
 20
0.0
  9
$LIMMAX
 10
375.0
 20
270.0
  9
$ORTHOMODE
 70
     1
  9
$REGENMODE
 70
     1
  9
$FILLMODE
 70
     1
  9
$QTEXTMODE
 70
     0
  9
$MIRRTEXT
 70
     0
  9
$DRAGMODE
 70
     2
  9
$LTSCALE
 40
10.0
  9
$OSMODE
 70
    55
  9
$ATTMODE
 70
     1
  9
$TEXTSIZE
 40
4.000000000000048
  9
$TRACEWID
 40
0.05
  9
$TEXTSTYLE
  7
STANDARD
  9
$CLAYER
  8
0
  9
$CELTYPE
  6
BYLAYER
  9
$CECOLOR
 62
   256
  9
$DIMSCALE
 40
1.0
  9
$DIMASZ
 40
3.0
  9
$DIMEXO
 40
2.0
  9
$DIMDLI
 40
0.38
  9
$DIMRND
 40
0.0
  9
$DIMDLE
 40
0.0
  9
$DIMEXE
 40
2.0
  9
$DIMTP
 40
0.0
  9
$DIMTM
 40
0.0
  9
$DIMTXT
 40
3.2000000000000002
  9
$DIMCEN
 40
0.0
  9
$DIMTSZ
 40
0.0
  9
$DIMTOL
 70
     0
  9
$DIMLIM
 70
     0
  9
$DIMTIH
 70
     0
  9
$DIMTOH
 70
     0
  9
$DIMSE1
 70
     0
  9
$DIMSE2
 70
     0
  9
$DIMTAD
 70
     1
  9
$DIMZIN
 70
     0
  9
$DIMBLK
  1

  9
$DIMASO
 70
     0
  9
$DIMSHO
 70
     0
  9
$DIMPOST
  1

  9
$DIMAPOST
  1

  9
$DIMALT
 70
     0
  9
$DIMALTD
 70
     2
  9
$DIMALTF
 40
25.399999999999999
  9
$DIMLFAC
 40
1.0
  9
$DIMTOFL
 70
     0
  9
$DIMTVP
 40
1.6000000000000001
  9
$DIMTIX
 70
     1
  9
$DIMSOXD
 70
     0
  9
$DIMSAH
 70
     0
  9
$DIMBLK1
  1

  9
$DIMBLK2
  1

  9
$DIMSTYLE
  2
STANDARD
  9
$DIMCLRD
 70
     4
  9
$DIMCLRE
 70
     4
  9
$DIMCLRT
 70
     4
  9
$DIMTFAC
 40
1.0
  9
$DIMGAP
 40
0.09
  9
$LUNITS
 70
     2
  9
$LUPREC
 70
     1
  9
$SKETCHINC
 40
0.1
  9
$FILLETRAD
 40
22.0
  9
$AUNITS
 70
     0
  9
$AUPREC
 70
     0
  9
$MENU
  1
E:\r13\win\SUPPORT\ACAD
  9
$ELEVATION
 40
0.0
  9
$PELEVATION
 40
0.0
  9
$THICKNESS
 40
0.0
  9
$LIMCHECK
 70
     0
  9
$BLIPMODE
 70
     0
  9
$CHAMFERA
 40
1.1999999999999991
  9
$CHAMFERB
 40
1.1999999999999991
  9
$SKPOLY
 70
     0
  9
$TDCREATE
 40
2449954.6020138888
  9
$TDUPDATE
 40
2456598.502440162
  9
$TDINDWG
 40
0.7622098958
  9
$TDUSRTIMER
 40
0.7622098958
  9
$USRTIMER
 70
     1
  9
$ANGBASE
 50
0.0
  9
$ANGDIR
 70
     0
  9
$PDMODE
 70
     0
  9
$PDSIZE
 40
0.0
  9
$PLINEWID
 40
0.0
  9
$COORDS
 70
     1
  9
$SPLFRAME
 70
     0
  9
$SPLINETYPE
 70
     6
  9
$SPLINESEGS
 70
     8
  9
$ATTDIA
 70
     0
  9
$ATTREQ
 70
     1
  9
$HANDLING
 70
     1
  9
$HANDSEED
  5
557C
  9
$SURFTAB1
 70
     6
  9
$SURFTAB2
 70
     6
  9
$SURFTYPE
 70
     6
  9
$SURFU
 70
     6
  9
$SURFV
 70
     6
  9
$UCSNAME
  2

  9
$UCSORG
 10
0.0
 20
0.0
 30
0.0
  9
$UCSXDIR
 10
1.0
 20
0.0
 30
0.0
  9
$UCSYDIR
 10
0.0
 20
1.0
 30
0.0
  9
$PUCSNAME
  2

  9
$PUCSORG
 10
0.0
 20
0.0
 30
0.0
  9
$PUCSXDIR
 10
1.0
 20
0.0
 30
0.0
  9
$PUCSYDIR
 10
0.0
 20
1.0
 30
0.0
  9
$USERI1
 70
     0
  9
$USERI2
 70
     1
  9
$USERI3
 70
     0
  9
$USERI4
 70
     0
  9
$USERI5
 70
     0
  9
$USERR1
 40
0.0
  9
$USERR2
 40
0.0
  9
$USERR3
 40
0.0
  9
$USERR4
 40
0.0
  9
$USERR5
 40
0.0
  9
$WORLDVIEW
 70
     1
  9
$SHADEDGE
 70
     3
  9
$SHADEDIF
 70
    70
  9
$TILEMODE
 70
     1
  9
$MAXACTVP
 70
    16
  9
$PLIMCHECK
 70
     0
  9
$PEXTMIN
 10
1.0000000000000000E+020
 20
1.0000000000000000E+020
 30
1.0000000000000000E+020
  9
$PEXTMAX
 10
-1.0000000000000000E+020
 20
-1.0000000000000000E+020
 30
-1.0000000000000000E+020
  9
$PLIMMIN
 10
0.0
 20
0.0
  9
$PLIMMAX
 10
12.0
 20
9.0
  9
$UNITMODE
 70
     0
  9
$VISRETAIN
 70
     0
  9
$PLINEGEN
 70
     0
  9
$PSLTSCALE
 70
     0
  0
ENDSEC
  0
SECTION
  2
TABLES
  0
TABLE
  2
VPORT
 70
     1
  0
VPORT
  2
*ACTIVE
 70
     0
 10
0.0
 20
0.0
 11
1.0
 21
1.0
 12
187.49427839065231
 22
174.91677254346851
 13
0.0
 23
0.0
 14
10.0
 24
10.0
 15
10.0
 25
10.0
 16
0.0
 26
0.0
 36
1.0
 17
0.0
 27
0.0
 37
0.0
 40
358.92027899574339
 41
1.7807262569832401
 42
50.0
 43
0.0
 44
0.0
 50
0.0
 51
0.0
 71
     0
 72
   500
 73
     1
 74
     0
 75
     0
 76
     0
 77
     0
 78
     2
  0
ENDTAB
  0
TABLE
  2
LTYPE
 70
     4
  0
LTYPE
  2
CONTINUOUS
 70
     0
  3
Solid Line
 72
    65
 73
     0
 40
0.0
  0
LTYPE
  2
CENTER
 70
     0
  3
____ _ ____ _ ____ _ ____ _ ____ _ ____ _ ____
 72
    65
 73
     4
 40
2.0
 49
1.25
 49
-0.25
 49
0.25
 49
-0.25
  0
LTYPE
  2
HIDDEN
 70
     0
  3
_ _ _ _ _ _ _ _ _ _ _ _ _ _ _ _ _ _ _ _ _ _ _
 72
    65
 73
     2
 40
0.375
 49
0.25
 49
-0.125
  0
LTYPE
  2
PHANTOM2
 70
     0
  3
___ _ _ ___ _ _ ___ _ _ ___ _ _
 72
    65
 73
     6
 40
1.25
 49
0.625
 49
-0.125
 49
0.125
 49
-0.125
 49
0.125
 49
-0.125
  0
ENDTAB
  0
TABLE
  2
LAYER
 70
     5
  0
LAYER
  2
0
 70
     0
 62
     7
  6
CONTINUOUS
  0
LAYER
  2
1
 70
     0
 62
     1
  6
CENTER
  0
LAYER
  2
3
 70
     0
 62
     3
  6
CONTINUOUS
  0
LAYER
  2
2
 70
     0
 62
     2
  6
HIDDEN
  0
LAYER
  2
DEFPOINTS
 70
     0
 62
     7
  6
CONTINUOUS
  0
ENDTAB
  0
TABLE
  2
STYLE
 70
     2
  0
STYLE
  2
STANDARD
 70
     0
 40
0.0
 41
1.0
 50
0.0
 71
     0
 42
4.000000000000048
  3
SIMPLEX
  4
BIGFONT
  0
STYLE
  2
STANDARD1
 70
     0
 40
0.0
 41
1.0
 50
0.0
 71
     0
 42
3.0
  3
txt
  4

  0
ENDTAB
  0
TABLE
  2
VIEW
 70
     1
  0
VIEW
  2
ALL
 70
     0
 40
270.0
 10
220.78595317725751
 20
135.0
 41
441.57190635451502
 11
0.0
 21
0.0
 31
1.0
 12
0.0
 22
0.0
 32
0.0
 42
50.0
 43
0.0
 44
0.0
 50
0.0
 71
     0
  0
ENDTAB
  0
TABLE
  2
UCS
 70
     0
  0
ENDTAB
  0
TABLE
  2
APPID
 70
     4
  0
APPID
  2
ACAD
 70
     0
  0
APPID
  2
ACAD_EXEMPT_FROM_CAD_STANDARDS
 70
     0
  0
APPID
  2
ACAD_MLEADERVER
 70
     0
  0
APPID
  2
ACAD_NAV_VCDISPLAY
 70
     0
  0
ENDTAB
  0
TABLE
  2
DIMSTYLE
 70
     1
  0
DIMSTYLE
  2
STANDARD
 70
     0
  3

  4

  5

  6

  7

 40
1.0
 41
0.18
 42
0.0625
 43
0.38
 44
0.18
 45
0.0
 46
0.0
 47
0.0
 48
0.0
140
0.18
141
0.09
142
0.0
143
25.399999999999999
144
1.0
145
0.0
146
1.0
147
0.09
 71
     0
 72
     0
 73
     1
 74
     1
 75
     0
 76
     0
 77
     0
 78
     0
170
     0
171
     2
172
     0
173
     0
174
     0
175
     0
176
     0
177
     0
178
     0
  0
ENDTAB
  0
ENDSEC
  0
SECTION
  2
BLOCKS
  0
BLOCK
  8
0
  2
$MODEL_SPACE
 70
     0
 10
0.0
 20
0.0
 30
0.0
  3
$MODEL_SPACE
  1

  0
ENDBLK
  5
F3C
  8
0
  0
BLOCK
 67
     1
  8
0
  2
$PAPER_SPACE
 70
     0
 10
0.0
 20
0.0
 30
0.0
  3
$PAPER_SPACE
  1

  0
ENDBLK
  5
F3A
 67
     1
  8
0
  0
ENDSEC
  0
SECTION
  2
ENTITIES
  0
LINE
  5
506B
  8
3
 10
74.250397213595534
 20
163.54214721733661
 30
0.0
 11
74.336723831343065
 21
163.5483293365869
 31
0.0
  0
LINE
  5
506C
  8
3
 10
74.164248478459726
 20
163.5476848613653
 30
0.0
 11
74.250397213595534
 21
163.54214721733661
 31
0.0
  0
LINE
  5
506D
  8
3
 10
74.080906749563823
 20
163.56374831313221
 30
0.0
 11
74.164248478459726
 21
163.5476848613653
 31
0.0
  0
LINE
  5
506E
  8
3
 10
74.000727792131315
 20
163.58952359670729
 30
0.0
 11
74.080906749563823
 21
163.56374831313221
 31
0.0
  0
ARC
  5
506F
  8
0
 10
66.535591089027534
 20
96.747087446990918
 30
0.0
 40
80.000000000000028
 50
73.893756056764659
 51
106.1062439432351
  0
ARC
  5
5070
  8
0
 10
88.035591089027548
 20
171.20512932293599
 30
0.0
 40
2.5000000000000391
 50
0.0
 51
73.893756056764659
  0
ARC
  5
5071
  8
0
 10
88.035591089027548
 20
114.7890455710458
 30
0.0
 40
2.500000000000028
 50
286.10624394324162
 51
0.0
  0
ARC
  5
5072
  8
0
 10
66.535591089027534
 20
189.2470874469908
 30
0.0
 40
80.0
 50
253.89375605676489
 51
286.10624394323543
  0
ARC
  5
5073
  8
0
 10
45.035591089027548
 20
114.7890455710458
 30
0.0
 40
2.500000000000012
 50
180.0
 51
253.89375605676489
  0
LINE
  5
5074
  8
0
 10
42.535590880411291
 20
171.20512896591751
 30
0.0
 11
42.535590880411291
 21
114.7890458386573
 31
0.0
  0
ARC
  5
5075
  8
0
 10
45.035591089027548
 20
171.20512932293599
 30
0.0
 40
2.5000000000000142
 50
106.1062439432351
 51
180.0
  0
LINE
  5
5076
  8
0
 10
90.535591297643805
 20
114.7890458386573
 30
0.0
 11
90.535591297643805
 21
171.20512896591751
 31
0.0
  0
LINE
  5
5077
  8
3
 10
74.557591170864725
 20
163.63342428022949
 30
0.0
 11
74.617666133540297
 21
163.68080438489051
 31
0.0
  0
LINE
  5
5078
  8
3
 10
74.490558297234202
 20
163.59491781705941
 30
0.0
 11
74.557591170864725
 21
163.63342428022949
 31
0.0
  0
LINE
  5
5079
  8
3
 10
74.416863673227454
 20
163.5662349444064
 30
0.0
 11
74.490558297234202
 21
163.59491781705941
 31
0.0
  0
LINE
  5
507A
  8
3
 10
74.336723831343065
 20
163.5483293365869
 30
0.0
 11
74.416863673227454
 21
163.5662349444064
 31
0.0
  0
CIRCLE
  5
507B
  8
0
 10
49.535591089027548
 20
151.74708744699089
 30
0.0
 40
5.0
  0
CIRCLE
  5
507C
  8
0
 10
66.535591089027534
 20
164.74708744699089
 30
0.0
 40
3.0
  0
CIRCLE
  5
507D
  8
0
 10
83.535591089027548
 20
151.74708744699089
 30
0.0
 40
4.9999999999999707
  0
LINE
  5
507E
  8
3
 10
74.783598945336962
 20
163.94003243559931
 30
0.0
 11
74.805185139971385
 21
164.01751102322669
 31
0.0
  0
LINE
  5
507F
  8
3
 10
74.753788241046095
 20
163.86667029375161
 30
0.0
 11
74.783598945336962
 21
163.94003243559931
 31
0.0
  0
LINE
  5
5080
  8
3
 10
74.716031492548595
 20
163.79837827200021
 30
0.0
 11
74.753788241046095
 21
163.86667029375161
 31
0.0
  0
LINE
  5
5081
  8
3
 10
74.670565255778456
 20
163.736104456726
 30
0.0
 11
74.716031492548595
 21
163.79837827200021
 31
0.0
  0
LINE
  5
5082
  8
3
 10
74.617666133540297
 20
163.68080438489051
 30
0.0
 11
74.670565255778456
 21
163.736104456726
 31
0.0
  0
LINE
  5
5083
  8
3
 10
73.640752990590954
 20
163.04223933631511
 30
0.0
 11
73.534935188340555
 21
163.1051986050042
 31
0.0
  0
LINE
  5
5084
  8
3
 10
73.752204828756476
 20
162.98947804981799
 30
0.0
 11
73.640752990590954
 21
163.04223933631511
 31
0.0
  0
LINE
  5
5085
  8
3
 10
73.869389423030043
 20
162.9474716764125
 30
0.0
 11
73.752204828756476
 21
162.98947804981799
 31
0.0
  0
LINE
  5
5086
  8
3
 10
73.992365912395144
 20
162.91677155906291
 30
0.0
 11
73.869389423030043
 21
162.9474716764125
 31
0.0
  0
LINE
  5
5087
  8
3
 10
74.121193901496554
 20
162.89793276602359
 30
0.0
 11
73.992365912395144
 21
162.91677155906291
 31
0.0
  0
LINE
  5
5088
  8
3
 10
74.255932529317761
 20
162.8915289920005
 30
0.0
 11
74.121193901496554
 21
162.89793276602359
 31
0.0
  0
LINE
  5
5089
  8
3
 10
74.457071662741313
 20
162.903330711666
 30
0.0
 11
74.255932529317761
 21
162.8915289920005
 31
0.0
  0
LINE
  5
508A
  8
3
 10
74.644036532240534
 20
162.9379237573776
 30
0.0
 11
74.457071662741313
 21
162.903330711666
 31
0.0
  0
LINE
  5
508B
  8
3
 10
74.816215724545145
 20
162.99420358056159
 30
0.0
 11
74.644036532240534
 21
162.9379237573776
 31
0.0
  0
LINE
  5
508C
  8
3
 10
74.972956382530356
 20
163.0709948521289
 30
0.0
 11
74.816215724545145
 21
162.99420358056159
 31
0.0
  0
LINE
  5
508D
  8
3
 10
75.113644764619494
 20
163.1671594958934
 30
0.0
 11
74.972956382530356
 21
163.0709948521289
 31
0.0
  0
LINE
  5
508E
  8
3
 10
75.237629876332903
 20
163.281548259798
 30
0.0
 11
75.113644764619494
 21
163.1671594958934
 31
0.0
  0
LINE
  5
508F
  8
3
 10
75.344277486997271
 20
163.4130156170759
 30
0.0
 11
75.237629876332903
 21
163.281548259798
 31
0.0
  0
LINE
  5
5090
  8
3
 10
75.432957091229582
 20
163.56040672773449
 30
0.0
 11
75.344277486997271
 21
163.4130156170759
 31
0.0
  0
LINE
  5
5091
  8
3
 10
75.503034458356524
 20
163.7225797902974
 30
0.0
 11
75.432957091229582
 21
163.56040672773449
 31
0.0
  0
LINE
  5
5092
  8
3
 10
75.553877220349932
 20
163.8983836900625
 30
0.0
 11
75.503034458356524
 21
163.7225797902974
 31
0.0
  0
LINE
  5
5093
  8
3
 10
75.584853940504203
 20
164.0866747629079
 30
0.0
 11
75.553877220349932
 21
163.8983836900625
 31
0.0
  0
LINE
  5
5094
  8
3
 10
75.595310830372
 20
164.28630003148641
 30
0.0
 11
75.584853940504203
 21
164.0866747629079
 31
0.0
  0
LINE
  5
5095
  8
3
 10
75.584814824956084
 20
164.4740919154319
 30
0.0
 11
75.595310830372
 21
164.28630003148641
 31
0.0
  0
LINE
  5
5096
  8
3
 10
75.554312147992263
 20
164.6396419536504
 30
0.0
 11
75.584814824956084
 21
164.4740919154319
 31
0.0
  0
LINE
  5
5097
  8
3
 10
75.505327374535213
 20
164.7851368915471
 30
0.0
 11
75.554312147992263
 21
164.6396419536504
 31
0.0
  0
LINE
  5
5098
  8
3
 10
75.439400912123347
 20
164.9127653371724
 30
0.0
 11
75.505327374535213
 21
164.7851368915471
 31
0.0
  0
LINE
  5
5099
  8
3
 10
75.358035915392065
 20
165.02471776122181
 30
0.0
 11
75.439400912123347
 21
164.9127653371724
 31
0.0
  0
LINE
  5
509A
  8
3
 10
73.534935188340555
 20
163.1051986050042
 30
0.0
 11
73.43467179392519
 21
163.17778588646979
 31
0.0
  0
LINE
  5
509B
  8
3
 10
75.155058816867495
 20
165.21034897679419
 30
0.0
 11
75.262754165428305
 21
165.1231827717456
 31
0.0
  0
LINE
  5
509C
  8
3
 10
75.036490277248035
 20
165.28840498441781
 30
0.0
 11
75.155058816867495
 21
165.21034897679419
 31
0.0
  0
LINE
  5
509D
  8
3
 10
74.908551701205397
 20
165.35954126531209
 30
0.0
 11
75.036490277248035
 21
165.28840498441781
 31
0.0
  0
LINE
  5
509E
  8
3
 10
74.772785358923102
 20
165.4259482901725
 30
0.0
 11
74.908551701205397
 21
165.35954126531209
 31
0.0
  0
LINE
  5
509F
  8
3
 10
74.630693473714004
 20
165.489810941759
 30
0.0
 11
74.772785358923102
 21
165.4259482901725
 31
0.0
  0
LINE
  5
50A0
  8
3
 10
74.483797826665054
 20
165.55332155341239
 30
0.0
 11
74.630693473714004
 21
165.489810941759
 31
0.0
  0
LINE
  5
50A1
  8
3
 10
74.537091829674864
 20
167.20760935360519
 30
0.0
 11
74.635734722810412
 21
167.19060712868301
 31
0.0
  0
LINE
  5
50A2
  8
3
 10
74.441454314487601
 20
167.2180066388282
 30
0.0
 11
74.537091829674864
 21
167.20760935360519
 31
0.0
  0
LINE
  5
50A3
  8
3
 10
74.350146517949725
 20
167.22152331287
 30
0.0
 11
74.441454314487601
 21
167.2180066388282
 31
0.0
  0
LINE
  5
50A4
  8
3
 10
74.183363874303723
 20
167.21045547539319
 30
0.0
 11
74.350146517949725
 21
167.22152331287
 31
0.0
  0
LINE
  5
50A5
  8
3
 10
74.025259760069275
 20
167.17821308786
 30
0.0
 11
74.183363874303723
 21
167.21045547539319
 31
0.0
  0
LINE
  5
50A6
  8
3
 10
73.876940586465025
 20
167.1262043100032
 30
0.0
 11
74.025259760069275
 21
167.17821308786
 31
0.0
  0
LINE
  5
50A7
  8
3
 10
73.739553277241612
 20
167.0558708291683
 30
0.0
 11
73.876940586465025
 21
167.1262043100032
 31
0.0
  0
LINE
  5
50A8
  8
3
 10
73.614165128069544
 20
166.9686096292171
 30
0.0
 11
73.739553277241612
 21
167.0558708291683
 31
0.0
  0
LINE
  5
50A9
  8
3
 10
73.501903039264107
 20
166.86587357336609
 30
0.0
 11
73.614165128069544
 21
166.9686096292171
 31
0.0
  0
LINE
  5
50AA
  8
3
 10
73.403853864269877
 20
166.74908199721901
 30
0.0
 11
73.501903039264107
 21
166.86587357336609
 31
0.0
  0
LINE
  5
50AB
  8
3
 10
73.321164061176205
 20
166.6196542363796
 30
0.0
 11
73.403853864269877
 21
166.74908199721901
 31
0.0
  0
LINE
  5
50AC
  8
3
 10
73.254921880411516
 20
166.47901335174171
 30
0.0
 11
73.321164061176205
 21
166.6196542363796
 31
0.0
  0
LINE
  5
50AD
  8
3
 10
73.20621370975914
 20
166.32858985478009
 30
0.0
 11
73.254921880411516
 21
166.47901335174171
 31
0.0
  0
LINE
  5
50AE
  8
3
 10
73.176186007308374
 20
166.16980680638881
 30
0.0
 11
73.20621370975914
 21
166.32858985478009
 31
0.0
  0
LINE
  5
50AF
  8
3
 10
73.165926557826424
 20
166.0040872674617
 30
0.0
 11
73.176186007308374
 21
166.16980680638881
 31
0.0
  0
LINE
  5
50B0
  8
3
 10
73.173636046099091
 20
165.85491919333069
 30
0.0
 11
73.165926557826424
 21
166.0040872674617
 31
0.0
  0
LINE
  5
50B1
  8
3
 10
73.196191281872416
 20
165.71978056246371
 30
0.0
 11
73.173636046099091
 21
165.85491919333069
 31
0.0
  0
LINE
  5
50B2
  8
3
 10
75.262754165428305
 20
165.1231827717456
 30
0.0
 11
75.358035915392065
 21
165.02471776122181
 31
0.0
  0
LINE
  5
50B3
  8
3
 10
73.282972385036373
 20
165.48713618332471
 30
0.0
 11
73.232900292473445
 21
165.5975556504163
 31
0.0
  0
LINE
  5
50B4
  8
3
 10
73.345676471340084
 20
165.38740271145431
 30
0.0
 11
73.282972385036373
 21
165.48713618332471
 31
0.0
  0
LINE
  5
50B5
  8
3
 10
73.420260974066863
 20
165.29724509829609
 30
0.0
 11
73.345676471340084
 21
165.38740271145431
 31
0.0
  0
LINE
  5
50B6
  8
3
 10
73.505955223786245
 20
165.21554575676049
 30
0.0
 11
73.420260974066863
 21
165.29724509829609
 31
0.0
  0
LINE
  5
50B7
  8
3
 10
73.602027666615854
 20
165.1411908250484
 30
0.0
 11
73.505955223786245
 21
165.21554575676049
 31
0.0
  0
LINE
  5
50B8
  8
3
 10
73.707707167463923
 20
165.07307016665069
 30
0.0
 11
73.602027666615854
 21
165.1411908250484
 31
0.0
  0
LINE
  5
50B9
  8
3
 10
73.822262638109351
 20
165.01006433183281
 30
0.0
 11
73.707707167463923
 21
165.07307016665069
 31
0.0
  0
LINE
  5
50BA
  8
3
 10
73.944942501234436
 20
164.95106132144059
 30
0.0
 11
73.822262638109351
 21
165.01006433183281
 31
0.0
  0
LINE
  5
50BB
  8
3
 10
74.074976087408686
 20
164.89494913632001
 30
0.0
 11
73.944942501234436
 21
164.95106132144059
 31
0.0
  0
LINE
  5
50BC
  8
3
 10
74.160986521142135
 20
164.86176797563161
 30
0.0
 11
74.074976087408686
 21
164.89494913632001
 31
0.0
  0
LINE
  5
50BD
  8
3
 10
74.248222575383807
 20
164.82760520094959
 30
0.0
 11
74.160986521142135
 21
164.86176797563161
 31
0.0
  0
LINE
  5
50BE
  8
3
 10
74.335004144209051
 20
164.7913245987329
 30
0.0
 11
74.248222575383807
 21
164.82760520094959
 31
0.0
  0
LINE
  5
50BF
  8
3
 10
74.419690237241412
 20
164.7517825048599
 30
0.0
 11
74.335004144209051
 21
164.7913245987329
 31
0.0
  0
LINE
  5
50C0
  8
3
 10
74.500620306330333
 20
164.7078333925638
 30
0.0
 11
74.419690237241412
 21
164.7517825048599
 31
0.0
  0
LINE
  5
50C1
  8
3
 10
74.576153361099387
 20
164.6583429109487
 30
0.0
 11
74.500620306330333
 21
164.7078333925638
 31
0.0
  0
LINE
  5
50C2
  8
3
 10
74.644610226946483
 20
164.60216367060269
 30
0.0
 11
74.576153361099387
 21
164.6583429109487
 31
0.0
  0
LINE
  5
50C3
  8
3
 10
74.704329424398566
 20
164.53815573269461
 30
0.0
 11
74.644610226946483
 21
164.60216367060269
 31
0.0
  0
LINE
  5
50C4
  8
3
 10
74.753669963079105
 20
164.4651791583928
 30
0.0
 11
74.704329424398566
 21
164.53815573269461
 31
0.0
  0
LINE
  5
50C5
  8
3
 10
74.790952668386126
 20
164.38209028357591
 30
0.0
 11
74.753669963079105
 21
164.4651791583928
 31
0.0
  0
LINE
  5
50C6
  8
3
 10
74.814555176394606
 20
164.28775103205771
 30
0.0
 11
74.790952668386126
 21
164.38209028357591
 31
0.0
  0
LINE
  5
50C7
  8
3
 10
74.822778754728461
 20
164.18101773971651
 30
0.0
 11
74.814555176394606
 21
164.28775103205771
 31
0.0
  0
LINE
  5
50C8
  8
3
 10
74.818351247208724
 20
164.09815610760779
 30
0.0
 11
74.822778754728461
 21
164.18101773971651
 31
0.0
  0
LINE
  5
50C9
  8
3
 10
74.805185139971385
 20
164.01751102322669
 30
0.0
 11
74.818351247208724
 21
164.09815610760779
 31
0.0
  0
LINE
  5
50CA
  8
3
 10
75.379286833899641
 20
166.8511475008163
 30
0.0
 11
75.447209120588923
 21
166.78747111374469
 31
0.0
  0
LINE
  5
50CB
  8
3
 10
75.302785203653002
 20
166.91075587088201
 30
0.0
 11
75.379286833899641
 21
166.8511475008163
 31
0.0
  0
LINE
  5
50CC
  8
3
 10
75.219027639227534
 20
166.96602055245961
 30
0.0
 11
75.302785203653002
 21
166.91075587088201
 31
0.0
  0
LINE
  5
50CD
  8
3
 10
75.129281670647273
 20
167.01665469819631
 30
0.0
 11
75.219027639227534
 21
166.96602055245961
 31
0.0
  0
LINE
  5
50CE
  8
3
 10
75.034829729097495
 20
167.06239381248091
 30
0.0
 11
75.129281670647273
 21
167.01665469819631
 31
0.0
  0
LINE
  5
50CF
  8
3
 10
74.936958902376304
 20
167.10291752034749
 30
0.0
 11
75.034829729097495
 21
167.06239381248091
 31
0.0
  0
LINE
  5
50D0
  8
3
 10
74.836952552991534
 20
167.1380060296687
 30
0.0
 11
74.936958902376304
 21
167.10291752034749
 31
0.0
  0
LINE
  5
50D1
  8
3
 10
74.736135952966833
 20
167.1673203390273
 30
0.0
 11
74.836952552991534
 21
167.1380060296687
 31
0.0
  0
LINE
  5
50D2
  8
3
 10
74.635734722810412
 20
167.19060712868301
 30
0.0
 11
74.736135952966833
 21
167.1673203390273
 31
0.0
  0
CIRCLE
  5
50D3
  8
0
 10
66.535591089027534
 20
134.74708744699089
 30
0.0
 40
18.599999999999991
  0
LINE
  5
50D4
  8
3
 10
73.924106952595125
 20
163.6242004614505
 30
0.0
 11
74.000727792131315
 21
163.58952359670729
 31
0.0
  0
LINE
  5
50D5
  8
3
 10
73.851380904065991
 20
163.66696120614139
 30
0.0
 11
73.924106952595125
 21
163.6242004614505
 31
0.0
  0
LINE
  5
50D6
  8
3
 10
73.782944061654234
 20
163.71699185484971
 30
0.0
 11
73.851380904065991
 21
163.66696120614139
 31
0.0
  0
LINE
  5
50D7
  8
3
 10
73.719152656244646
 20
163.77347843164529
 30
0.0
 11
73.782944061654234
 21
163.71699185484971
 31
0.0
  0
LINE
  5
50D8
  8
3
 10
73.660382476496125
 20
163.83560509795279
 30
0.0
 11
73.719152656244646
 21
163.77347843164529
 31
0.0
  0
LINE
  5
50D9
  8
3
 10
73.607009311067486
 20
163.90255974048699
 30
0.0
 11
73.660382476496125
 21
163.83560509795279
 31
0.0
  0
LINE
  5
50DA
  8
3
 10
73.559408017295027
 20
163.97352652067269
 30
0.0
 11
73.607009311067486
 21
163.90255974048699
 31
0.0
  0
LINE
  5
50DB
  8
3
 10
73.517934826063524
 20
164.0476895999345
 30
0.0
 11
73.559408017295027
 21
163.97352652067269
 31
0.0
  0
LINE
  5
50DC
  8
3
 10
73.482985083805943
 20
164.1242368649873
 30
0.0
 11
73.517934826063524
 21
164.0476895999345
 31
0.0
  0
LINE
  5
50DD
  8
3
 10
73.014503751742254
 20
163.6656387280855
 30
0.0
 11
73.482985083805943
 21
164.1242368649873
 31
0.0
  0
LINE
  5
50DE
  8
3
 10
73.087961354153776
 20
163.55327838474841
 30
0.0
 11
73.014503751742254
 21
163.6656387280855
 31
0.0
  0
LINE
  5
50DF
  8
3
 10
73.16663808827343
 20
163.44775581175421
 30
0.0
 11
73.087961354153776
 21
163.55327838474841
 31
0.0
  0
LINE
  5
50E0
  8
3
 10
73.250612185197497
 20
163.34962607735719
 30
0.0
 11
73.16663808827343
 21
163.44775581175421
 31
0.0
  0
LINE
  5
50E1
  8
3
 10
73.339924157457972
 20
163.2594498377475
 30
0.0
 11
73.250612185197497
 21
163.34962607735719
 31
0.0
  0
LINE
  5
50E2
  8
3
 10
73.43467179392519
 20
163.17778588646979
 30
0.0
 11
73.339924157457972
 21
163.2594498377475
 31
0.0
  0
LINE
  5
50E3
  8
3
 10
74.01845970829072
 20
166.3604261856708
 30
0.0
 11
73.984834306734214
 21
166.30166718179311
 31
0.0
  0
LINE
  5
50E4
  8
3
 10
74.059636273282194
 20
166.41393253022761
 30
0.0
 11
74.01845970829072
 21
166.3604261856708
 31
0.0
  0
LINE
  5
50E5
  8
3
 10
74.107494612085233
 20
166.4617429059181
 30
0.0
 11
74.059636273282194
 21
166.41393253022761
 31
0.0
  0
LINE
  5
50E6
  8
3
 10
74.161065683560992
 20
166.50341400319661
 30
0.0
 11
74.107494612085233
 21
166.4617429059181
 31
0.0
  0
LINE
  5
50E7
  8
3
 10
74.219480098086024
 20
166.53850251251791
 30
0.0
 11
74.161065683560992
 21
166.50341400319661
 31
0.0
  0
LINE
  5
50E8
  8
3
 10
74.281808395730863
 20
166.56656512433619
 30
0.0
 11
74.219480098086024
 21
166.53850251251791
 31
0.0
  0
LINE
  5
50E9
  8
3
 10
74.347122047888661
 20
166.58715852910609
 30
0.0
 11
74.281808395730863
 21
166.56656512433619
 31
0.0
  0
LINE
  5
50EA
  8
3
 10
74.414550267952094
 20
166.5998356919917
 30
0.0
 11
74.347122047888661
 21
166.58715852910609
 31
0.0
  0
LINE
  5
50EB
  8
3
 10
74.483144969540263
 20
166.6041607540283
 30
0.0
 11
74.414550267952094
 21
166.5998356919917
 31
0.0
  0
LINE
  5
50EC
  8
3
 10
74.548715666728626
 20
166.6016089301738
 30
0.0
 11
74.483144969540263
 21
166.6041607540283
 31
0.0
  0
LINE
  5
50ED
  8
3
 10
74.611578077870035
 20
166.59407266790001
 30
0.0
 11
74.548715666728626
 21
166.6016089301738
 31
0.0
  0
LINE
  5
50EE
  8
3
 10
74.67179087628665
 20
166.5817345064315
 30
0.0
 11
74.611578077870035
 21
166.59407266790001
 31
0.0
  0
LINE
  5
50EF
  8
3
 10
74.7294341557199
 20
166.5647844355735
 30
0.0
 11
74.67179087628665
 21
166.5817345064315
 31
0.0
  0
LINE
  5
50F0
  8
3
 10
74.784606636362696
 20
166.5434087198409
 30
0.0
 11
74.7294341557199
 21
166.5647844355735
 31
0.0
  0
LINE
  5
50F1
  8
3
 10
74.837347433763171
 20
166.5177861731681
 30
0.0
 11
74.784606636362696
 21
166.5434087198409
 31
0.0
  0
LINE
  5
50F2
  8
3
 10
74.887736641662741
 20
166.48811051065061
 30
0.0
 11
74.837347433763171
 21
166.5177861731681
 31
0.0
  0
LINE
  5
50F3
  8
3
 10
74.935891606705795
 20
166.45455682093231
 30
0.0
 11
74.887736641662741
 21
166.48811051065061
 31
0.0
  0
LINE
  5
50F4
  8
3
 10
74.981871933537136
 20
166.41731509381859
 30
0.0
 11
74.935891606705795
 21
166.45455682093231
 31
0.0
  0
LINE
  5
50F5
  8
3
 10
75.025736295478964
 20
166.37657159382431
 30
0.0
 11
74.981871933537136
 21
166.41731509381859
 31
0.0
  0
LINE
  5
50F6
  8
3
 10
75.067604833143363
 20
166.3325125854644
 30
0.0
 11
75.025736295478964
 21
166.37657159382431
 31
0.0
  0
LINE
  5
50F7
  8
3
 10
75.107516662078524
 20
166.28531688267319
 30
0.0
 11
75.067604833143363
 21
166.3325125854644
 31
0.0
  0
LINE
  5
50F8
  8
3
 10
75.447209120588923
 20
166.78747111374469
 30
0.0
 11
75.107516662078524
 21
166.28531688267319
 31
0.0
  0
LINE
  5
50F9
  8
3
 10
73.232900292473445
 20
165.5975556504163
 30
0.0
 11
73.196191281872416
 21
165.71978056246371
 31
0.0
  0
LINE
  5
50FA
  8
3
 10
74.027256515669251
 20
165.8421936016712
 30
0.0
 11
74.071695037978316
 21
165.7927049827012
 31
0.0
  0
LINE
  5
50FB
  8
3
 10
73.944685456203842
 20
166.02454283649061
 30
0.0
 11
73.962437395798574
 21
165.95761240834321
 31
0.0
  0
LINE
  5
50FC
  8
3
 10
73.938478656905303
 20
166.09828123265831
 30
0.0
 11
73.944685456203842
 21
166.02454283649061
 31
0.0
  0
LINE
  5
50FD
  8
3
 10
73.943914786773334
 20
166.17014953309621
 30
0.0
 11
73.938478656905303
 21
166.09828123265831
 31
0.0
  0
LINE
  5
50FE
  8
3
 10
73.959689528542185
 20
166.23809137755961
 30
0.0
 11
73.943914786773334
 21
166.17014953309621
 31
0.0
  0
LINE
  5
50FF
  8
3
 10
73.984834306734214
 20
166.30166718179311
 30
0.0
 11
73.959689528542185
 21
166.23809137755961
 31
0.0
  0
LINE
  5
5100
  8
3
 10
74.237251595454836
 20
165.67116552406881
 30
0.0
 11
74.29874961902442
 21
165.63796387428371
 31
0.0
  0
LINE
  5
5101
  8
3
 10
74.178006906854534
 20
165.7076919954452
 30
0.0
 11
74.237251595454836
 21
165.67116552406881
 31
0.0
  0
LINE
  5
5102
  8
3
 10
74.122399498569393
 20
165.74803875202269
 30
0.0
 11
74.178006906854534
 21
165.7076919954452
 31
0.0
  0
LINE
  5
5103
  8
3
 10
74.071695037978316
 20
165.7927049827012
 30
0.0
 11
74.122399498569393
 21
165.74803875202269
 31
0.0
  0
LINE
  5
5104
  8
3
 10
74.361236707168246
 20
165.60758785719011
 30
0.0
 11
74.423347540991927
 21
165.57954200917811
 31
0.0
  0
LINE
  5
5105
  8
3
 10
73.990408738004575
 20
165.89699634725179
 30
0.0
 11
74.027256515669251
 21
165.8421936016712
 31
0.0
  0
LINE
  5
5106
  8
3
 10
73.962437395798574
 20
165.95761240834321
 30
0.0
 11
73.990408738004575
 21
165.89699634725179
 31
0.0
  0
LINE
  5
5107
  8
3
 10
74.29874961902442
 20
165.63796387428371
 30
0.0
 11
74.361236707168246
 21
165.60758785719011
 31
0.0
  0
LINE
  5
5108
  8
3
 10
74.423347540991927
 20
165.57954200917811
 30
0.0
 11
74.483797826665054
 21
165.55332155341239
 31
0.0
  0
LINE
  5
5109
  8
3
 10
79.936129913526202
 20
167.14557581955521
 30
0.0
 11
80.93910751571002
 21
167.14557581955521
 31
0.0
  0
LINE
  5
510A
  8
3
 10
78.645004832046652
 20
164.84596529418559
 30
0.0
 11
78.633924887376452
 21
164.84596529418559
 31
0.0
  0
LINE
  5
510B
  8
3
 10
79.980456211465025
 20
162.9674764853153
 30
0.0
 11
78.645004832046652
 21
164.84596529418559
 31
0.0
  0
LINE
  5
510C
  8
3
 10
81.02776663084569
 20
162.9674764853153
 30
0.0
 11
79.980456211465025
 21
162.9674764853153
 31
0.0
  0
LINE
  5
510D
  8
3
 10
79.354293585615764
 20
165.2172314506206
 30
0.0
 11
81.02776663084569
 21
162.9674764853153
 31
0.0
  0
LINE
  5
510E
  8
3
 10
80.93910751571002
 20
167.14557581955521
 30
0.0
 11
79.354293585615764
 21
165.2172314506206
 31
0.0
  0
LINE
  5
510F
  8
3
 10
78.633924887376452
 20
167.14557581955521
 30
0.0
 11
78.633924887376452
 21
165.38346321696369
 31
0.0
  0
LINE
  5
5110
  8
3
 10
77.819353842037344
 20
167.14557581955521
 30
0.0
 11
78.633924887376452
 21
167.14557581955521
 31
0.0
  0
LINE
  5
5111
  8
3
 10
77.819353842037344
 20
162.9674764853153
 30
0.0
 11
77.819353842037344
 21
167.14557581955521
 31
0.0
  0
LINE
  5
5112
  8
3
 10
78.633924887376452
 20
162.9674764853153
 30
0.0
 11
77.819353842037344
 21
162.9674764853153
 31
0.0
  0
LINE
  5
5113
  8
3
 10
78.633924887376452
 20
164.84596529418559
 30
0.0
 11
78.633924887376452
 21
162.9674764853153
 31
0.0
  0
LINE
  5
5114
  8
3
 10
82.423326500552321
 20
162.32298263722981
 30
0.0
 11
83.483482652204657
 21
162.32298263722981
 31
0.0
  0
LINE
  5
5115
  8
3
 10
78.633924887376452
 20
165.38346321696369
 30
0.0
 11
78.645004832046652
 21
165.38346321696369
 31
0.0
  0
LINE
  5
5116
  8
3
 10
74.025062319683457
 20
162.32298263722981
 30
0.0
 11
75.093184538977766
 21
162.32298263722981
 31
0.0
  0
LINE
  5
5117
  8
3
 10
78.645004832046652
 20
165.38346321696369
 30
0.0
 11
79.936129913526202
 21
167.14557581955521
 31
0.0
  0
LINE
  5
5118
  8
3
 10
75.093184538977766
 20
167.7711936216983
 30
0.0
 11
74.025062319683457
 21
167.7711936216983
 31
0.0
  0
LINE
  5
5119
  8
3
 10
83.483482652204657
 20
167.7711936216983
 30
0.0
 11
82.423326500552321
 21
167.7711936216983
 31
0.0
  0
LINE
  5
511A
  8
3
 10
76.120822631614814
 20
167.14557581955521
 30
0.0
 11
76.935395539599085
 21
167.14557581955521
 31
0.0
  0
LINE
  5
511B
  8
3
 10
76.120822631614814
 20
162.9674764853153
 30
0.0
 11
76.120822631614814
 21
167.14557581955521
 31
0.0
  0
LINE
  5
511C
  8
3
 10
76.935395539599085
 20
162.9674764853153
 30
0.0
 11
76.120822631614814
 21
162.9674764853153
 31
0.0
  0
LINE
  5
511D
  8
3
 10
76.935395539599085
 20
167.14557581955521
 30
0.0
 11
76.935395539599085
 21
162.9674764853153
 31
0.0
  0
CIRCLE
  5
511E
  8
0
 10
49.535591089027548
 20
151.74708744699089
 30
0.0
 40
2.7499999999999711
  0
CIRCLE
  5
511F
  8
0
 10
83.535591089027548
 20
151.74708744699089
 30
0.0
 40
2.75
  0
LINE
  5
5139
  8
0
 10
165.53559114630389
 20
176.74708744699089
 30
0.0
 11
140.5355912976438
 21
176.74708744699089
 31
0.0
  0
LINE
  5
513A
  8
0
 10
160.5355913162702
 20
109.2470884900722
 30
0.0
 11
165.53559114630389
 21
109.2470884900722
 31
0.0
  0
LINE
  5
513B
  8
0
 10
140.5355912976438
 20
109.2470884900722
 30
0.0
 11
145.53559025456249
 21
109.2470884900722
 31
0.0
  0
LINE
  5
513C
  8
0
 10
165.83559116055309
 20
156.7470878940257
 30
0.0
 11
165.53559114630389
 21
156.7470878940257
 31
0.0
  0
LINE
  5
513D
  8
0
 10
165.53559114630389
 20
146.74708811754309
 30
0.0
 11
165.83559116055309
 21
146.74708811754309
 31
0.0
  0
LINE
  5
513E
  8
0
 10
165.53559114630389
 20
173.60700300151441
 30
0.0
 11
140.5355912976438
 21
173.60700300151441
 31
0.0
  0
LINE
  5
513F
  8
0
 10
140.5355912976438
 20
171.20512953216161
 30
0.0
 11
165.53559114630389
 21
171.20512953216161
 31
0.0
  0
LINE
  5
5140
  8
0
 10
165.53559114630389
 20
114.7890464049014
 30
0.0
 11
140.5355912976438
 21
114.7890464049014
 31
0.0
  0
LINE
  5
5141
  8
0
 10
140.5355912976438
 20
112.3871729355487
 30
0.0
 11
165.53559114630389
 21
112.3871729355487
 31
0.0
  0
LINE
  5
5142
  8
0
 10
140.5355912976438
 20
109.2470884900722
 30
0.0
 11
140.5355912976438
 21
176.74708744699089
 31
0.0
  0
LINE
  5
5143
  8
0
 10
165.53559114630389
 20
176.7470874469908
 30
0.0
 11
165.53559114630389
 21
109.2470884900721
 31
0.0
  0
ARC
  5
5144
  8
0
 10
153.03559078541639
 20
29.46705229444456
 30
0.0
 40
80.131792587826524
 50
84.629494104658505
 51
95.370505895341481
  0
LINE
  5
5145
  8
0
 10
165.83559116055309
 20
146.74708811754309
 30
0.0
 11
165.83559116055309
 21
156.7470878940257
 31
0.0
  0
LINE
  5
5146
  8
2
 10
146.03559126784151
 20
146.74708811754309
 30
0.0
 11
146.03559126784151
 21
156.74708789402561
 31
0.0
  0
LINE
  5
5147
  8
2
 10
160.5355913162702
 20
109.747087640706
 30
0.0
 11
145.53559025456249
 21
109.747087640706
 31
0.0
  0
LINE
  5
5148
  8
2
 10
157.9006442966697
 20
118.44708776289551
 30
0.0
 11
148.17053773982431
 21
118.44708776289551
 31
0.0
  0
LINE
  5
5149
  8
2
 10
150.53559107412639
 20
167.74708783442111
 30
0.0
 11
150.53559107412639
 21
161.74708871358959
 31
0.0
  0
LINE
  5
514A
  8
2
 10
148.53559074630081
 20
161.74708871358959
 30
0.0
 11
148.53559074630081
 21
167.74708783442111
 31
0.0
  0
LINE
  5
514B
  8
2
 10
140.5355912976438
 20
146.74708811754309
 30
0.0
 11
146.03559126784151
 21
146.74708811754309
 31
0.0
  0
LINE
  5
514C
  8
2
 10
146.03559126784151
 20
156.7470878940257
 30
0.0
 11
140.5355912976438
 21
156.7470878940257
 31
0.0
  0
LINE
  5
514D
  8
2
 10
165.83559116055309
 20
154.4970889222059
 30
0.0
 11
146.03559126784151
 21
154.4970889222059
 31
0.0
  0
LINE
  5
514E
  8
2
 10
146.03559126784151
 20
148.9970880206856
 30
0.0
 11
165.83559116055309
 21
148.9970880206856
 31
0.0
  0
LINE
  5
514F
  8
2
 10
165.53559114630389
 20
149.74708744699089
 30
0.0
 11
140.5355912976438
 21
149.74708744699089
 31
0.0
  0
LINE
  5
5150
  8
2
 10
140.5355912976438
 20
119.7470874469909
 30
0.0
 11
165.53559114630389
 21
119.747087446991
 31
0.0
  0
LINE
  5
5151
  8
2
 10
160.5355913162702
 20
109.2470884900722
 30
0.0
 11
160.5355913162702
 21
109.747087640706
 31
0.0
  0
LINE
  5
5152
  8
2
 10
145.53559025456249
 20
109.747087640706
 30
0.0
 11
145.53559025456249
 21
109.2470884900722
 31
0.0
  0
LINE
  5
5153
  8
2
 10
157.3185912676627
 20
109.747087640706
 30
0.0
 11
157.3185912676627
 21
118.44708776289551
 31
0.0
  0
LINE
  5
5154
  8
2
 10
148.7525907688314
 20
118.44708776289551
 30
0.0
 11
148.7525907688314
 21
109.747087640706
 31
0.0
  0
LINE
  5
5155
  8
2
 10
165.53559114630389
 20
167.74708783442111
 30
0.0
 11
150.53559107412639
 21
167.74708783442111
 31
0.0
  0
LINE
  5
5156
  8
2
 10
150.53559107412639
 20
161.74708871358959
 30
0.0
 11
165.53559114630389
 21
161.74708871358959
 31
0.0
  0
LINE
  5
5157
  8
2
 10
148.53559074630081
 20
167.74708783442111
 30
0.0
 11
140.5355912976438
 21
167.74708783442111
 31
0.0
  0
LINE
  5
5158
  8
2
 10
140.5355912976438
 20
161.74708871358959
 30
0.0
 11
148.53559074630081
 21
161.74708871358959
 31
0.0
  0
LINE
  5
5159
  8
0
 10
88.535590969818244
 20
33.947087584081487
 30
0.0
 11
88.535590969818244
 21
34.247087598330722
 31
0.0
  0
LINE
  5
515A
  8
0
 10
78.535591193335677
 20
34.247087598330722
 30
0.0
 11
78.535591193335677
 21
33.947087584081487
 31
0.0
  0
LINE
  5
515B
  8
0
 10
54.535590984719413
 20
33.947087584081487
 30
0.0
 11
54.535590984719413
 21
34.247087598330722
 31
0.0
  0
LINE
  5
515C
  8
0
 10
44.535591208236831
 20
34.247087598330722
 30
0.0
 11
44.535591208236831
 21
33.947087584081487
 31
0.0
  0
LINE
  5
515D
  8
0
 10
88.729140289919997
 20
59.247087446990918
 30
0.0
 11
88.729140289919997
 21
34.247087598330843
 31
0.0
  0
LINE
  5
515E
  8
0
 10
44.342041888135093
 20
34.247087598330843
 30
0.0
 11
44.342041888135093
 21
59.247087446990918
 31
0.0
  0
LINE
  5
515F
  8
0
 10
90.535591297643805
 20
59.247087446990918
 30
0.0
 11
42.535590880411291
 21
59.247087446990797
 31
0.0
  0
CIRCLE
  5
5160
  8
0
 10
66.535585706473626
 20
46.747342648106041
 30
0.0
 40
7.4997458419681511
  0
LINE
  5
5161
  8
0
 10
90.535591297643805
 20
34.247087598330843
 30
0.0
 11
42.535590880411291
 21
34.247087598330722
 31
0.0
  0
CIRCLE
  5
5162
  8
0
 10
66.535591089027534
 20
46.747087584081669
 30
0.0
 40
4.2829999999999968
  0
LINE
  5
5163
  8
0
 10
90.535591297643805
 20
34.247087598330843
 30
0.0
 11
90.535591297643805
 21
59.247087446990918
 31
0.0
  0
LINE
  5
5164
  8
0
 10
42.535590880411291
 20
59.247087446990918
 30
0.0
 11
42.535590880411291
 21
34.247087598330843
 31
0.0
  0
LINE
  5
5165
  8
0
 10
78.535591193335677
 20
33.947087584081487
 30
0.0
 11
88.535590969818244
 21
33.947087584081487
 31
0.0
  0
LINE
  5
5166
  8
0
 10
44.535591208236831
 20
33.947087584081487
 30
0.0
 11
54.535590984719413
 21
33.947087584081487
 31
0.0
  0
ARC
  5
5167
  8
3
 10
78.754272485944057
 20
161.68027957955979
 30
0.0
 40
7.711333390885283
 50
52.172917840362842
 51
127.8270821596371
  0
ARC
  5
5168
  8
3
 10
78.758255519765044
 20
161.68294001161371
 30
0.0
 40
7.1063054616950874
 50
58.952457824752919
 51
121.0475421752471
  0
ARC
  5
5169
  8
3
 10
78.754272485944057
 20
168.4138948420256
 30
0.0
 40
7.711333390885283
 50
232.17291784036291
 51
307.8270821596372
  0
ARC
  5
516A
  8
3
 10
78.758255519765044
 20
168.41123440997171
 30
0.0
 40
7.1063054616950874
 50
238.95245782475291
 51
301.04754217524709
  0
POLYLINE
  5
516B
  8
3
 66
     1
 10
0.0
 20
0.0
 30
0.0
 70
     1
  0
VERTEX
  5
516C
  8
3
 10
82.724650331633711
 20
167.22152331287
 30
0.0
 42
0.1040389459222476
  0
VERTEX
  5
516D
  8
3
 10
81.953091752921182
 20
167.05922226726099
 30
0.0
 42
0.1006187674778827
  0
VERTEX
  5
516E
  8
3
 10
81.287789191823435
 20
166.58903499199309
 30
0.0
 42
0.0961317388519061
 70
     2
 50
226.74126552361599
  0
VERTEX
  5
516F
  8
3
 10
80.849115391148544
 20
165.89449367899959
 30
0.0
 42
0.0931829020071892
 50
226.74126552361599
  0
VERTEX
  5
5170
  8
3
 10
80.692621820467124
 20
165.06207310968961
 30
0.0
 42
0.0931829020071995
  0
VERTEX
  5
5171
  8
3
 10
80.849115391148644
 20
164.22965254037911
 30
0.0
 42
0.0961317388517972
  0
VERTEX
  5
5172
  8
3
 10
81.287789191823435
 20
163.53511122738621
 30
0.0
 42
0.1006187674778303
 70
     2
 50
313.25873447638401
  0
VERTEX
  5
5173
  8
3
 10
81.953091752920955
 20
163.06492395211839
 30
0.0
 42
0.1040389459222533
 50
313.25873447638401
  0
VERTEX
  5
5174
  8
3
 10
82.724650331633711
 20
162.90262290650929
 30
0.0
 42
0.1040389459222233
  0
VERTEX
  5
5175
  8
3
 10
83.496208910346695
 20
163.06492395211839
 30
0.0
 42
0.1006187674777489
  0
VERTEX
  5
5176
  8
3
 10
84.161511471443987
 20
163.53511122738621
 30
0.0
 42
0.0961317388516823
 70
     2
 50
46.741265523616022
  0
VERTEX
  5
5177
  8
3
 10
84.600185272118892
 20
164.22965254037899
 30
0.0
 42
0.0931829020071142
 50
46.741265523616022
  0
VERTEX
  5
5178
  8
3
 10
84.756678842800284
 20
165.06207310968961
 30
0.0
 42
0.093182902007185
  0
VERTEX
  5
5179
  8
3
 10
84.600185272118765
 20
165.89449367899999
 30
0.0
 42
0.0961317388518236
  0
VERTEX
  5
517A
  8
3
 10
84.161511471443987
 20
166.58903499199309
 30
0.0
 42
0.1006187674778014
 70
     2
 50
133.25873447638401
  0
VERTEX
  5
517B
  8
3
 10
83.496208910346454
 20
167.05922226726099
 30
0.0
 42
0.1040389459222176
 50
133.25873447638401
  0
SEQEND
  5
517C
  8
3
  0
POLYLINE
  5
517D
  8
3
 66
     1
 10
0.0
 20
0.0
 30
0.0
 70
     1
  0
VERTEX
  5
517E
  8
3
 10
82.724650331633711
 20
166.55395712307259
 30
0.0
 42
0.1100504958869895
  0
VERTEX
  5
517F
  8
3
 10
82.228568463120155
 20
166.4434312230959
 30
0.0
 42
0.1025517268491352
  0
VERTEX
  5
5180
  8
3
 10
81.792707747681675
 20
166.11699586673021
 30
0.0
 42
0.0934680573273555
 70
     2
 50
228.54178648396481
  0
VERTEX
  5
5181
  8
3
 10
81.509313592961348
 20
165.64119361707009
 30
0.0
 42
0.087923423941003
 50
228.54178648396481
  0
VERTEX
  5
5182
  8
3
 10
81.40668312616549
 20
165.0620751665694
 30
0.0
 42
0.0879234239409436
  0
VERTEX
  5
5183
  8
3
 10
81.509311785360168
 20
164.48295639573161
 30
0.0
 42
0.0934680573273441
  0
VERTEX
  5
5184
  8
3
 10
81.792704454959207
 20
164.00715326151641
 30
0.0
 42
0.1025517268492942
 70
     2
 50
311.45803467889908
  0
VERTEX
  5
5185
  8
3
 10
82.228564151493742
 20
163.68071654470191
 30
0.0
 42
0.1100504958872438
 50
311.45803467889908
  0
VERTEX
  5
5186
  8
3
 10
82.724645675020824
 20
163.57018909630671
 30
0.0
 42
0.1100504958871612
  0
VERTEX
  5
5187
  8
3
 10
83.220727543534608
 20
163.6807149962836
 30
0.0
 42
0.1025517268491776
  0
VERTEX
  5
5188
  8
3
 10
83.656588258972874
 20
164.00715035264909
 30
0.0
 42
0.0934680573272221
 70
     2
 50
48.541786483964771
  0
VERTEX
  5
5189
  8
3
 10
83.939982413693315
 20
164.48295260230921
 30
0.0
 42
0.0879234239408591
 50
48.541786483964771
  0
VERTEX
  5
518A
  8
3
 10
84.042612880489045
 20
165.06207105280981
 30
0.0
 42
0.0879234239409351
  0
VERTEX
  5
518B
  8
3
 10
83.939984221294367
 20
165.64118982364769
 30
0.0
 42
0.0934680573273177
  0
VERTEX
  5
518C
  8
3
 10
83.656591551695328
 20
166.11699295786289
 30
0.0
 42
0.1025517268492308
 70
     2
 50
131.45803467889911
  0
VERTEX
  5
518D
  8
3
 10
83.220731855160693
 20
166.44342967467759
 30
0.0
 42
0.1100504958871027
 50
131.45803467889911
  0
SEQEND
  5
518E
  8
3
  0
CIRCLE
  5
518F
  8
3
 10
66.535591089027534
 20
46.747087584081669
 30
0.0
 40
4.8650532784226712
  0
LINE
  5
5190
  8
2
 10
148.17053773982431
 20
109.747087640706
 30
0.0
 11
148.17053773982431
 21
118.44708776289551
 31
0.0
  0
LINE
  5
5191
  8
2
 10
157.9006442966697
 20
109.747087640706
 30
0.0
 11
157.9006442966697
 21
118.44708776289551
 31
0.0
  0
LINE
  5
5193
  8
1
 10
66.535591089027534
 20
179.74708744699089
 30
0.0
 11
66.535591089027534
 21
106.2470874469909
 31
0.0
  0
LINE
  5
5194
  8
1
 10
66.535591089027534
 20
62.247087446990918
 30
0.0
 11
66.535591089027534
 21
31.247087598330719
 31
0.0
  0
LINE
  5
5195
  8
1
 10
44.935591089027518
 20
134.74708744699089
 30
0.0
 11
88.135591089027557
 21
134.74708744699089
 31
0.0
  0
LINE
  5
5196
  8
1
 10
61.535591089027541
 20
164.74708744699089
 30
0.0
 11
71.535591089027534
 21
164.74708744699089
 31
0.0
  0
LINE
  5
5197
  8
1
 10
42.535591089027548
 20
151.74708744699089
 30
0.0
 11
56.535591089027541
 21
151.74708744699089
 31
0.0
  0
LINE
  5
5198
  8
1
 10
76.535591089027534
 20
151.74708744699089
 30
0.0
 11
90.535591089027548
 21
151.74708744699089
 31
0.0
  0
LINE
  5
5199
  8
1
 10
49.535591089027548
 20
158.74708744699089
 30
0.0
 11
49.535591089027548
 21
144.74708744699089
 31
0.0
  0
LINE
  5
519A
  8
1
 10
83.535591089027548
 20
158.74708744699089
 30
0.0
 11
83.535591089027548
 21
144.74708744699089
 31
0.0
  0
LINE
  5
519F
  8
1
 10
77.035331545343752
 20
46.747087584081669
 30
0.0
 11
56.035839867603499
 21
46.747087584081669
 31
0.0
  0
LINE
  5
51A1
  8
1
 10
49.535591089027548
 20
61.247087446990811
 30
0.0
 11
49.535591089027548
 21
31.947087584081491
 31
0.0
  0
LINE
  5
51A3
  8
1
 10
83.535591089027548
 20
61.247087446990911
 30
0.0
 11
83.535591089027548
 21
31.947087584081491
 31
0.0
  0
LINE
  5
51A4
  8
1
 10
138.5355912976438
 20
164.74708744699089
 30
0.0
 11
150.53559129764389
 21
164.74708744699089
 31
0.0
  0
LINE
  5
51A5
  8
1
 10
138.5355912976438
 20
151.74708744699089
 30
0.0
 11
167.53559114630389
 21
151.74708744699089
 31
0.0
  0
LINE
  5
51A6
  8
1
 10
137.5355912976438
 20
134.74708744699089
 30
0.0
 11
168.53559114630389
 21
134.74708744699089
 31
0.0
  0
LINE
  5
51A7
  8
1
 10
153.0355907854165
 20
107.5988442756784
 30
0.0
 11
153.0355907854165
 21
120.44708776289551
 31
0.0
  0
CIRCLE
  5
51A8
  8
0
 10
66.535591089027534
 20
134.74708744699089
 30
0.0
 40
15.0
  0
CIRCLE
  5
5442
  8
0
 10
66.535591089027534
 20
134.74708744699089
 30
0.0
 40
7.5
  0
LINE
  5
5443
  8
2
 10
140.5355912976438
 20
127.2470874469909
 30
0.0
 11
165.53559114630389
 21
127.2470874469909
 31
0.0
  0
LINE
  5
5444
  8
2
 10
140.5355912976438
 20
142.24708744699089
 30
0.0
 11
165.53559114630389
 21
142.24708744699089
 31
0.0
  0
TEXT
  5
5518
  8
0
 62
     3
 10
0.0
 20
0.0
 30
0.0
 40
10.0
  1
SKPAR09-15
  7
STANDARD1
  0
ENDSEC
  0
EOF
