  0
SECTION
  2
HEADER
  9
$ACADVER
  1
AC1009
  9
$INSBASE
 10
0.0
 20
0.0
 30
0.0
  9
$EXTMIN
 10
0.0
 20
-2.960436562073669
 30
0.0
  9
$EXTMAX
 10
185.5628517526479
 20
182.06978380282541
 30
0.0
  9
$LIMMIN
 10
0.0
 20
0.0
  9
$LIMMAX
 10
375.0
 20
270.0
  9
$ORTHOMODE
 70
     1
  9
$REGENMODE
 70
     1
  9
$FILLMODE
 70
     1
  9
$QTEXTMODE
 70
     0
  9
$MIRRTEXT
 70
     0
  9
$DRAGMODE
 70
     2
  9
$LTSCALE
 40
10.0
  9
$OSMODE
 70
    55
  9
$ATTMODE
 70
     1
  9
$TEXTSIZE
 40
4.000000000000048
  9
$TRACEWID
 40
0.05
  9
$TEXTSTYLE
  7
STANDARD
  9
$CLAYER
  8
0
  9
$CELTYPE
  6
BYLAYER
  9
$CECOLOR
 62
   256
  9
$DIMSCALE
 40
1.0
  9
$DIMASZ
 40
3.0
  9
$DIMEXO
 40
2.0
  9
$DIMDLI
 40
0.38
  9
$DIMRND
 40
0.0
  9
$DIMDLE
 40
0.0
  9
$DIMEXE
 40
2.0
  9
$DIMTP
 40
0.0
  9
$DIMTM
 40
0.0
  9
$DIMTXT
 40
3.2000000000000002
  9
$DIMCEN
 40
0.0
  9
$DIMTSZ
 40
0.0
  9
$DIMTOL
 70
     0
  9
$DIMLIM
 70
     0
  9
$DIMTIH
 70
     0
  9
$DIMTOH
 70
     0
  9
$DIMSE1
 70
     0
  9
$DIMSE2
 70
     0
  9
$DIMTAD
 70
     1
  9
$DIMZIN
 70
     0
  9
$DIMBLK
  1

  9
$DIMASO
 70
     0
  9
$DIMSHO
 70
     0
  9
$DIMPOST
  1

  9
$DIMAPOST
  1

  9
$DIMALT
 70
     0
  9
$DIMALTD
 70
     2
  9
$DIMALTF
 40
25.399999999999999
  9
$DIMLFAC
 40
1.0
  9
$DIMTOFL
 70
     0
  9
$DIMTVP
 40
1.6000000000000001
  9
$DIMTIX
 70
     1
  9
$DIMSOXD
 70
     0
  9
$DIMSAH
 70
     0
  9
$DIMBLK1
  1

  9
$DIMBLK2
  1

  9
$DIMSTYLE
  2
STANDARD
  9
$DIMCLRD
 70
     4
  9
$DIMCLRE
 70
     4
  9
$DIMCLRT
 70
     4
  9
$DIMTFAC
 40
1.0
  9
$DIMGAP
 40
0.09
  9
$LUNITS
 70
     2
  9
$LUPREC
 70
     1
  9
$SKETCHINC
 40
0.1
  9
$FILLETRAD
 40
22.0
  9
$AUNITS
 70
     0
  9
$AUPREC
 70
     0
  9
$MENU
  1
E:\r13\win\SUPPORT\ACAD
  9
$ELEVATION
 40
0.0
  9
$PELEVATION
 40
0.0
  9
$THICKNESS
 40
0.0
  9
$LIMCHECK
 70
     0
  9
$BLIPMODE
 70
     0
  9
$CHAMFERA
 40
1.1999999999999991
  9
$CHAMFERB
 40
1.1999999999999991
  9
$SKPOLY
 70
     0
  9
$TDCREATE
 40
2449954.6020138888
  9
$TDUPDATE
 40
2456598.502413264
  9
$TDINDWG
 40
0.7604249537
  9
$TDUSRTIMER
 40
0.7604249537
  9
$USRTIMER
 70
     1
  9
$ANGBASE
 50
0.0
  9
$ANGDIR
 70
     0
  9
$PDMODE
 70
     0
  9
$PDSIZE
 40
0.0
  9
$PLINEWID
 40
0.0
  9
$COORDS
 70
     1
  9
$SPLFRAME
 70
     0
  9
$SPLINETYPE
 70
     6
  9
$SPLINESEGS
 70
     8
  9
$ATTDIA
 70
     0
  9
$ATTREQ
 70
     1
  9
$HANDLING
 70
     1
  9
$HANDSEED
  5
557A
  9
$SURFTAB1
 70
     6
  9
$SURFTAB2
 70
     6
  9
$SURFTYPE
 70
     6
  9
$SURFU
 70
     6
  9
$SURFV
 70
     6
  9
$UCSNAME
  2

  9
$UCSORG
 10
0.0
 20
0.0
 30
0.0
  9
$UCSXDIR
 10
1.0
 20
0.0
 30
0.0
  9
$UCSYDIR
 10
0.0
 20
1.0
 30
0.0
  9
$PUCSNAME
  2

  9
$PUCSORG
 10
0.0
 20
0.0
 30
0.0
  9
$PUCSXDIR
 10
1.0
 20
0.0
 30
0.0
  9
$PUCSYDIR
 10
0.0
 20
1.0
 30
0.0
  9
$USERI1
 70
     0
  9
$USERI2
 70
     1
  9
$USERI3
 70
     0
  9
$USERI4
 70
     0
  9
$USERI5
 70
     0
  9
$USERR1
 40
0.0
  9
$USERR2
 40
0.0
  9
$USERR3
 40
0.0
  9
$USERR4
 40
0.0
  9
$USERR5
 40
0.0
  9
$WORLDVIEW
 70
     1
  9
$SHADEDGE
 70
     3
  9
$SHADEDIF
 70
    70
  9
$TILEMODE
 70
     1
  9
$MAXACTVP
 70
    16
  9
$PLIMCHECK
 70
     0
  9
$PEXTMIN
 10
1.0000000000000000E+020
 20
1.0000000000000000E+020
 30
1.0000000000000000E+020
  9
$PEXTMAX
 10
-1.0000000000000000E+020
 20
-1.0000000000000000E+020
 30
-1.0000000000000000E+020
  9
$PLIMMIN
 10
0.0
 20
0.0
  9
$PLIMMAX
 10
12.0
 20
9.0
  9
$UNITMODE
 70
     0
  9
$VISRETAIN
 70
     0
  9
$PLINEGEN
 70
     0
  9
$PSLTSCALE
 70
     0
  0
ENDSEC
  0
SECTION
  2
TABLES
  0
TABLE
  2
VPORT
 70
     1
  0
VPORT
  2
*ACTIVE
 70
     0
 10
0.0
 20
0.0
 11
1.0
 21
1.0
 12
187.49427839065231
 22
174.91677254346851
 13
0.0
 23
0.0
 14
10.0
 24
10.0
 15
10.0
 25
10.0
 16
0.0
 26
0.0
 36
1.0
 17
0.0
 27
0.0
 37
0.0
 40
358.92027899574339
 41
1.7807262569832401
 42
50.0
 43
0.0
 44
0.0
 50
0.0
 51
0.0
 71
     0
 72
   500
 73
     1
 74
     0
 75
     0
 76
     0
 77
     0
 78
     2
  0
ENDTAB
  0
TABLE
  2
LTYPE
 70
     4
  0
LTYPE
  2
CONTINUOUS
 70
     0
  3
Solid Line
 72
    65
 73
     0
 40
0.0
  0
LTYPE
  2
CENTER
 70
     0
  3
____ _ ____ _ ____ _ ____ _ ____ _ ____ _ ____
 72
    65
 73
     4
 40
2.0
 49
1.25
 49
-0.25
 49
0.25
 49
-0.25
  0
LTYPE
  2
HIDDEN
 70
     0
  3
_ _ _ _ _ _ _ _ _ _ _ _ _ _ _ _ _ _ _ _ _ _ _
 72
    65
 73
     2
 40
0.375
 49
0.25
 49
-0.125
  0
LTYPE
  2
PHANTOM2
 70
     0
  3
___ _ _ ___ _ _ ___ _ _ ___ _ _
 72
    65
 73
     6
 40
1.25
 49
0.625
 49
-0.125
 49
0.125
 49
-0.125
 49
0.125
 49
-0.125
  0
ENDTAB
  0
TABLE
  2
LAYER
 70
     5
  0
LAYER
  2
0
 70
     0
 62
     7
  6
CONTINUOUS
  0
LAYER
  2
1
 70
     0
 62
     1
  6
CENTER
  0
LAYER
  2
3
 70
     0
 62
     3
  6
CONTINUOUS
  0
LAYER
  2
2
 70
     0
 62
     2
  6
HIDDEN
  0
LAYER
  2
DEFPOINTS
 70
     0
 62
     7
  6
CONTINUOUS
  0
ENDTAB
  0
TABLE
  2
STYLE
 70
     2
  0
STYLE
  2
STANDARD
 70
     0
 40
0.0
 41
1.0
 50
0.0
 71
     0
 42
4.000000000000048
  3
SIMPLEX
  4
BIGFONT
  0
STYLE
  2
STANDARD1
 70
     0
 40
0.0
 41
1.0
 50
0.0
 71
     0
 42
3.0
  3
txt
  4

  0
ENDTAB
  0
TABLE
  2
VIEW
 70
     1
  0
VIEW
  2
ALL
 70
     0
 40
270.0
 10
220.78595317725751
 20
135.0
 41
441.57190635451502
 11
0.0
 21
0.0
 31
1.0
 12
0.0
 22
0.0
 32
0.0
 42
50.0
 43
0.0
 44
0.0
 50
0.0
 71
     0
  0
ENDTAB
  0
TABLE
  2
UCS
 70
     0
  0
ENDTAB
  0
TABLE
  2
APPID
 70
     4
  0
APPID
  2
ACAD
 70
     0
  0
APPID
  2
ACAD_EXEMPT_FROM_CAD_STANDARDS
 70
     0
  0
APPID
  2
ACAD_MLEADERVER
 70
     0
  0
APPID
  2
ACAD_NAV_VCDISPLAY
 70
     0
  0
ENDTAB
  0
TABLE
  2
DIMSTYLE
 70
     1
  0
DIMSTYLE
  2
STANDARD
 70
     0
  3

  4

  5

  6

  7

 40
1.0
 41
0.18
 42
0.0625
 43
0.38
 44
0.18
 45
0.0
 46
0.0
 47
0.0
 48
0.0
140
0.18
141
0.09
142
0.0
143
25.399999999999999
144
1.0
145
0.0
146
1.0
147
0.09
 71
     0
 72
     0
 73
     1
 74
     1
 75
     0
 76
     0
 77
     0
 78
     0
170
     0
171
     2
172
     0
173
     0
174
     0
175
     0
176
     0
177
     0
178
     0
  0
ENDTAB
  0
ENDSEC
  0
SECTION
  2
BLOCKS
  0
BLOCK
  8
0
  2
$MODEL_SPACE
 70
     0
 10
0.0
 20
0.0
 30
0.0
  3
$MODEL_SPACE
  1

  0
ENDBLK
  5
F3C
  8
0
  0
BLOCK
 67
     1
  8
0
  2
$PAPER_SPACE
 70
     0
 10
0.0
 20
0.0
 30
0.0
  3
$PAPER_SPACE
  1

  0
ENDBLK
  5
F3A
 67
     1
  8
0
  0
ENDSEC
  0
SECTION
  2
ENTITIES
  0
CIRCLE
  5
36F4
  8
0
 10
83.562851695371592
 20
137.06978380282541
 30
0.0
 40
14.999999999999989
  0
CIRCLE
  5
36F5
  8
0
 10
83.562851695371592
 20
137.06978380282541
 30
0.0
 40
7.0000000000000142
  0
LINE
  5
4F2D
  8
3
 10
91.277657819939563
 20
165.8648435731711
 30
0.0
 11
91.363984437687122
 21
165.8710256924214
 31
0.0
  0
LINE
  5
4F2E
  8
3
 10
91.191509084803783
 20
165.87038121719979
 30
0.0
 11
91.277657819939563
 21
165.8648435731711
 31
0.0
  0
LINE
  5
4F2F
  8
3
 10
91.108167355907881
 20
165.8864446689667
 30
0.0
 11
91.191509084803783
 21
165.87038121719979
 31
0.0
  0
LINE
  5
4F30
  8
3
 10
91.027988398475372
 20
165.91221995254179
 30
0.0
 11
91.108167355907881
 21
165.8864446689667
 31
0.0
  0
ARC
  5
4F31
  8
0
 10
83.562851695371592
 20
99.069783802825455
 30
0.0
 40
80.000000000000028
 50
73.893756056764886
 51
106.1062439432351
  0
ARC
  5
4F32
  8
0
 10
105.06285169537161
 20
173.52782567877051
 30
0.0
 40
2.5000000000000391
 50
0.0
 51
73.893756056764886
  0
ARC
  5
4F33
  8
0
 10
105.06285169537161
 20
117.1117419268803
 30
0.0
 40
2.500000000000028
 50
286.10624394324162
 51
0.0
  0
ARC
  5
4F34
  8
0
 10
83.562851695371592
 20
191.56978380282541
 30
0.0
 40
80.0
 50
253.89375605676511
 51
286.10624394323509
  0
ARC
  5
4F35
  8
0
 10
62.062851695371592
 20
117.1117419268803
 30
0.0
 40
2.500000000000012
 50
180.0
 51
253.89375605676489
  0
LINE
  5
4F36
  8
0
 10
59.562851486755328
 20
173.527825321752
 30
0.0
 11
59.562851486755328
 21
117.1117421944918
 31
0.0
  0
ARC
  5
4F37
  8
0
 10
62.062851695371592
 20
173.52782567877051
 30
0.0
 40
2.5000000000000142
 50
106.1062439432351
 51
180.0
  0
LINE
  5
4F38
  8
0
 10
107.56285190398781
 20
117.1117421944918
 30
0.0
 11
107.56285190398781
 21
173.527825321752
 31
0.0
  0
LINE
  5
4F39
  8
3
 10
91.584851777208755
 20
165.95612063606401
 30
0.0
 11
91.64492673988434
 21
166.003500740725
 31
0.0
  0
LINE
  5
4F3A
  8
3
 10
91.517818903578245
 20
165.91761417289399
 30
0.0
 11
91.584851777208755
 21
165.95612063606401
 31
0.0
  0
LINE
  5
4F3B
  8
3
 10
91.444124279571497
 20
165.88893130024101
 30
0.0
 11
91.517818903578245
 21
165.91761417289399
 31
0.0
  0
LINE
  5
4F3C
  8
3
 10
91.363984437687122
 20
165.8710256924214
 30
0.0
 11
91.444124279571497
 21
165.88893130024101
 31
0.0
  0
CIRCLE
  5
4F3D
  8
0
 10
66.562851695371592
 20
154.06978380282541
 30
0.0
 40
5.0
  0
CIRCLE
  5
4F3E
  8
0
 10
83.562851695371592
 20
167.06978380282541
 30
0.0
 40
3.0
  0
CIRCLE
  5
4F3F
  8
0
 10
100.56285169537161
 20
154.06978380282541
 30
0.0
 40
4.9999999999999707
  0
LINE
  5
4F40
  8
3
 10
91.810859551681006
 20
166.2627287914338
 30
0.0
 11
91.832445746315443
 21
166.34020737906121
 31
0.0
  0
LINE
  5
4F41
  8
3
 10
91.781048847390124
 20
166.18936664958619
 30
0.0
 11
91.810859551681006
 21
166.2627287914338
 31
0.0
  0
LINE
  5
4F42
  8
3
 10
91.743292098892653
 20
166.12107462783479
 30
0.0
 11
91.781048847390124
 21
166.18936664958619
 31
0.0
  0
LINE
  5
4F43
  8
3
 10
91.697825862122485
 20
166.05880081256049
 30
0.0
 11
91.743292098892653
 21
166.12107462783479
 31
0.0
  0
LINE
  5
4F44
  8
3
 10
91.64492673988434
 20
166.003500740725
 30
0.0
 11
91.697825862122485
 21
166.05880081256049
 31
0.0
  0
LINE
  5
4F45
  8
3
 10
90.668013596934983
 20
165.3649356921496
 30
0.0
 11
90.562195794684612
 21
165.42789496083881
 31
0.0
  0
LINE
  5
4F46
  8
3
 10
90.779465435100505
 20
165.31217440565251
 30
0.0
 11
90.668013596934983
 21
165.3649356921496
 31
0.0
  0
LINE
  5
4F47
  8
3
 10
90.896650029374086
 20
165.270168032247
 30
0.0
 11
90.779465435100505
 21
165.31217440565251
 31
0.0
  0
LINE
  5
4F48
  8
3
 10
91.019626518739173
 20
165.2394679148974
 30
0.0
 11
90.896650029374086
 21
165.270168032247
 31
0.0
  0
LINE
  5
4F49
  8
3
 10
91.148454507840583
 20
165.22062912185811
 30
0.0
 11
91.019626518739173
 21
165.2394679148974
 31
0.0
  0
LINE
  5
4F4A
  8
3
 10
91.283193135661804
 20
165.214225347835
 30
0.0
 11
91.148454507840583
 21
165.22062912185811
 31
0.0
  0
LINE
  5
4F4B
  8
3
 10
91.484332269085371
 20
165.22602706750061
 30
0.0
 11
91.283193135661804
 21
165.214225347835
 31
0.0
  0
LINE
  5
4F4C
  8
3
 10
91.671297138584563
 20
165.2606201132121
 30
0.0
 11
91.484332269085371
 21
165.22602706750061
 31
0.0
  0
LINE
  5
4F4D
  8
3
 10
91.843476330889175
 20
165.31689993639611
 30
0.0
 11
91.671297138584563
 21
165.2606201132121
 31
0.0
  0
LINE
  5
4F4E
  8
3
 10
92.000216988874385
 20
165.3936912079634
 30
0.0
 11
91.843476330889175
 21
165.31689993639611
 31
0.0
  0
LINE
  5
4F4F
  8
3
 10
92.140905370963523
 20
165.4898558517279
 30
0.0
 11
92.000216988874385
 21
165.3936912079634
 31
0.0
  0
LINE
  5
4F50
  8
3
 10
92.264890482676947
 20
165.6042446156325
 30
0.0
 11
92.140905370963523
 21
165.4898558517279
 31
0.0
  0
LINE
  5
4F51
  8
3
 10
92.371538093341314
 20
165.73571197291039
 30
0.0
 11
92.264890482676947
 21
165.6042446156325
 31
0.0
  0
LINE
  5
4F52
  8
3
 10
92.460217697573626
 20
165.88310308356901
 30
0.0
 11
92.371538093341314
 21
165.73571197291039
 31
0.0
  0
LINE
  5
4F53
  8
3
 10
92.530295064700553
 20
166.04527614613201
 30
0.0
 11
92.460217697573626
 21
165.88310308356901
 31
0.0
  0
LINE
  5
4F54
  8
3
 10
92.581137826693976
 20
166.221080045897
 30
0.0
 11
92.530295064700553
 21
166.04527614613201
 31
0.0
  0
LINE
  5
4F55
  8
3
 10
92.612114546848261
 20
166.4093711187424
 30
0.0
 11
92.581137826693976
 21
166.221080045897
 31
0.0
  0
LINE
  5
4F56
  8
3
 10
92.622571436716044
 20
166.60899638732101
 30
0.0
 11
92.612114546848261
 21
166.4093711187424
 31
0.0
  0
LINE
  5
4F57
  8
3
 10
92.612075431300127
 20
166.79678827126639
 30
0.0
 11
92.622571436716044
 21
166.60899638732101
 31
0.0
  0
LINE
  5
4F58
  8
3
 10
92.581572754336321
 20
166.96233830948489
 30
0.0
 11
92.612075431300127
 21
166.79678827126639
 31
0.0
  0
LINE
  5
4F59
  8
3
 10
92.532587980879271
 20
167.10783324738159
 30
0.0
 11
92.581572754336321
 21
166.96233830948489
 31
0.0
  0
LINE
  5
4F5A
  8
3
 10
92.46666151846739
 20
167.23546169300701
 30
0.0
 11
92.532587980879271
 21
167.10783324738159
 31
0.0
  0
LINE
  5
4F5B
  8
3
 10
92.385296521736095
 20
167.3474141170563
 30
0.0
 11
92.46666151846739
 21
167.23546169300701
 31
0.0
  0
LINE
  5
4F5C
  8
3
 10
90.562195794684612
 20
165.42789496083881
 30
0.0
 11
90.461932400269234
 21
165.50048224230429
 31
0.0
  0
LINE
  5
4F5D
  8
3
 10
92.182319423211524
 20
167.53304533262869
 30
0.0
 11
92.290014771772334
 21
167.4458791275801
 31
0.0
  0
LINE
  5
4F5E
  8
3
 10
92.063750883592093
 20
167.61110134025239
 30
0.0
 11
92.182319423211524
 21
167.53304533262869
 31
0.0
  0
LINE
  5
4F5F
  8
3
 10
91.93581230754944
 20
167.68223762114661
 30
0.0
 11
92.063750883592093
 21
167.61110134025239
 31
0.0
  0
LINE
  5
4F60
  8
3
 10
91.800045965267145
 20
167.74864464600699
 30
0.0
 11
91.93581230754944
 21
167.68223762114661
 31
0.0
  0
LINE
  5
4F61
  8
3
 10
91.657954080058062
 20
167.81250729759361
 30
0.0
 11
91.800045965267145
 21
167.74864464600699
 31
0.0
  0
LINE
  5
4F62
  8
3
 10
91.511058433009111
 20
167.87601790924691
 30
0.0
 11
91.657954080058062
 21
167.81250729759361
 31
0.0
  0
LINE
  5
4F63
  8
3
 10
91.564352436018893
 20
169.53030570943969
 30
0.0
 11
91.662995329154455
 21
169.51330348451751
 31
0.0
  0
LINE
  5
4F64
  8
3
 10
91.468714920831644
 20
169.54070299466269
 30
0.0
 11
91.564352436018893
 21
169.53030570943969
 31
0.0
  0
LINE
  5
4F65
  8
3
 10
91.377407124293754
 20
169.5442196687045
 30
0.0
 11
91.468714920831644
 21
169.54070299466269
 31
0.0
  0
LINE
  5
4F66
  8
3
 10
91.210624480647766
 20
169.53315183122771
 30
0.0
 11
91.377407124293754
 21
169.5442196687045
 31
0.0
  0
LINE
  5
4F67
  8
3
 10
91.052520366413304
 20
169.50090944369461
 30
0.0
 11
91.210624480647766
 21
169.53315183122771
 31
0.0
  0
LINE
  5
4F68
  8
3
 10
90.904201192809055
 20
169.4489006658377
 30
0.0
 11
91.052520366413304
 21
169.50090944369461
 31
0.0
  0
LINE
  5
4F69
  8
3
 10
90.766813883585655
 20
169.37856718500279
 30
0.0
 11
90.904201192809055
 21
169.4489006658377
 31
0.0
  0
LINE
  5
4F6A
  8
3
 10
90.641425734413573
 20
169.29130598505159
 30
0.0
 11
90.766813883585655
 21
169.37856718500279
 31
0.0
  0
LINE
  5
4F6B
  8
3
 10
90.529163645608151
 20
169.18856992920061
 30
0.0
 11
90.641425734413573
 21
169.29130598505159
 31
0.0
  0
LINE
  5
4F6C
  8
3
 10
90.43111447061392
 20
169.0717783530535
 30
0.0
 11
90.529163645608151
 21
169.18856992920061
 31
0.0
  0
LINE
  5
4F6D
  8
3
 10
90.348424667520234
 20
168.9423505922141
 30
0.0
 11
90.43111447061392
 21
169.0717783530535
 31
0.0
  0
LINE
  5
4F6E
  8
3
 10
90.282182486755573
 20
168.80170970757621
 30
0.0
 11
90.348424667520234
 21
168.9423505922141
 31
0.0
  0
LINE
  5
4F6F
  8
3
 10
90.233474316103184
 20
168.65128621061459
 30
0.0
 11
90.282182486755573
 21
168.80170970757621
 31
0.0
  0
LINE
  5
4F70
  8
3
 10
90.203446613652432
 20
168.4925031622233
 30
0.0
 11
90.233474316103184
 21
168.65128621061459
 31
0.0
  0
LINE
  5
4F71
  8
3
 10
90.193187164170453
 20
168.32678362329619
 30
0.0
 11
90.203446613652432
 21
168.4925031622233
 31
0.0
  0
LINE
  5
4F72
  8
3
 10
90.200896652443134
 20
168.17761554916521
 30
0.0
 11
90.193187164170453
 21
168.32678362329619
 31
0.0
  0
LINE
  5
4F73
  8
3
 10
90.223451888216445
 20
168.04247691829821
 30
0.0
 11
90.200896652443134
 21
168.17761554916521
 31
0.0
  0
LINE
  5
4F74
  8
3
 10
92.290014771772334
 20
167.4458791275801
 30
0.0
 11
92.385296521736095
 21
167.3474141170563
 31
0.0
  0
LINE
  5
4F75
  8
3
 10
90.310232991380417
 20
167.80983253915929
 30
0.0
 11
90.260160898817503
 21
167.92025200625079
 31
0.0
  0
LINE
  5
4F76
  8
3
 10
90.372937077684114
 20
167.71009906728881
 30
0.0
 11
90.310232991380417
 21
167.80983253915929
 31
0.0
  0
LINE
  5
4F77
  8
3
 10
90.447521580410921
 20
167.61994145413061
 30
0.0
 11
90.372937077684114
 21
167.71009906728881
 31
0.0
  0
LINE
  5
4F78
  8
3
 10
90.533215830130302
 20
167.53824211259499
 30
0.0
 11
90.447521580410921
 21
167.61994145413061
 31
0.0
  0
LINE
  5
4F79
  8
3
 10
90.629288272959911
 20
167.46388718088289
 30
0.0
 11
90.533215830130302
 21
167.53824211259499
 31
0.0
  0
LINE
  5
4F7A
  8
3
 10
90.734967773807966
 20
167.39576652248519
 30
0.0
 11
90.629288272959911
 21
167.46388718088289
 31
0.0
  0
LINE
  5
4F7B
  8
3
 10
90.849523244453394
 20
167.3327606876673
 30
0.0
 11
90.734967773807966
 21
167.39576652248519
 31
0.0
  0
LINE
  5
4F7C
  8
3
 10
90.972203107578466
 20
167.27375767727511
 30
0.0
 11
90.849523244453394
 21
167.3327606876673
 31
0.0
  0
LINE
  5
4F7D
  8
3
 10
91.102236693752715
 20
167.21764549215459
 30
0.0
 11
90.972203107578466
 21
167.27375767727511
 31
0.0
  0
LINE
  5
4F7E
  8
3
 10
91.188247127486193
 20
167.18446433146619
 30
0.0
 11
91.102236693752715
 21
167.21764549215459
 31
0.0
  0
LINE
  5
4F7F
  8
3
 10
91.27548318172785
 20
167.15030155678409
 30
0.0
 11
91.188247127486193
 21
167.18446433146619
 31
0.0
  0
LINE
  5
4F80
  8
3
 10
91.362264750553095
 20
167.11402095456739
 30
0.0
 11
91.27548318172785
 21
167.15030155678409
 31
0.0
  0
LINE
  5
4F81
  8
3
 10
91.446950843585455
 20
167.0744788606944
 30
0.0
 11
91.362264750553095
 21
167.11402095456739
 31
0.0
  0
LINE
  5
4F82
  8
3
 10
91.527880912674391
 20
167.03052974839829
 30
0.0
 11
91.446950843585455
 21
167.0744788606944
 31
0.0
  0
LINE
  5
4F83
  8
3
 10
91.60341396744343
 20
166.9810392667832
 30
0.0
 11
91.527880912674391
 21
167.03052974839829
 31
0.0
  0
LINE
  5
4F84
  8
3
 10
91.671870833290541
 20
166.92486002643719
 30
0.0
 11
91.60341396744343
 21
166.9810392667832
 31
0.0
  0
LINE
  5
4F85
  8
3
 10
91.731590030742595
 20
166.8608520885291
 30
0.0
 11
91.671870833290541
 21
166.92486002643719
 31
0.0
  0
LINE
  5
4F86
  8
3
 10
91.780930569423163
 20
166.78787551422741
 30
0.0
 11
91.731590030742595
 21
166.8608520885291
 31
0.0
  0
LINE
  5
4F87
  8
3
 10
91.818213274730155
 20
166.70478663941049
 30
0.0
 11
91.780930569423163
 21
166.78787551422741
 31
0.0
  0
LINE
  5
4F88
  8
3
 10
91.841815782738635
 20
166.61044738789221
 30
0.0
 11
91.818213274730155
 21
166.70478663941049
 31
0.0
  0
LINE
  5
4F89
  8
3
 10
91.850039361072504
 20
166.503714095551
 30
0.0
 11
91.841815782738635
 21
166.61044738789221
 31
0.0
  0
LINE
  5
4F8A
  8
3
 10
91.845611853552782
 20
166.42085246344229
 30
0.0
 11
91.850039361072504
 21
166.503714095551
 31
0.0
  0
LINE
  5
4F8B
  8
3
 10
91.832445746315443
 20
166.34020737906121
 30
0.0
 11
91.845611853552782
 21
166.42085246344229
 31
0.0
  0
LINE
  5
4F8C
  8
3
 10
92.406547440243685
 20
169.17384385665079
 30
0.0
 11
92.474469726932966
 21
169.11016746957921
 31
0.0
  0
LINE
  5
4F8D
  8
3
 10
92.330045809997046
 20
169.23345222671651
 30
0.0
 11
92.406547440243685
 21
169.17384385665079
 31
0.0
  0
LINE
  5
4F8E
  8
3
 10
92.246288245571563
 20
169.28871690829419
 30
0.0
 11
92.330045809997046
 21
169.23345222671651
 31
0.0
  0
LINE
  5
4F8F
  8
3
 10
92.156542276991331
 20
169.33935105403091
 30
0.0
 11
92.246288245571563
 21
169.28871690829419
 31
0.0
  0
LINE
  5
4F90
  8
3
 10
92.062090335441553
 20
169.3850901683154
 30
0.0
 11
92.156542276991331
 21
169.33935105403091
 31
0.0
  0
LINE
  5
4F91
  8
3
 10
91.964219508720362
 20
169.42561387618201
 30
0.0
 11
92.062090335441553
 21
169.3850901683154
 31
0.0
  0
LINE
  5
4F92
  8
3
 10
91.864213159335577
 20
169.46070238550331
 30
0.0
 11
91.964219508720362
 21
169.42561387618201
 31
0.0
  0
LINE
  5
4F93
  8
3
 10
91.763396559310877
 20
169.49001669486191
 30
0.0
 11
91.864213159335577
 21
169.46070238550331
 31
0.0
  0
LINE
  5
4F94
  8
3
 10
91.662995329154455
 20
169.51330348451751
 30
0.0
 11
91.763396559310877
 21
169.49001669486191
 31
0.0
  0
CIRCLE
  5
4F95
  8
0
 10
83.562851695371592
 20
137.06978380282541
 30
0.0
 40
18.599999999999991
  0
LINE
  5
4F96
  8
3
 10
90.951367558939182
 20
165.94689681728499
 30
0.0
 11
91.027988398475372
 21
165.91221995254179
 31
0.0
  0
LINE
  5
4F97
  8
3
 10
90.878641510410034
 20
165.98965756197589
 30
0.0
 11
90.951367558939182
 21
165.94689681728499
 31
0.0
  0
LINE
  5
4F98
  8
3
 10
90.810204667998264
 20
166.03968821068429
 30
0.0
 11
90.878641510410034
 21
165.98965756197589
 31
0.0
  0
LINE
  5
4F99
  8
3
 10
90.746413262588703
 20
166.09617478747981
 30
0.0
 11
90.810204667998264
 21
166.03968821068429
 31
0.0
  0
LINE
  5
4F9A
  8
3
 10
90.687643082840154
 20
166.15830145378729
 30
0.0
 11
90.746413262588703
 21
166.09617478747981
 31
0.0
  0
LINE
  5
4F9B
  8
3
 10
90.634269917411515
 20
166.22525609632149
 30
0.0
 11
90.687643082840154
 21
166.15830145378729
 31
0.0
  0
LINE
  5
4F9C
  8
3
 10
90.586668623639071
 20
166.29622287650719
 30
0.0
 11
90.634269917411515
 21
166.22525609632149
 31
0.0
  0
LINE
  5
4F9D
  8
3
 10
90.545195432407581
 20
166.370385955769
 30
0.0
 11
90.586668623639071
 21
166.29622287650719
 31
0.0
  0
LINE
  5
4F9E
  8
3
 10
90.510245690149986
 20
166.44693322082179
 30
0.0
 11
90.545195432407581
 21
166.370385955769
 31
0.0
  0
LINE
  5
4F9F
  8
3
 10
90.041764358086311
 20
165.98833508391999
 30
0.0
 11
90.510245690149986
 21
166.44693322082179
 31
0.0
  0
LINE
  5
4FA0
  8
3
 10
90.115221960497806
 20
165.8759747405829
 30
0.0
 11
90.041764358086311
 21
165.98833508391999
 31
0.0
  0
LINE
  5
4FA1
  8
3
 10
90.193898694617474
 20
165.7704521675887
 30
0.0
 11
90.115221960497806
 21
165.8759747405829
 31
0.0
  0
LINE
  5
4FA2
  8
3
 10
90.27787279154154
 20
165.67232243319171
 30
0.0
 11
90.193898694617474
 21
165.7704521675887
 31
0.0
  0
LINE
  5
4FA3
  8
3
 10
90.367184763802015
 20
165.58214619358199
 30
0.0
 11
90.27787279154154
 21
165.67232243319171
 31
0.0
  0
LINE
  5
4FA4
  8
3
 10
90.461932400269234
 20
165.50048224230429
 30
0.0
 11
90.367184763802015
 21
165.58214619358199
 31
0.0
  0
LINE
  5
4FA5
  8
3
 10
91.045720314634764
 20
168.6831225415053
 30
0.0
 11
91.012094913078272
 21
168.62436353762769
 31
0.0
  0
LINE
  5
4FA6
  8
3
 10
91.086896879626224
 20
168.73662888606211
 30
0.0
 11
91.045720314634764
 21
168.6831225415053
 31
0.0
  0
LINE
  5
4FA7
  8
3
 10
91.134755218429291
 20
168.7844392617526
 30
0.0
 11
91.086896879626224
 21
168.73662888606211
 31
0.0
  0
LINE
  5
4FA8
  8
3
 10
91.188326289905035
 20
168.82611035903119
 30
0.0
 11
91.134755218429291
 21
168.7844392617526
 31
0.0
  0
LINE
  5
4FA9
  8
3
 10
91.246740704430053
 20
168.8611988683524
 30
0.0
 11
91.188326289905035
 21
168.82611035903119
 31
0.0
  0
LINE
  5
4FAA
  8
3
 10
91.309069002074921
 20
168.88926148017069
 30
0.0
 11
91.246740704430053
 21
168.8611988683524
 31
0.0
  0
LINE
  5
4FAB
  8
3
 10
91.374382654232704
 20
168.90985488494059
 30
0.0
 11
91.309069002074921
 21
168.88926148017069
 31
0.0
  0
LINE
  5
4FAC
  8
3
 10
91.441810874296152
 20
168.92253204782631
 30
0.0
 11
91.374382654232704
 21
168.90985488494059
 31
0.0
  0
LINE
  5
4FAD
  8
3
 10
91.510405575884306
 20
168.92685710986279
 30
0.0
 11
91.441810874296152
 21
168.92253204782631
 31
0.0
  0
LINE
  5
4FAE
  8
3
 10
91.575976273072683
 20
168.92430528600829
 30
0.0
 11
91.510405575884306
 21
168.92685710986279
 31
0.0
  0
LINE
  5
4FAF
  8
3
 10
91.638838684214065
 20
168.9167690237345
 30
0.0
 11
91.575976273072683
 21
168.92430528600829
 31
0.0
  0
LINE
  5
4FB0
  8
3
 10
91.699051482630693
 20
168.904430862266
 30
0.0
 11
91.638838684214065
 21
168.9167690237345
 31
0.0
  0
LINE
  5
4FB1
  8
3
 10
91.756694762063944
 20
168.887480791408
 30
0.0
 11
91.699051482630693
 21
168.904430862266
 31
0.0
  0
LINE
  5
4FB2
  8
3
 10
91.811867242706725
 20
168.86610507567539
 30
0.0
 11
91.756694762063944
 21
168.887480791408
 31
0.0
  0
LINE
  5
4FB3
  8
3
 10
91.864608040107214
 20
168.8404825290026
 30
0.0
 11
91.811867242706725
 21
168.86610507567539
 31
0.0
  0
LINE
  5
4FB4
  8
3
 10
91.914997248006785
 20
168.81080686648511
 30
0.0
 11
91.864608040107214
 21
168.8404825290026
 31
0.0
  0
LINE
  5
4FB5
  8
3
 10
91.963152213049852
 20
168.77725317676681
 30
0.0
 11
91.914997248006785
 21
168.81080686648511
 31
0.0
  0
LINE
  5
4FB6
  8
3
 10
92.009132539881193
 20
168.74001144965311
 30
0.0
 11
91.963152213049852
 21
168.77725317676681
 31
0.0
  0
LINE
  5
4FB7
  8
3
 10
92.052996901822993
 20
168.6992679496588
 30
0.0
 11
92.009132539881193
 21
168.74001144965311
 31
0.0
  0
LINE
  5
4FB8
  8
3
 10
92.094865439487421
 20
168.65520894129889
 30
0.0
 11
92.052996901822993
 21
168.6992679496588
 31
0.0
  0
LINE
  5
4FB9
  8
3
 10
92.134777268422553
 20
168.60801323850771
 30
0.0
 11
92.094865439487421
 21
168.65520894129889
 31
0.0
  0
LINE
  5
4FBA
  8
3
 10
92.474469726932966
 20
169.11016746957921
 30
0.0
 11
92.134777268422553
 21
168.60801323850771
 31
0.0
  0
LINE
  5
4FBB
  8
3
 10
90.260160898817503
 20
167.92025200625079
 30
0.0
 11
90.223451888216445
 21
168.04247691829821
 31
0.0
  0
LINE
  5
4FBC
  8
3
 10
91.054517122013294
 20
168.16488995750569
 30
0.0
 11
91.098955644322345
 21
168.11540133853569
 31
0.0
  0
LINE
  5
4FBD
  8
3
 10
90.971946062547886
 20
168.34723919232511
 30
0.0
 11
90.989698002142632
 21
168.28030876417779
 31
0.0
  0
LINE
  5
4FBE
  8
3
 10
90.965739263249361
 20
168.4209775884928
 30
0.0
 11
90.971946062547886
 21
168.34723919232511
 31
0.0
  0
LINE
  5
4FBF
  8
3
 10
90.971175393117392
 20
168.49284588893079
 30
0.0
 11
90.965739263249361
 21
168.4209775884928
 31
0.0
  0
LINE
  5
4FC0
  8
3
 10
90.986950134886214
 20
168.56078773339411
 30
0.0
 11
90.971175393117392
 21
168.49284588893079
 31
0.0
  0
LINE
  5
4FC1
  8
3
 10
91.012094913078272
 20
168.62436353762769
 30
0.0
 11
90.986950134886214
 21
168.56078773339411
 31
0.0
  0
LINE
  5
4FC2
  8
3
 10
91.264512201798865
 20
167.99386187990331
 30
0.0
 11
91.326010225368464
 21
167.96066023011821
 31
0.0
  0
LINE
  5
4FC3
  8
3
 10
91.205267513198564
 20
168.0303883512797
 30
0.0
 11
91.264512201798865
 21
167.99386187990331
 31
0.0
  0
LINE
  5
4FC4
  8
3
 10
91.149660104913437
 20
168.07073510785719
 30
0.0
 11
91.205267513198564
 21
168.0303883512797
 31
0.0
  0
LINE
  5
4FC5
  8
3
 10
91.098955644322345
 20
168.11540133853569
 30
0.0
 11
91.149660104913437
 21
168.07073510785719
 31
0.0
  0
LINE
  5
4FC6
  8
3
 10
91.388497313512275
 20
167.93028421302461
 30
0.0
 11
91.450608147335956
 21
167.90223836501261
 31
0.0
  0
LINE
  5
4FC7
  8
3
 10
91.017669344348633
 20
168.21969270308631
 30
0.0
 11
91.054517122013294
 21
168.16488995750569
 31
0.0
  0
LINE
  5
4FC8
  8
3
 10
90.989698002142632
 20
168.28030876417779
 30
0.0
 11
91.017669344348633
 21
168.21969270308631
 31
0.0
  0
LINE
  5
4FC9
  8
3
 10
91.326010225368464
 20
167.96066023011821
 30
0.0
 11
91.388497313512275
 21
167.93028421302461
 31
0.0
  0
LINE
  5
4FCA
  8
3
 10
91.450608147335956
 20
167.90223836501261
 30
0.0
 11
91.511058433009111
 21
167.87601790924691
 31
0.0
  0
LINE
  5
4FCB
  8
3
 10
96.963390519870245
 20
169.4682721753897
 30
0.0
 11
97.966368122054064
 21
169.4682721753897
 31
0.0
  0
LINE
  5
4FCC
  8
3
 10
95.672265438390696
 20
167.16866165002011
 30
0.0
 11
95.661185493720495
 21
167.16866165002011
 31
0.0
  0
LINE
  5
4FCD
  8
3
 10
97.007716817809055
 20
165.2901728411498
 30
0.0
 11
95.672265438390696
 21
167.16866165002011
 31
0.0
  0
LINE
  5
4FCE
  8
3
 10
98.055027237189734
 20
165.2901728411498
 30
0.0
 11
97.007716817809055
 21
165.2901728411498
 31
0.0
  0
LINE
  5
4FCF
  8
3
 10
96.381554191959822
 20
167.5399278064551
 30
0.0
 11
98.055027237189734
 21
165.2901728411498
 31
0.0
  0
LINE
  5
4FD0
  8
3
 10
97.966368122054064
 20
169.4682721753897
 30
0.0
 11
96.381554191959822
 21
167.5399278064551
 31
0.0
  0
LINE
  5
4FD1
  8
3
 10
95.661185493720495
 20
169.4682721753897
 30
0.0
 11
95.661185493720495
 21
167.70615957279821
 31
0.0
  0
LINE
  5
4FD2
  8
3
 10
94.846614448381374
 20
169.4682721753897
 30
0.0
 11
95.661185493720495
 21
169.4682721753897
 31
0.0
  0
LINE
  5
4FD3
  8
3
 10
94.846614448381374
 20
165.2901728411498
 30
0.0
 11
94.846614448381374
 21
169.4682721753897
 31
0.0
  0
LINE
  5
4FD4
  8
3
 10
95.661185493720495
 20
165.2901728411498
 30
0.0
 11
94.846614448381374
 21
165.2901728411498
 31
0.0
  0
LINE
  5
4FD5
  8
3
 10
95.661185493720495
 20
167.16866165002011
 30
0.0
 11
95.661185493720495
 21
165.2901728411498
 31
0.0
  0
LINE
  5
4FD6
  8
3
 10
99.450587106896364
 20
164.64567899306431
 30
0.0
 11
100.5107432585487
 21
164.64567899306431
 31
0.0
  0
LINE
  5
4FD7
  8
3
 10
95.661185493720495
 20
167.70615957279821
 30
0.0
 11
95.672265438390696
 21
167.70615957279821
 31
0.0
  0
LINE
  5
4FD8
  8
3
 10
91.0523229260275
 20
164.64567899306431
 30
0.0
 11
92.120445145321796
 21
164.64567899306431
 31
0.0
  0
LINE
  5
4FD9
  8
3
 10
95.672265438390696
 20
167.70615957279821
 30
0.0
 11
96.963390519870245
 21
169.4682721753897
 31
0.0
  0
LINE
  5
4FDA
  8
3
 10
92.120445145321796
 20
170.0938899775328
 30
0.0
 11
91.0523229260275
 21
170.0938899775328
 31
0.0
  0
LINE
  5
4FDB
  8
3
 10
100.5107432585487
 20
170.0938899775328
 30
0.0
 11
99.450587106896364
 21
170.0938899775328
 31
0.0
  0
LINE
  5
4FDC
  8
3
 10
93.148083237958872
 20
169.4682721753897
 30
0.0
 11
93.962656145943114
 21
169.4682721753897
 31
0.0
  0
LINE
  5
4FDD
  8
3
 10
93.148083237958872
 20
165.2901728411498
 30
0.0
 11
93.148083237958872
 21
169.4682721753897
 31
0.0
  0
LINE
  5
4FDE
  8
3
 10
93.962656145943114
 20
165.2901728411498
 30
0.0
 11
93.148083237958872
 21
165.2901728411498
 31
0.0
  0
LINE
  5
4FDF
  8
3
 10
93.962656145943114
 20
169.4682721753897
 30
0.0
 11
93.962656145943114
 21
165.2901728411498
 31
0.0
  0
CIRCLE
  5
4FE0
  8
0
 10
66.562851695371592
 20
154.06978380282541
 30
0.0
 40
2.7499999999999711
  0
CIRCLE
  5
4FE1
  8
0
 10
100.56285169537161
 20
154.06978380282541
 30
0.0
 40
2.75
  0
LINE
  5
4FFB
  8
0
 10
182.5628517526479
 20
179.06978380282541
 30
0.0
 11
157.56285190398779
 21
179.06978380282541
 31
0.0
  0
LINE
  5
4FFC
  8
0
 10
177.5628519226143
 20
111.5697848459067
 30
0.0
 11
182.5628517526479
 21
111.5697848459067
 31
0.0
  0
LINE
  5
4FFD
  8
0
 10
157.56285190398779
 20
111.5697848459067
 30
0.0
 11
162.56285086090651
 21
111.5697848459067
 31
0.0
  0
LINE
  5
4FFE
  8
0
 10
182.86285176689699
 20
159.06978424986031
 30
0.0
 11
182.56285175264779
 21
159.06978424986031
 31
0.0
  0
LINE
  5
4FFF
  8
0
 10
182.56285175264779
 20
149.06978447337769
 30
0.0
 11
182.86285176689699
 21
149.06978447337769
 31
0.0
  0
LINE
  5
5000
  8
0
 10
182.56285175264779
 20
175.92969935734891
 30
0.0
 11
157.56285190398771
 21
175.92969935734891
 31
0.0
  0
LINE
  5
5001
  8
0
 10
157.56285190398771
 20
173.52782588799619
 30
0.0
 11
182.56285175264779
 21
173.52782588799619
 31
0.0
  0
LINE
  5
5002
  8
0
 10
182.56285175264779
 20
117.11174276073589
 30
0.0
 11
157.56285190398771
 21
117.11174276073589
 31
0.0
  0
LINE
  5
5003
  8
0
 10
157.56285190398771
 20
114.7098692913832
 30
0.0
 11
182.56285175264779
 21
114.7098692913832
 31
0.0
  0
LINE
  5
5004
  8
0
 10
157.56285190398771
 20
111.5697848459067
 30
0.0
 11
157.56285190398779
 21
179.06978380282541
 31
0.0
  0
LINE
  5
5005
  8
0
 10
182.5628517526479
 20
179.06978380282541
 30
0.0
 11
182.56285175264779
 21
111.5697848459066
 31
0.0
  0
ARC
  5
5006
  8
0
 10
170.0628513917604
 20
31.78974865027908
 30
0.0
 40
80.131792587826524
 50
84.629494104658505
 51
95.370505895341481
  0
LINE
  5
5007
  8
0
 10
182.86285176689699
 20
149.06978447337769
 30
0.0
 11
182.86285176689699
 21
159.06978424986031
 31
0.0
  0
LINE
  5
5008
  8
2
 10
163.06285187418541
 20
149.06978447337769
 30
0.0
 11
163.0628518741855
 21
159.06978424986011
 31
0.0
  0
LINE
  5
5009
  8
2
 10
177.5628519226143
 20
112.06978399654049
 30
0.0
 11
162.56285086090651
 21
112.06978399654049
 31
0.0
  0
LINE
  5
500A
  8
2
 10
174.92790490301371
 20
120.76978411873
 30
0.0
 11
165.19779834616841
 21
120.76978411873
 31
0.0
  0
LINE
  5
500B
  8
2
 10
167.5628516804704
 20
170.0697841902556
 30
0.0
 11
167.5628516804704
 21
164.06978506942411
 31
0.0
  0
LINE
  5
500C
  8
2
 10
165.56285135264491
 20
164.06978506942411
 30
0.0
 11
165.56285135264491
 21
170.0697841902556
 31
0.0
  0
LINE
  5
500D
  8
2
 10
157.56285190398771
 20
149.06978447337769
 30
0.0
 11
163.06285187418541
 21
149.06978447337769
 31
0.0
  0
LINE
  5
500E
  8
2
 10
163.06285187418541
 20
159.06978424986031
 30
0.0
 11
157.56285190398771
 21
159.06978424986031
 31
0.0
  0
LINE
  5
500F
  8
2
 10
182.86285176689699
 20
156.8197852780404
 30
0.0
 11
163.06285187418541
 21
156.8197852780404
 31
0.0
  0
LINE
  5
5010
  8
2
 10
163.06285187418541
 20
151.31978437652009
 30
0.0
 11
182.86285176689699
 21
151.31978437652009
 31
0.0
  0
LINE
  5
5011
  8
2
 10
182.5628517526479
 20
152.06978380282541
 30
0.0
 11
157.56285190398779
 21
152.06978380282541
 31
0.0
  0
LINE
  5
5012
  8
2
 10
157.56285190398771
 20
122.0697838028254
 30
0.0
 11
182.56285175264779
 21
122.0697838028255
 31
0.0
  0
LINE
  5
5013
  8
2
 10
177.5628519226143
 20
111.5697848459067
 30
0.0
 11
177.5628519226143
 21
112.06978399654049
 31
0.0
  0
LINE
  5
5014
  8
2
 10
162.56285086090651
 20
112.06978399654049
 30
0.0
 11
162.56285086090651
 21
111.5697848459067
 31
0.0
  0
LINE
  5
5015
  8
2
 10
174.34585187400671
 20
112.06978399654049
 30
0.0
 11
174.34585187400671
 21
120.76978411873
 31
0.0
  0
LINE
  5
5016
  8
2
 10
165.77985137517541
 20
120.76978411873
 30
0.0
 11
165.77985137517541
 21
112.06978399654049
 31
0.0
  0
LINE
  5
5017
  8
2
 10
182.5628517526479
 20
170.0697841902556
 30
0.0
 11
167.5628516804704
 21
170.0697841902556
 31
0.0
  0
LINE
  5
5018
  8
2
 10
167.5628516804704
 20
164.06978506942411
 30
0.0
 11
182.5628517526479
 21
164.06978506942411
 31
0.0
  0
LINE
  5
5019
  8
2
 10
165.56285135264491
 20
170.0697841902556
 30
0.0
 11
157.56285190398779
 21
170.0697841902556
 31
0.0
  0
LINE
  5
501A
  8
2
 10
157.56285190398779
 20
164.06978506942411
 30
0.0
 11
165.56285135264491
 21
164.06978506942411
 31
0.0
  0
LINE
  5
501B
  8
0
 10
105.5628515761622
 20
36.26978393991601
 30
0.0
 11
105.5628515761622
 21
36.569783954165253
 31
0.0
  0
LINE
  5
501C
  8
0
 10
95.562851799679606
 20
36.569783954165253
 30
0.0
 11
95.562851799679606
 21
36.26978393991601
 31
0.0
  0
LINE
  5
501D
  8
0
 10
71.56285159106335
 20
36.26978393991601
 30
0.0
 11
71.56285159106335
 21
36.569783954165253
 31
0.0
  0
LINE
  5
501E
  8
0
 10
61.562851814580767
 20
36.569783954165253
 30
0.0
 11
61.562851814580767
 21
36.26978393991601
 31
0.0
  0
LINE
  5
501F
  8
0
 10
105.7564008962639
 20
61.569783802825441
 30
0.0
 11
105.7564008962639
 21
36.569783954165359
 31
0.0
  0
LINE
  5
5020
  8
0
 10
61.36930249447903
 20
36.569783954165359
 30
0.0
 11
61.36930249447903
 21
61.569783802825441
 31
0.0
  0
LINE
  5
5021
  8
0
 10
107.56285190398781
 20
61.569783802825441
 30
0.0
 11
59.562851486755328
 21
61.569783802825327
 31
0.0
  0
CIRCLE
  5
5022
  8
0
 10
83.562846312817555
 20
49.070039003940558
 30
0.0
 40
7.4997458419681511
  0
LINE
  5
5023
  8
0
 10
107.56285190398781
 20
36.569783954165359
 30
0.0
 11
59.562851486755328
 21
36.569783954165253
 31
0.0
  0
CIRCLE
  5
5024
  8
0
 10
83.562851695371478
 20
49.069783939916192
 30
0.0
 40
4.2829999999999968
  0
LINE
  5
5025
  8
0
 10
107.56285190398771
 20
36.569783954165359
 30
0.0
 11
107.56285190398771
 21
61.569783802825441
 31
0.0
  0
LINE
  5
5026
  8
0
 10
59.562851486755221
 20
61.569783802825441
 30
0.0
 11
59.562851486755221
 21
36.569783954165359
 31
0.0
  0
LINE
  5
5027
  8
0
 10
95.562851799679606
 20
36.26978393991601
 30
0.0
 11
105.5628515761622
 21
36.26978393991601
 31
0.0
  0
LINE
  5
5028
  8
0
 10
61.562851814580767
 20
36.26978393991601
 30
0.0
 11
71.56285159106335
 21
36.26978393991601
 31
0.0
  0
ARC
  5
5029
  8
3
 10
95.7815330922881
 20
164.00297593539429
 30
0.0
 40
7.711333390885283
 50
52.172917840362842
 51
127.8270821596371
  0
ARC
  5
502A
  8
3
 10
95.785516126109087
 20
164.0056363674482
 30
0.0
 40
7.1063054616950874
 50
58.952457824752919
 51
121.0475421752471
  0
ARC
  5
502B
  8
3
 10
95.7815330922881
 20
170.73659119786009
 30
0.0
 40
7.711333390885283
 50
232.17291784036291
 51
307.8270821596372
  0
ARC
  5
502C
  8
3
 10
95.785516126109087
 20
170.73393076580621
 30
0.0
 40
7.1063054616950874
 50
238.95245782475251
 51
301.04754217524749
  0
POLYLINE
  5
502D
  8
3
 66
     1
 10
0.0
 20
0.0
 30
0.0
 70
     1
  0
VERTEX
  5
502E
  8
3
 10
99.751910937977755
 20
169.5442196687045
 30
0.0
 42
0.1040389459222476
  0
VERTEX
  5
502F
  8
3
 10
98.980352359265225
 20
169.38191862309549
 30
0.0
 42
0.1006187674778827
  0
VERTEX
  5
5030
  8
3
 10
98.315049798167365
 20
168.91173134782761
 30
0.0
 42
0.0961317388519061
 70
     2
 50
226.74126552361599
  0
VERTEX
  5
5031
  8
3
 10
97.876375997492445
 20
168.21719003483409
 30
0.0
 42
0.0931829020071892
 50
226.74126552361599
  0
VERTEX
  5
5032
  8
3
 10
97.719882426811182
 20
167.38476946552419
 30
0.0
 42
0.0931829020071995
  0
VERTEX
  5
5033
  8
3
 10
97.876375997492687
 20
166.55234889621369
 30
0.0
 42
0.0961317388517972
  0
VERTEX
  5
5034
  8
3
 10
98.315049798167365
 20
165.8578075832207
 30
0.0
 42
0.1006187674778303
 70
     2
 50
313.25873447638401
  0
VERTEX
  5
5035
  8
3
 10
98.980352359264984
 20
165.38762030795289
 30
0.0
 42
0.1040389459222533
 50
313.25873447638401
  0
VERTEX
  5
5036
  8
3
 10
99.751910937977755
 20
165.22531926234379
 30
0.0
 42
0.1040389459222233
  0
VERTEX
  5
5037
  8
3
 10
100.5234695166907
 20
165.38762030795289
 30
0.0
 42
0.1006187674777489
  0
VERTEX
  5
5038
  8
3
 10
101.1887720777879
 20
165.8578075832207
 30
0.0
 42
0.0961317388516823
 70
     2
 50
46.741265523616022
  0
VERTEX
  5
5039
  8
3
 10
101.62744587846279
 20
166.55234889621349
 30
0.0
 42
0.0931829020071142
 50
46.741265523616022
  0
VERTEX
  5
503A
  8
3
 10
101.7839394491443
 20
167.38476946552419
 30
0.0
 42
0.093182902007185
  0
VERTEX
  5
503B
  8
3
 10
101.62744587846279
 20
168.21719003483449
 30
0.0
 42
0.0961317388518236
  0
VERTEX
  5
503C
  8
3
 10
101.1887720777879
 20
168.91173134782761
 30
0.0
 42
0.1006187674778014
 70
     2
 50
133.25873447638401
  0
VERTEX
  5
503D
  8
3
 10
100.5234695166905
 20
169.38191862309549
 30
0.0
 42
0.1040389459222176
 50
133.25873447638401
  0
SEQEND
  5
503E
  8
3
  0
POLYLINE
  5
503F
  8
3
 66
     1
 10
0.0
 20
0.0
 30
0.0
 70
     1
  0
VERTEX
  5
5040
  8
3
 10
99.751910937977755
 20
168.87665347890709
 30
0.0
 42
0.1100504958869895
  0
VERTEX
  5
5041
  8
3
 10
99.255829069464198
 20
168.76612757893051
 30
0.0
 42
0.1025517268491352
  0
VERTEX
  5
5042
  8
3
 10
98.819968354025605
 20
168.4396922225647
 30
0.0
 42
0.0934680573273555
 70
     2
 50
228.54178648396481
  0
VERTEX
  5
5043
  8
3
 10
98.536574199305264
 20
167.9638899729047
 30
0.0
 42
0.087923423941003
 50
228.54178648396481
  0
VERTEX
  5
5044
  8
3
 10
98.433943732509434
 20
167.38477152240401
 30
0.0
 42
0.0879234239409436
  0
VERTEX
  5
5045
  8
3
 10
98.536572391704112
 20
166.8056527515661
 30
0.0
 42
0.0934680573273441
  0
VERTEX
  5
5046
  8
3
 10
98.819965061303151
 20
166.3298496173509
 30
0.0
 42
0.1025517268492942
 70
     2
 50
311.45803467889908
  0
VERTEX
  5
5047
  8
3
 10
99.255824757837686
 20
166.0034129005364
 30
0.0
 42
0.1100504958872438
 50
311.45803467889908
  0
VERTEX
  5
5048
  8
3
 10
99.751906281364882
 20
165.8928854521412
 30
0.0
 42
0.1100504958871612
  0
VERTEX
  5
5049
  8
3
 10
100.24798814987859
 20
166.00341135211809
 30
0.0
 42
0.1025517268491776
  0
VERTEX
  5
504A
  8
3
 10
100.6838488653168
 20
166.32984670848359
 30
0.0
 42
0.0934680573272221
 70
     2
 50
48.541786483964771
  0
VERTEX
  5
504B
  8
3
 10
100.9672430200373
 20
166.80564895814371
 30
0.0
 42
0.0879234239408591
 50
48.541786483964771
  0
VERTEX
  5
504C
  8
3
 10
101.0698734868331
 20
167.38476740864439
 30
0.0
 42
0.0879234239409351
  0
VERTEX
  5
504D
  8
3
 10
100.9672448276383
 20
167.9638861794823
 30
0.0
 42
0.0934680573273177
  0
VERTEX
  5
504E
  8
3
 10
100.6838521580393
 20
168.43968931369739
 30
0.0
 42
0.1025517268492308
 70
     2
 50
131.45803467889911
  0
VERTEX
  5
504F
  8
3
 10
100.24799246150469
 20
168.76612603051211
 30
0.0
 42
0.1100504958871027
 50
131.45803467889911
  0
SEQEND
  5
5050
  8
3
  0
CIRCLE
  5
5051
  8
3
 10
83.562851695371478
 20
49.069783939916192
 30
0.0
 40
4.8650532784226712
  0
LINE
  5
5052
  8
2
 10
165.19779834616841
 20
112.06978399654049
 30
0.0
 11
165.19779834616841
 21
120.76978411873
 31
0.0
  0
LINE
  5
5053
  8
2
 10
174.92790490301371
 20
112.06978399654049
 30
0.0
 11
174.92790490301371
 21
120.76978411873
 31
0.0
  0
LINE
  5
5055
  8
1
 10
83.562851695371592
 20
182.06978380282541
 30
0.0
 11
83.562851695371592
 21
108.5697838028254
 31
0.0
  0
LINE
  5
5056
  8
1
 10
83.562851695371592
 20
64.569783802825441
 30
0.0
 11
83.562851695371592
 21
33.569783954165253
 31
0.0
  0
LINE
  5
5057
  8
1
 10
61.962851695371448
 20
137.06978380282541
 30
0.0
 11
105.1628516953715
 21
137.06978380282541
 31
0.0
  0
LINE
  5
5058
  8
1
 10
78.562851695371592
 20
167.06978380282541
 30
0.0
 11
88.562851695371592
 21
167.06978380282541
 31
0.0
  0
LINE
  5
5059
  8
1
 10
59.562851695371592
 20
154.06978380282541
 30
0.0
 11
73.562851695371592
 21
154.06978380282541
 31
0.0
  0
LINE
  5
505A
  8
1
 10
93.562851695371592
 20
154.06978380282541
 30
0.0
 11
107.56285169537161
 21
154.06978380282541
 31
0.0
  0
LINE
  5
505B
  8
1
 10
66.562851695371592
 20
161.06978380282541
 30
0.0
 11
66.562851695371592
 21
147.06978380282541
 31
0.0
  0
LINE
  5
505C
  8
1
 10
100.56285169537161
 20
161.06978380282541
 30
0.0
 11
100.56285169537161
 21
147.06978380282541
 31
0.0
  0
LINE
  5
5061
  8
1
 10
94.062592151687682
 20
49.069783939916192
 30
0.0
 11
73.063100473947543
 21
49.069783939916192
 31
0.0
  0
LINE
  5
5063
  8
1
 10
66.562851695371592
 20
63.569783802825327
 30
0.0
 11
66.562851695371592
 21
34.26978393991601
 31
0.0
  0
LINE
  5
5065
  8
1
 10
100.56285169537161
 20
63.569783802825441
 30
0.0
 11
100.56285169537161
 21
34.26978393991601
 31
0.0
  0
LINE
  5
5066
  8
1
 10
155.56285190398779
 20
167.06978380282541
 30
0.0
 11
167.56285190398779
 21
167.06978380282541
 31
0.0
  0
LINE
  5
5067
  8
1
 10
155.56285190398779
 20
154.06978380282541
 30
0.0
 11
184.5628517526479
 21
154.06978380282541
 31
0.0
  0
LINE
  5
5068
  8
1
 10
154.56285190398779
 20
137.06978380282541
 30
0.0
 11
185.5628517526479
 21
137.06978380282541
 31
0.0
  0
LINE
  5
5069
  8
1
 10
170.0628513917604
 20
109.9215406315129
 30
0.0
 11
170.0628513917604
 21
122.76978411873
 31
0.0
  0
LINE
  5
5438
  8
2
 10
182.56285175264779
 20
144.06978380282541
 30
0.0
 11
157.56285190398771
 21
144.06978380282541
 31
0.0
  0
LINE
  5
5439
  8
2
 10
182.56285175264779
 20
130.06978380282541
 30
0.0
 11
157.56285190398771
 21
130.06978380282541
 31
0.0
  0
TEXT
  5
5516
  8
0
 62
     3
 10
0.0
 20
0.0
 30
0.0
 40
10.0
  1
SKPAR09-14
  7
STANDARD1
  0
ENDSEC
  0
EOF
