  0
SECTION
  2
HEADER
  9
$ACADVER
  1
AC1009
  9
$INSBASE
 10
0.0
 20
0.0
 30
0.0
  9
$EXTMIN
 10
0.0
 20
-2.960436562073669
 30
0.0
  9
$EXTMAX
 10
153.84756206355721
 20
169.50928564456279
 30
0.0
  9
$LIMMIN
 10
0.0
 20
0.0
  9
$LIMMAX
 10
375.0
 20
270.0
  9
$ORTHOMODE
 70
     1
  9
$REGENMODE
 70
     1
  9
$FILLMODE
 70
     1
  9
$QTEXTMODE
 70
     0
  9
$MIRRTEXT
 70
     0
  9
$DRAGMODE
 70
     2
  9
$LTSCALE
 40
10.0
  9
$OSMODE
 70
    55
  9
$ATTMODE
 70
     1
  9
$TEXTSIZE
 40
4.000000000000048
  9
$TRACEWID
 40
0.05
  9
$TEXTSTYLE
  7
STANDARD
  9
$CLAYER
  8
0
  9
$CELTYPE
  6
BYLAYER
  9
$CECOLOR
 62
   256
  9
$DIMSCALE
 40
1.0
  9
$DIMASZ
 40
3.0
  9
$DIMEXO
 40
2.0
  9
$DIMDLI
 40
0.38
  9
$DIMRND
 40
0.0
  9
$DIMDLE
 40
0.0
  9
$DIMEXE
 40
2.0
  9
$DIMTP
 40
0.0
  9
$DIMTM
 40
0.0
  9
$DIMTXT
 40
3.2000000000000002
  9
$DIMCEN
 40
0.0
  9
$DIMTSZ
 40
0.0
  9
$DIMTOL
 70
     0
  9
$DIMLIM
 70
     0
  9
$DIMTIH
 70
     0
  9
$DIMTOH
 70
     0
  9
$DIMSE1
 70
     0
  9
$DIMSE2
 70
     0
  9
$DIMTAD
 70
     1
  9
$DIMZIN
 70
     0
  9
$DIMBLK
  1

  9
$DIMASO
 70
     0
  9
$DIMSHO
 70
     0
  9
$DIMPOST
  1

  9
$DIMAPOST
  1

  9
$DIMALT
 70
     0
  9
$DIMALTD
 70
     2
  9
$DIMALTF
 40
25.399999999999999
  9
$DIMLFAC
 40
1.0
  9
$DIMTOFL
 70
     0
  9
$DIMTVP
 40
1.6000000000000001
  9
$DIMTIX
 70
     1
  9
$DIMSOXD
 70
     0
  9
$DIMSAH
 70
     0
  9
$DIMBLK1
  1

  9
$DIMBLK2
  1

  9
$DIMSTYLE
  2
STANDARD
  9
$DIMCLRD
 70
     4
  9
$DIMCLRE
 70
     4
  9
$DIMCLRT
 70
     4
  9
$DIMTFAC
 40
1.0
  9
$DIMGAP
 40
0.09
  9
$LUNITS
 70
     2
  9
$LUPREC
 70
     1
  9
$SKETCHINC
 40
0.1
  9
$FILLETRAD
 40
22.0
  9
$AUNITS
 70
     0
  9
$AUPREC
 70
     0
  9
$MENU
  1
E:\r13\win\SUPPORT\ACAD
  9
$ELEVATION
 40
0.0
  9
$PELEVATION
 40
0.0
  9
$THICKNESS
 40
0.0
  9
$LIMCHECK
 70
     0
  9
$BLIPMODE
 70
     0
  9
$CHAMFERA
 40
1.1999999999999991
  9
$CHAMFERB
 40
1.1999999999999991
  9
$SKPOLY
 70
     0
  9
$TDCREATE
 40
2449954.6020138888
  9
$TDUPDATE
 40
2456598.5023789578
  9
$TDINDWG
 40
0.7591527315
  9
$TDUSRTIMER
 40
0.7591527315
  9
$USRTIMER
 70
     1
  9
$ANGBASE
 50
0.0
  9
$ANGDIR
 70
     0
  9
$PDMODE
 70
     0
  9
$PDSIZE
 40
0.0
  9
$PLINEWID
 40
0.0
  9
$COORDS
 70
     1
  9
$SPLFRAME
 70
     0
  9
$SPLINETYPE
 70
     6
  9
$SPLINESEGS
 70
     8
  9
$ATTDIA
 70
     0
  9
$ATTREQ
 70
     1
  9
$HANDLING
 70
     1
  9
$HANDSEED
  5
5575
  9
$SURFTAB1
 70
     6
  9
$SURFTAB2
 70
     6
  9
$SURFTYPE
 70
     6
  9
$SURFU
 70
     6
  9
$SURFV
 70
     6
  9
$UCSNAME
  2

  9
$UCSORG
 10
0.0
 20
0.0
 30
0.0
  9
$UCSXDIR
 10
1.0
 20
0.0
 30
0.0
  9
$UCSYDIR
 10
0.0
 20
1.0
 30
0.0
  9
$PUCSNAME
  2

  9
$PUCSORG
 10
0.0
 20
0.0
 30
0.0
  9
$PUCSXDIR
 10
1.0
 20
0.0
 30
0.0
  9
$PUCSYDIR
 10
0.0
 20
1.0
 30
0.0
  9
$USERI1
 70
     0
  9
$USERI2
 70
     1
  9
$USERI3
 70
     0
  9
$USERI4
 70
     0
  9
$USERI5
 70
     0
  9
$USERR1
 40
0.0
  9
$USERR2
 40
0.0
  9
$USERR3
 40
0.0
  9
$USERR4
 40
0.0
  9
$USERR5
 40
0.0
  9
$WORLDVIEW
 70
     1
  9
$SHADEDGE
 70
     3
  9
$SHADEDIF
 70
    70
  9
$TILEMODE
 70
     1
  9
$MAXACTVP
 70
    16
  9
$PLIMCHECK
 70
     0
  9
$PEXTMIN
 10
1.0000000000000000E+020
 20
1.0000000000000000E+020
 30
1.0000000000000000E+020
  9
$PEXTMAX
 10
-1.0000000000000000E+020
 20
-1.0000000000000000E+020
 30
-1.0000000000000000E+020
  9
$PLIMMIN
 10
0.0
 20
0.0
  9
$PLIMMAX
 10
12.0
 20
9.0
  9
$UNITMODE
 70
     0
  9
$VISRETAIN
 70
     0
  9
$PLINEGEN
 70
     0
  9
$PSLTSCALE
 70
     0
  0
ENDSEC
  0
SECTION
  2
TABLES
  0
TABLE
  2
VPORT
 70
     1
  0
VPORT
  2
*ACTIVE
 70
     0
 10
0.0
 20
0.0
 11
1.0
 21
1.0
 12
187.49427839065231
 22
174.91677254346851
 13
0.0
 23
0.0
 14
10.0
 24
10.0
 15
10.0
 25
10.0
 16
0.0
 26
0.0
 36
1.0
 17
0.0
 27
0.0
 37
0.0
 40
358.92027899574339
 41
1.7807262569832401
 42
50.0
 43
0.0
 44
0.0
 50
0.0
 51
0.0
 71
     0
 72
   500
 73
     1
 74
     0
 75
     0
 76
     0
 77
     0
 78
     2
  0
ENDTAB
  0
TABLE
  2
LTYPE
 70
     4
  0
LTYPE
  2
CONTINUOUS
 70
     0
  3
Solid Line
 72
    65
 73
     0
 40
0.0
  0
LTYPE
  2
CENTER
 70
     0
  3
____ _ ____ _ ____ _ ____ _ ____ _ ____ _ ____
 72
    65
 73
     4
 40
2.0
 49
1.25
 49
-0.25
 49
0.25
 49
-0.25
  0
LTYPE
  2
HIDDEN
 70
     0
  3
_ _ _ _ _ _ _ _ _ _ _ _ _ _ _ _ _ _ _ _ _ _ _
 72
    65
 73
     2
 40
0.375
 49
0.25
 49
-0.125
  0
LTYPE
  2
PHANTOM2
 70
     0
  3
___ _ _ ___ _ _ ___ _ _ ___ _ _
 72
    65
 73
     6
 40
1.25
 49
0.625
 49
-0.125
 49
0.125
 49
-0.125
 49
0.125
 49
-0.125
  0
ENDTAB
  0
TABLE
  2
LAYER
 70
     5
  0
LAYER
  2
0
 70
     0
 62
     7
  6
CONTINUOUS
  0
LAYER
  2
1
 70
     0
 62
     1
  6
CENTER
  0
LAYER
  2
3
 70
     0
 62
     3
  6
CONTINUOUS
  0
LAYER
  2
2
 70
     0
 62
     2
  6
HIDDEN
  0
LAYER
  2
DEFPOINTS
 70
     0
 62
     7
  6
CONTINUOUS
  0
ENDTAB
  0
TABLE
  2
STYLE
 70
     2
  0
STYLE
  2
STANDARD
 70
     0
 40
0.0
 41
1.0
 50
0.0
 71
     0
 42
4.000000000000048
  3
SIMPLEX
  4
BIGFONT
  0
STYLE
  2
STANDARD1
 70
     0
 40
0.0
 41
1.0
 50
0.0
 71
     0
 42
3.0
  3
txt
  4

  0
ENDTAB
  0
TABLE
  2
VIEW
 70
     1
  0
VIEW
  2
ALL
 70
     0
 40
270.0
 10
220.78595317725751
 20
135.0
 41
441.57190635451502
 11
0.0
 21
0.0
 31
1.0
 12
0.0
 22
0.0
 32
0.0
 42
50.0
 43
0.0
 44
0.0
 50
0.0
 71
     0
  0
ENDTAB
  0
TABLE
  2
UCS
 70
     0
  0
ENDTAB
  0
TABLE
  2
APPID
 70
     4
  0
APPID
  2
ACAD
 70
     0
  0
APPID
  2
ACAD_EXEMPT_FROM_CAD_STANDARDS
 70
     0
  0
APPID
  2
ACAD_MLEADERVER
 70
     0
  0
APPID
  2
ACAD_NAV_VCDISPLAY
 70
     0
  0
ENDTAB
  0
TABLE
  2
DIMSTYLE
 70
     1
  0
DIMSTYLE
  2
STANDARD
 70
     0
  3

  4

  5

  6

  7

 40
1.0
 41
0.18
 42
0.0625
 43
0.38
 44
0.18
 45
0.0
 46
0.0
 47
0.0
 48
0.0
140
0.18
141
0.09
142
0.0
143
25.399999999999999
144
1.0
145
0.0
146
1.0
147
0.09
 71
     0
 72
     0
 73
     1
 74
     1
 75
     0
 76
     0
 77
     0
 78
     0
170
     0
171
     2
172
     0
173
     0
174
     0
175
     0
176
     0
177
     0
178
     0
  0
ENDTAB
  0
ENDSEC
  0
SECTION
  2
BLOCKS
  0
BLOCK
  8
0
  2
$MODEL_SPACE
 70
     0
 10
0.0
 20
0.0
 30
0.0
  3
$MODEL_SPACE
  1

  0
ENDBLK
  5
F3C
  8
0
  0
BLOCK
 67
     1
  8
0
  2
$PAPER_SPACE
 70
     0
 10
0.0
 20
0.0
 30
0.0
  3
$PAPER_SPACE
  1

  0
ENDBLK
  5
F3A
 67
     1
  8
0
  0
ENDSEC
  0
SECTION
  2
ENTITIES
  0
CIRCLE
  5
3679
  8
0
 10
51.847562006280903
 20
124.50928564456279
 30
0.0
 40
5.9999999999999849
  0
LINE
  5
4027
  8
3
 10
59.562368130848881
 20
153.30434541490851
 30
0.0
 11
59.648694748596427
 21
153.31052753415881
 31
0.0
  0
LINE
  5
4028
  8
3
 10
59.476219395713088
 20
153.3098830589372
 30
0.0
 11
59.562368130848881
 21
153.30434541490851
 31
0.0
  0
LINE
  5
4029
  8
3
 10
59.392877666817192
 20
153.32594651070411
 30
0.0
 11
59.476219395713088
 21
153.3098830589372
 31
0.0
  0
LINE
  5
402A
  8
3
 10
59.312698709384676
 20
153.3517217942792
 30
0.0
 11
59.392877666817192
 21
153.32594651070411
 31
0.0
  0
ARC
  5
402B
  8
0
 10
51.847562006280903
 20
86.509285644562837
 30
0.0
 40
80.000000000000028
 50
73.89375605676176
 51
106.1062439432351
  0
ARC
  5
402C
  8
0
 10
73.347562006280896
 20
160.96732752050789
 30
0.0
 40
2.5000000000000391
 50
0.0
 51
73.89375605676176
  0
ARC
  5
402D
  8
0
 10
73.347562006280896
 20
104.5512437686177
 30
0.0
 40
2.500000000000028
 50
286.1062439432385
 51
0.0
  0
ARC
  5
402E
  8
0
 10
51.847562006280903
 20
179.00928564456279
 30
0.0
 40
80.0
 50
253.89375605676511
 51
286.10624394323821
  0
ARC
  5
402F
  8
0
 10
30.347562006280899
 20
104.5512437686177
 30
0.0
 40
2.500000000000012
 50
180.0
 51
253.89375605676489
  0
LINE
  5
4030
  8
0
 10
27.847561797664639
 20
160.96732716348939
 30
0.0
 11
27.847561797664639
 21
104.55124403622921
 31
0.0
  0
ARC
  5
4031
  8
0
 10
30.347562006280899
 20
160.96732752050789
 30
0.0
 40
2.5000000000000142
 50
106.1062439432351
 51
180.0
  0
LINE
  5
4032
  8
0
 10
75.847562214897152
 20
104.55124403622921
 30
0.0
 11
75.847562214897152
 21
160.96732716348939
 31
0.0
  0
LINE
  5
4033
  8
3
 10
59.86956208811808
 20
153.3956224778014
 30
0.0
 11
59.929637050793652
 21
153.44300258246241
 31
0.0
  0
LINE
  5
4034
  8
3
 10
59.802529214487549
 20
153.3571160146314
 30
0.0
 11
59.86956208811808
 21
153.3956224778014
 31
0.0
  0
LINE
  5
4035
  8
3
 10
59.728834590480801
 20
153.32843314197839
 30
0.0
 11
59.802529214487549
 21
153.3571160146314
 31
0.0
  0
LINE
  5
4036
  8
3
 10
59.648694748596427
 20
153.31052753415881
 30
0.0
 11
59.728834590480801
 21
153.32843314197839
 31
0.0
  0
CIRCLE
  5
4037
  8
0
 10
34.847562006280903
 20
141.50928564456279
 30
0.0
 40
5.0
  0
CIRCLE
  5
4038
  8
0
 10
51.847562006280903
 20
154.50928564456279
 30
0.0
 40
3.0
  0
CIRCLE
  5
4039
  8
0
 10
68.847562006280896
 20
141.50928564456279
 30
0.0
 40
4.9999999999999707
  0
LINE
  5
403A
  8
3
 10
60.09556986259031
 20
153.70223063317121
 30
0.0
 11
60.117156057224747
 21
153.77970922079859
 31
0.0
  0
LINE
  5
403B
  8
3
 10
60.065759158299443
 20
153.6288684913236
 30
0.0
 11
60.09556986259031
 21
153.70223063317121
 31
0.0
  0
LINE
  5
403C
  8
3
 10
60.028002409801957
 20
153.5605764695722
 30
0.0
 11
60.065759158299443
 21
153.6288684913236
 31
0.0
  0
LINE
  5
403D
  8
3
 10
59.982536173031811
 20
153.4983026542979
 30
0.0
 11
60.028002409801957
 21
153.5605764695722
 31
0.0
  0
LINE
  5
403E
  8
3
 10
59.929637050793652
 20
153.44300258246241
 30
0.0
 11
59.982536173031811
 21
153.4983026542979
 31
0.0
  0
LINE
  5
403F
  8
3
 10
58.952723907844302
 20
152.80443753388701
 30
0.0
 11
58.846906105593924
 21
152.8673968025762
 31
0.0
  0
LINE
  5
4040
  8
3
 10
59.06417574600983
 20
152.7516762473899
 30
0.0
 11
58.952723907844302
 21
152.80443753388701
 31
0.0
  0
LINE
  5
4041
  8
3
 10
59.181360340283391
 20
152.70966987398441
 30
0.0
 11
59.06417574600983
 21
152.7516762473899
 31
0.0
  0
LINE
  5
4042
  8
3
 10
59.304336829648491
 20
152.67896975663481
 30
0.0
 11
59.181360340283391
 21
152.70966987398441
 31
0.0
  0
LINE
  5
4043
  8
3
 10
59.433164818749901
 20
152.66013096359549
 30
0.0
 11
59.304336829648491
 21
152.67896975663481
 31
0.0
  0
LINE
  5
4044
  8
3
 10
59.567903446571108
 20
152.65372718957241
 30
0.0
 11
59.433164818749901
 21
152.66013096359549
 31
0.0
  0
LINE
  5
4045
  8
3
 10
59.769042579994682
 20
152.66552890923799
 30
0.0
 11
59.567903446571108
 21
152.65372718957241
 31
0.0
  0
LINE
  5
4046
  8
3
 10
59.956007449493882
 20
152.70012195494951
 30
0.0
 11
59.769042579994682
 21
152.66552890923799
 31
0.0
  0
LINE
  5
4047
  8
3
 10
60.1281866417985
 20
152.75640177813349
 30
0.0
 11
59.956007449493882
 21
152.70012195494951
 31
0.0
  0
LINE
  5
4048
  8
3
 10
60.28492729978371
 20
152.83319304970081
 30
0.0
 11
60.1281866417985
 21
152.75640177813349
 31
0.0
  0
LINE
  5
4049
  8
3
 10
60.425615681872841
 20
152.92935769346531
 30
0.0
 11
60.28492729978371
 21
152.83319304970081
 31
0.0
  0
LINE
  5
404A
  8
3
 10
60.549600793586251
 20
153.04374645736991
 30
0.0
 11
60.425615681872841
 21
152.92935769346531
 31
0.0
  0
LINE
  5
404B
  8
3
 10
60.656248404250618
 20
153.1752138146478
 30
0.0
 11
60.549600793586251
 21
153.04374645736991
 31
0.0
  0
LINE
  5
404C
  8
3
 10
60.74492800848293
 20
153.32260492530639
 30
0.0
 11
60.656248404250618
 21
153.1752138146478
 31
0.0
  0
LINE
  5
404D
  8
3
 10
60.815005375609871
 20
153.48477798786939
 30
0.0
 11
60.74492800848293
 21
153.32260492530639
 31
0.0
  0
LINE
  5
404E
  8
3
 10
60.86584813760328
 20
153.66058188763441
 30
0.0
 11
60.815005375609871
 21
153.48477798786939
 31
0.0
  0
LINE
  5
404F
  8
3
 10
60.896824857757572
 20
153.84887296047981
 30
0.0
 11
60.86584813760328
 21
153.66058188763441
 31
0.0
  0
LINE
  5
4050
  8
3
 10
60.907281747625348
 20
154.0484982290584
 30
0.0
 11
60.896824857757572
 21
153.84887296047981
 31
0.0
  0
LINE
  5
4051
  8
3
 10
60.896785742209431
 20
154.2362901130038
 30
0.0
 11
60.907281747625348
 21
154.0484982290584
 31
0.0
  0
LINE
  5
4052
  8
3
 10
60.866283065245632
 20
154.4018401512223
 30
0.0
 11
60.896785742209431
 21
154.2362901130038
 31
0.0
  0
LINE
  5
4053
  8
3
 10
60.817298291788582
 20
154.54733508911909
 30
0.0
 11
60.866283065245632
 21
154.4018401512223
 31
0.0
  0
LINE
  5
4054
  8
3
 10
60.751371829376701
 20
154.67496353474439
 30
0.0
 11
60.817298291788582
 21
154.54733508911909
 31
0.0
  0
LINE
  5
4055
  8
3
 10
60.67000683264542
 20
154.78691595879371
 30
0.0
 11
60.751371829376701
 21
154.67496353474439
 31
0.0
  0
LINE
  5
4056
  8
3
 10
58.846906105593924
 20
152.8673968025762
 30
0.0
 11
58.746642711178538
 21
152.9399840840417
 31
0.0
  0
LINE
  5
4057
  8
3
 10
60.467029734120842
 20
154.9725471743661
 30
0.0
 11
60.574725082681653
 21
154.88538096931751
 31
0.0
  0
LINE
  5
4058
  8
3
 10
60.348461194501397
 20
155.0506031819898
 30
0.0
 11
60.467029734120842
 21
154.9725471743661
 31
0.0
  0
LINE
  5
4059
  8
3
 10
60.220522618458752
 20
155.12173946288411
 30
0.0
 11
60.348461194501397
 21
155.0506031819898
 31
0.0
  0
LINE
  5
405A
  8
3
 10
60.084756276176449
 20
155.1881464877444
 30
0.0
 11
60.220522618458752
 21
155.12173946288411
 31
0.0
  0
LINE
  5
405B
  8
3
 10
59.942664390967373
 20
155.25200913933099
 30
0.0
 11
60.084756276176449
 21
155.1881464877444
 31
0.0
  0
LINE
  5
405C
  8
3
 10
59.795768743918423
 20
155.31551975098429
 30
0.0
 11
59.942664390967373
 21
155.25200913933099
 31
0.0
  0
LINE
  5
405D
  8
3
 10
59.849062746928212
 20
156.9698075511771
 30
0.0
 11
59.947705640063759
 21
156.95280532625489
 31
0.0
  0
LINE
  5
405E
  8
3
 10
59.753425231740948
 20
156.98020483640011
 30
0.0
 11
59.849062746928212
 21
156.9698075511771
 31
0.0
  0
LINE
  5
405F
  8
3
 10
59.662117435203072
 20
156.98372151044191
 30
0.0
 11
59.753425231740948
 21
156.98020483640011
 31
0.0
  0
LINE
  5
4060
  8
3
 10
59.49533479155707
 20
156.97265367296521
 30
0.0
 11
59.662117435203072
 21
156.98372151044191
 31
0.0
  0
LINE
  5
4061
  8
3
 10
59.337230677322623
 20
156.94041128543199
 30
0.0
 11
59.49533479155707
 21
156.97265367296521
 31
0.0
  0
LINE
  5
4062
  8
3
 10
59.188911503718373
 20
156.88840250757511
 30
0.0
 11
59.337230677322623
 21
156.94041128543199
 31
0.0
  0
LINE
  5
4063
  8
3
 10
59.051524194494959
 20
156.8180690267402
 30
0.0
 11
59.188911503718373
 21
156.88840250757511
 31
0.0
  0
LINE
  5
4064
  8
3
 10
58.926136045322892
 20
156.730807826789
 30
0.0
 11
59.051524194494959
 21
156.8180690267402
 31
0.0
  0
LINE
  5
4065
  8
3
 10
58.813873956517462
 20
156.62807177093799
 30
0.0
 11
58.926136045322892
 21
156.730807826789
 31
0.0
  0
LINE
  5
4066
  8
3
 10
58.715824781523231
 20
156.51128019479091
 30
0.0
 11
58.813873956517462
 21
156.62807177093799
 31
0.0
  0
LINE
  5
4067
  8
3
 10
58.633134978429553
 20
156.38185243395151
 30
0.0
 11
58.715824781523231
 21
156.51128019479091
 31
0.0
  0
LINE
  5
4068
  8
3
 10
58.566892797664877
 20
156.24121154931359
 30
0.0
 11
58.633134978429553
 21
156.38185243395151
 31
0.0
  0
LINE
  5
4069
  8
3
 10
58.518184627012488
 20
156.09078805235211
 30
0.0
 11
58.566892797664877
 21
156.24121154931359
 31
0.0
  0
LINE
  5
406A
  8
3
 10
58.488156924561743
 20
155.93200500396071
 30
0.0
 11
58.518184627012488
 21
156.09078805235211
 31
0.0
  0
LINE
  5
406B
  8
3
 10
58.477897475079772
 20
155.7662854650336
 30
0.0
 11
58.488156924561743
 21
155.93200500396071
 31
0.0
  0
LINE
  5
406C
  8
3
 10
58.485606963352438
 20
155.61711739090259
 30
0.0
 11
58.477897475079772
 21
155.7662854650336
 31
0.0
  0
LINE
  5
406D
  8
3
 10
58.508162199125771
 20
155.48197876003559
 30
0.0
 11
58.485606963352438
 21
155.61711739090259
 31
0.0
  0
LINE
  5
406E
  8
3
 10
60.574725082681653
 20
154.88538096931751
 30
0.0
 11
60.67000683264542
 21
154.78691595879371
 31
0.0
  0
LINE
  5
406F
  8
3
 10
58.594943302289721
 20
155.2493343808967
 30
0.0
 11
58.544871209726807
 21
155.3597538479882
 31
0.0
  0
LINE
  5
4070
  8
3
 10
58.657647388593432
 20
155.14960090902619
 30
0.0
 11
58.594943302289721
 21
155.2493343808967
 31
0.0
  0
LINE
  5
4071
  8
3
 10
58.732231891320232
 20
155.05944329586799
 30
0.0
 11
58.657647388593432
 21
155.14960090902619
 31
0.0
  0
LINE
  5
4072
  8
3
 10
58.817926141039607
 20
154.97774395433251
 30
0.0
 11
58.732231891320232
 21
155.05944329586799
 31
0.0
  0
LINE
  5
4073
  8
3
 10
58.913998583869223
 20
154.9033890226203
 30
0.0
 11
58.817926141039607
 21
154.97774395433251
 31
0.0
  0
LINE
  5
4074
  8
3
 10
59.01967808471727
 20
154.8352683642226
 30
0.0
 11
58.913998583869223
 21
154.9033890226203
 31
0.0
  0
LINE
  5
4075
  8
3
 10
59.134233555362698
 20
154.77226252940471
 30
0.0
 11
59.01967808471727
 21
154.8352683642226
 31
0.0
  0
LINE
  5
4076
  8
3
 10
59.256913418487791
 20
154.71325951901261
 30
0.0
 11
59.134233555362698
 21
154.77226252940471
 31
0.0
  0
LINE
  5
4077
  8
3
 10
59.386947004662041
 20
154.657147333892
 30
0.0
 11
59.256913418487791
 21
154.71325951901261
 31
0.0
  0
LINE
  5
4078
  8
3
 10
59.472957438395497
 20
154.6239661732036
 30
0.0
 11
59.386947004662041
 21
154.657147333892
 31
0.0
  0
LINE
  5
4079
  8
3
 10
59.560193492637161
 20
154.5898033985215
 30
0.0
 11
59.472957438395497
 21
154.6239661732036
 31
0.0
  0
LINE
  5
407A
  8
3
 10
59.646975061462399
 20
154.5535227963048
 30
0.0
 11
59.560193492637161
 21
154.5898033985215
 31
0.0
  0
LINE
  5
407B
  8
3
 10
59.731661154494759
 20
154.51398070243181
 30
0.0
 11
59.646975061462399
 21
154.5535227963048
 31
0.0
  0
LINE
  5
407C
  8
3
 10
59.812591223583702
 20
154.4700315901357
 30
0.0
 11
59.731661154494759
 21
154.51398070243181
 31
0.0
  0
LINE
  5
407D
  8
3
 10
59.888124278352741
 20
154.42054110852061
 30
0.0
 11
59.812591223583702
 21
154.4700315901357
 31
0.0
  0
LINE
  5
407E
  8
3
 10
59.956581144199852
 20
154.36436186817471
 30
0.0
 11
59.888124278352741
 21
154.42054110852061
 31
0.0
  0
LINE
  5
407F
  8
3
 10
60.01630034165192
 20
154.30035393026651
 30
0.0
 11
59.956581144199852
 21
154.36436186817471
 31
0.0
  0
LINE
  5
4080
  8
3
 10
60.065640880332467
 20
154.22737735596479
 30
0.0
 11
60.01630034165192
 21
154.30035393026651
 31
0.0
  0
LINE
  5
4081
  8
3
 10
60.102923585639481
 20
154.1442884811479
 30
0.0
 11
60.065640880332467
 21
154.22737735596479
 31
0.0
  0
LINE
  5
4082
  8
3
 10
60.126526093647961
 20
154.04994922962959
 30
0.0
 11
60.102923585639481
 21
154.1442884811479
 31
0.0
  0
LINE
  5
4083
  8
3
 10
60.134749671981808
 20
153.94321593728839
 30
0.0
 11
60.126526093647961
 21
154.04994922962959
 31
0.0
  0
LINE
  5
4084
  8
3
 10
60.130322164462093
 20
153.8603543051797
 30
0.0
 11
60.134749671981808
 21
153.94321593728839
 31
0.0
  0
LINE
  5
4085
  8
3
 10
60.117156057224747
 20
153.77970922079859
 30
0.0
 11
60.130322164462093
 21
153.8603543051797
 31
0.0
  0
LINE
  5
4086
  8
3
 10
60.691257751152989
 20
156.6133456983882
 30
0.0
 11
60.75918003784227
 21
156.54966931131659
 31
0.0
  0
LINE
  5
4087
  8
3
 10
60.61475612090635
 20
156.67295406845389
 30
0.0
 11
60.691257751152989
 21
156.6133456983882
 31
0.0
  0
LINE
  5
4088
  8
3
 10
60.530998556480881
 20
156.7282187500316
 30
0.0
 11
60.61475612090635
 21
156.67295406845389
 31
0.0
  0
LINE
  5
4089
  8
3
 10
60.441252587900642
 20
156.7788528957683
 30
0.0
 11
60.530998556480881
 21
156.7282187500316
 31
0.0
  0
LINE
  5
408A
  8
3
 10
60.346800646350857
 20
156.82459201005281
 30
0.0
 11
60.441252587900642
 21
156.7788528957683
 31
0.0
  0
LINE
  5
408B
  8
3
 10
60.248929819629673
 20
156.86511571791951
 30
0.0
 11
60.346800646350857
 21
156.82459201005281
 31
0.0
  0
LINE
  5
408C
  8
3
 10
60.148923470244881
 20
156.90020422724069
 30
0.0
 11
60.248929819629673
 21
156.86511571791951
 31
0.0
  0
LINE
  5
408D
  8
3
 10
60.048106870220181
 20
156.92951853659929
 30
0.0
 11
60.148923470244881
 21
156.90020422724069
 31
0.0
  0
LINE
  5
408E
  8
3
 10
59.947705640063759
 20
156.95280532625489
 30
0.0
 11
60.048106870220181
 21
156.92951853659929
 31
0.0
  0
CIRCLE
  5
408F
  8
0
 10
51.847562006280903
 20
124.50928564456279
 30
0.0
 40
18.599999999999991
  0
LINE
  5
4090
  8
3
 10
59.236077869848494
 20
153.3863986590224
 30
0.0
 11
59.312698709384676
 21
153.3517217942792
 31
0.0
  0
LINE
  5
4091
  8
3
 10
59.163351821319338
 20
153.4291594037133
 30
0.0
 11
59.236077869848494
 21
153.3863986590224
 31
0.0
  0
LINE
  5
4092
  8
3
 10
59.094914978907582
 20
153.4791900524217
 30
0.0
 11
59.163351821319338
 21
153.4291594037133
 31
0.0
  0
LINE
  5
4093
  8
3
 10
59.031123573498007
 20
153.53567662921719
 30
0.0
 11
59.094914978907582
 21
153.4791900524217
 31
0.0
  0
LINE
  5
4094
  8
3
 10
58.972353393749472
 20
153.5978032955247
 30
0.0
 11
59.031123573498007
 21
153.53567662921719
 31
0.0
  0
LINE
  5
4095
  8
3
 10
58.918980228320841
 20
153.66475793805901
 30
0.0
 11
58.972353393749472
 21
153.5978032955247
 31
0.0
  0
LINE
  5
4096
  8
3
 10
58.871378934548382
 20
153.73572471824471
 30
0.0
 11
58.918980228320841
 21
153.66475793805901
 31
0.0
  0
LINE
  5
4097
  8
3
 10
58.829905743316893
 20
153.80988779750641
 30
0.0
 11
58.871378934548382
 21
153.73572471824471
 31
0.0
  0
LINE
  5
4098
  8
3
 10
58.79495600105929
 20
153.8864350625592
 30
0.0
 11
58.829905743316893
 21
153.80988779750641
 31
0.0
  0
LINE
  5
4099
  8
3
 10
58.326474668995623
 20
153.4278369256574
 30
0.0
 11
58.79495600105929
 21
153.8864350625592
 31
0.0
  0
LINE
  5
409A
  8
3
 10
58.399932271407131
 20
153.31547658232029
 30
0.0
 11
58.326474668995623
 21
153.4278369256574
 31
0.0
  0
LINE
  5
409B
  8
3
 10
58.478609005526778
 20
153.20995400932611
 30
0.0
 11
58.399932271407131
 21
153.31547658232029
 31
0.0
  0
LINE
  5
409C
  8
3
 10
58.562583102450851
 20
153.11182427492909
 30
0.0
 11
58.478609005526778
 21
153.20995400932611
 31
0.0
  0
LINE
  5
409D
  8
3
 10
58.651895074711319
 20
153.0216480353194
 30
0.0
 11
58.562583102450851
 21
153.11182427492909
 31
0.0
  0
LINE
  5
409E
  8
3
 10
58.746642711178538
 20
152.9399840840417
 30
0.0
 11
58.651895074711319
 21
153.0216480353194
 31
0.0
  0
LINE
  5
409F
  8
3
 10
59.330430625544068
 20
156.12262438324271
 30
0.0
 11
59.296805223987583
 21
156.0638653793651
 31
0.0
  0
LINE
  5
40A0
  8
3
 10
59.371607190535542
 20
156.17613072779949
 30
0.0
 11
59.330430625544068
 21
156.12262438324271
 31
0.0
  0
LINE
  5
40A1
  8
3
 10
59.419465529338602
 20
156.22394110349001
 30
0.0
 11
59.371607190535542
 21
156.17613072779949
 31
0.0
  0
LINE
  5
40A2
  8
3
 10
59.473036600814339
 20
156.2656122007686
 30
0.0
 11
59.419465529338602
 21
156.22394110349001
 31
0.0
  0
LINE
  5
40A3
  8
3
 10
59.531451015339371
 20
156.30070071008981
 30
0.0
 11
59.473036600814339
 21
156.2656122007686
 31
0.0
  0
LINE
  5
40A4
  8
3
 10
59.593779312984232
 20
156.3287633219081
 30
0.0
 11
59.531451015339371
 21
156.30070071008981
 31
0.0
  0
LINE
  5
40A5
  8
3
 10
59.659092965142008
 20
156.349356726678
 30
0.0
 11
59.593779312984232
 21
156.3287633219081
 31
0.0
  0
LINE
  5
40A6
  8
3
 10
59.726521185205463
 20
156.36203388956369
 30
0.0
 11
59.659092965142008
 21
156.349356726678
 31
0.0
  0
LINE
  5
40A7
  8
3
 10
59.79511588679361
 20
156.3663589516002
 30
0.0
 11
59.726521185205463
 21
156.36203388956369
 31
0.0
  0
LINE
  5
40A8
  8
3
 10
59.860686583981987
 20
156.3638071277457
 30
0.0
 11
59.79511588679361
 21
156.3663589516002
 31
0.0
  0
LINE
  5
40A9
  8
3
 10
59.92354899512339
 20
156.35627086547191
 30
0.0
 11
59.860686583981987
 21
156.3638071277457
 31
0.0
  0
LINE
  5
40AA
  8
3
 10
59.983761793539998
 20
156.34393270400341
 30
0.0
 11
59.92354899512339
 21
156.35627086547191
 31
0.0
  0
LINE
  5
40AB
  8
3
 10
60.041405072973248
 20
156.32698263314541
 30
0.0
 11
59.983761793539998
 21
156.34393270400341
 31
0.0
  0
LINE
  5
40AC
  8
3
 10
60.096577553616051
 20
156.30560691741289
 30
0.0
 11
60.041405072973248
 21
156.32698263314541
 31
0.0
  0
LINE
  5
40AD
  8
3
 10
60.149318351016518
 20
156.27998437074001
 30
0.0
 11
60.096577553616051
 21
156.30560691741289
 31
0.0
  0
LINE
  5
40AE
  8
3
 10
60.199707558916089
 20
156.25030870822249
 30
0.0
 11
60.149318351016518
 21
156.27998437074001
 31
0.0
  0
LINE
  5
40AF
  8
3
 10
60.247862523959157
 20
156.21675501850419
 30
0.0
 11
60.199707558916089
 21
156.25030870822249
 31
0.0
  0
LINE
  5
40B0
  8
3
 10
60.293842850790497
 20
156.17951329139049
 30
0.0
 11
60.247862523959157
 21
156.21675501850419
 31
0.0
  0
LINE
  5
40B1
  8
3
 10
60.337707212732312
 20
156.13876979139619
 30
0.0
 11
60.293842850790497
 21
156.17951329139049
 31
0.0
  0
LINE
  5
40B2
  8
3
 10
60.379575750396732
 20
156.09471078303631
 30
0.0
 11
60.337707212732312
 21
156.13876979139619
 31
0.0
  0
LINE
  5
40B3
  8
3
 10
60.419487579331872
 20
156.04751508024509
 30
0.0
 11
60.379575750396732
 21
156.09471078303631
 31
0.0
  0
LINE
  5
40B4
  8
3
 10
60.75918003784227
 20
156.54966931131659
 30
0.0
 11
60.419487579331872
 21
156.04751508024509
 31
0.0
  0
LINE
  5
40B5
  8
3
 10
58.544871209726807
 20
155.3597538479882
 30
0.0
 11
58.508162199125771
 21
155.48197876003559
 31
0.0
  0
LINE
  5
40B6
  8
3
 10
59.339227432922598
 20
155.6043917992431
 30
0.0
 11
59.38366595523167
 21
155.55490318027319
 31
0.0
  0
LINE
  5
40B7
  8
3
 10
59.25665637345719
 20
155.78674103406249
 30
0.0
 11
59.274408313051943
 21
155.7198106059152
 31
0.0
  0
LINE
  5
40B8
  8
3
 10
59.250449574158672
 20
155.86047943023021
 30
0.0
 11
59.25665637345719
 21
155.78674103406249
 31
0.0
  0
LINE
  5
40B9
  8
3
 10
59.255885704026703
 20
155.9323477306682
 30
0.0
 11
59.250449574158672
 21
155.86047943023021
 31
0.0
  0
LINE
  5
40BA
  8
3
 10
59.271660445795533
 20
156.00028957513149
 30
0.0
 11
59.255885704026703
 21
155.9323477306682
 31
0.0
  0
LINE
  5
40BB
  8
3
 10
59.296805223987583
 20
156.0638653793651
 30
0.0
 11
59.271660445795533
 21
156.00028957513149
 31
0.0
  0
LINE
  5
40BC
  8
3
 10
59.549222512708191
 20
155.43336372164069
 30
0.0
 11
59.610720536277768
 21
155.40016207185559
 31
0.0
  0
LINE
  5
40BD
  8
3
 10
59.489977824107882
 20
155.46989019301711
 30
0.0
 11
59.549222512708191
 21
155.43336372164069
 31
0.0
  0
LINE
  5
40BE
  8
3
 10
59.434370415822741
 20
155.5102369495946
 30
0.0
 11
59.489977824107882
 21
155.46989019301711
 31
0.0
  0
LINE
  5
40BF
  8
3
 10
59.38366595523167
 20
155.55490318027319
 30
0.0
 11
59.434370415822741
 21
155.5102369495946
 31
0.0
  0
LINE
  5
40C0
  8
3
 10
59.6732076244216
 20
155.36978605476199
 30
0.0
 11
59.735318458245281
 21
155.34174020674999
 31
0.0
  0
LINE
  5
40C1
  8
3
 10
59.302379655257937
 20
155.65919454482369
 30
0.0
 11
59.339227432922598
 21
155.6043917992431
 31
0.0
  0
LINE
  5
40C2
  8
3
 10
59.274408313051943
 20
155.7198106059152
 30
0.0
 11
59.302379655257937
 21
155.65919454482369
 31
0.0
  0
LINE
  5
40C3
  8
3
 10
59.610720536277768
 20
155.40016207185559
 30
0.0
 11
59.6732076244216
 21
155.36978605476199
 31
0.0
  0
LINE
  5
40C4
  8
3
 10
59.735318458245281
 20
155.34174020674999
 30
0.0
 11
59.795768743918423
 21
155.31551975098429
 31
0.0
  0
LINE
  5
40C6
  8
3
 10
65.248100830779549
 20
156.90777401712711
 30
0.0
 11
66.251078432963368
 21
156.90777401712711
 31
0.0
  0
LINE
  5
40C8
  8
3
 10
63.9569757493
 20
154.60816349175749
 30
0.0
 11
63.945895804629799
 21
154.60816349175749
 31
0.0
  0
LINE
  5
40C9
  8
3
 10
65.292427128718373
 20
152.72967468288721
 30
0.0
 11
63.9569757493
 21
154.60816349175749
 31
0.0
  0
LINE
  5
40CA
  8
3
 10
66.339737548099038
 20
152.72967468288721
 30
0.0
 11
65.292427128718373
 21
152.72967468288721
 31
0.0
  0
LINE
  5
40CB
  8
3
 10
64.666264502869126
 20
154.97942964819251
 30
0.0
 11
66.339737548099038
 21
152.72967468288721
 31
0.0
  0
LINE
  5
40CC
  8
3
 10
66.251078432963368
 20
156.90777401712711
 30
0.0
 11
64.666264502869126
 21
154.97942964819251
 31
0.0
  0
LINE
  5
40CF
  8
3
 10
63.945895804629799
 20
156.90777401712711
 30
0.0
 11
63.945895804629799
 21
155.1456614145356
 31
0.0
  0
LINE
  5
40D0
  8
3
 10
63.131324759290692
 20
156.90777401712711
 30
0.0
 11
63.945895804629799
 21
156.90777401712711
 31
0.0
  0
LINE
  5
40D1
  8
3
 10
63.131324759290692
 20
152.72967468288721
 30
0.0
 11
63.131324759290692
 21
156.90777401712711
 31
0.0
  0
LINE
  5
40D2
  8
3
 10
63.945895804629799
 20
152.72967468288721
 30
0.0
 11
63.131324759290692
 21
152.72967468288721
 31
0.0
  0
LINE
  5
40D3
  8
3
 10
63.945895804629799
 20
154.60816349175749
 30
0.0
 11
63.945895804629799
 21
152.72967468288721
 31
0.0
  0
LINE
  5
40E6
  8
3
 10
67.735297417805668
 20
152.08518083480169
 30
0.0
 11
68.795453569458004
 21
152.08518083480169
 31
0.0
  0
LINE
  5
40E8
  8
3
 10
63.945895804629799
 20
155.1456614145356
 30
0.0
 11
63.9569757493
 21
155.1456614145356
 31
0.0
  0
LINE
  5
4100
  8
3
 10
59.337033236936811
 20
152.08518083480169
 30
0.0
 11
60.405155456231121
 21
152.08518083480169
 31
0.0
  0
LINE
  5
4127
  8
3
 10
63.9569757493
 20
155.1456614145356
 30
0.0
 11
65.248100830779549
 21
156.90777401712711
 31
0.0
  0
LINE
  5
4133
  8
3
 10
60.405155456231121
 20
157.53339181927021
 30
0.0
 11
59.337033236936811
 21
157.53339181927021
 31
0.0
  0
LINE
  5
414C
  8
3
 10
68.795453569458004
 20
157.53339181927021
 30
0.0
 11
67.735297417805668
 21
157.53339181927021
 31
0.0
  0
LINE
  5
4156
  8
3
 10
61.432793548868183
 20
156.90777401712711
 30
0.0
 11
62.247366456852433
 21
156.90777401712711
 31
0.0
  0
LINE
  5
4157
  8
3
 10
61.432793548868183
 20
152.72967468288721
 30
0.0
 11
61.432793548868183
 21
156.90777401712711
 31
0.0
  0
LINE
  5
4158
  8
3
 10
62.247366456852433
 20
152.72967468288721
 30
0.0
 11
61.432793548868183
 21
152.72967468288721
 31
0.0
  0
LINE
  5
4159
  8
3
 10
62.247366456852433
 20
156.90777401712711
 30
0.0
 11
62.247366456852433
 21
152.72967468288721
 31
0.0
  0
CIRCLE
  5
416A
  8
0
 10
34.847562006280903
 20
141.50928564456279
 30
0.0
 40
2.7499999999999711
  0
CIRCLE
  5
416B
  8
0
 10
68.847562006280896
 20
141.50928564456279
 30
0.0
 40
2.75
  0
LINE
  5
4485
  8
0
 10
150.84756206355721
 20
166.50928564456279
 30
0.0
 11
125.8475622148971
 21
166.50928564456279
 31
0.0
  0
LINE
  5
4486
  8
0
 10
145.8475622335236
 20
99.009286687644135
 30
0.0
 11
150.84756206355721
 21
99.009286687644135
 31
0.0
  0
LINE
  5
4487
  8
0
 10
125.8475622148971
 20
99.009286687644135
 30
0.0
 11
130.84756117181581
 21
99.009286687644135
 31
0.0
  0
LINE
  5
4488
  8
0
 10
151.14756207780641
 20
146.50928609159769
 30
0.0
 11
150.84756206355721
 21
146.50928609159769
 31
0.0
  0
LINE
  5
4489
  8
0
 10
150.84756206355721
 20
136.50928631511511
 30
0.0
 11
151.14756207780641
 21
136.50928631511511
 31
0.0
  0
LINE
  5
448A
  8
0
 10
150.84756206355721
 20
163.36920119908629
 30
0.0
 11
125.8475622148971
 21
163.36920119908629
 31
0.0
  0
LINE
  5
448B
  8
0
 10
125.8475622148971
 20
160.9673277297336
 30
0.0
 11
150.84756206355721
 21
160.9673277297336
 31
0.0
  0
LINE
  5
448E
  8
0
 10
150.84756206355721
 20
104.5512446024734
 30
0.0
 11
125.8475622148971
 21
104.5512446024734
 31
0.0
  0
LINE
  5
448F
  8
0
 10
125.8475622148971
 20
102.1493711331206
 30
0.0
 11
150.84756206355721
 21
102.1493711331206
 31
0.0
  0
LINE
  5
4492
  8
0
 10
125.8475622148971
 20
99.009286687644135
 30
0.0
 11
125.8475622148971
 21
166.50928564456279
 31
0.0
  0
LINE
  5
4493
  8
0
 10
150.84756206355721
 20
166.50928564456279
 30
0.0
 11
150.84756206355721
 21
99.009286687644021
 31
0.0
  0
ARC
  5
4496
  8
0
 10
138.34756170266971
 20
19.22925049201649
 30
0.0
 40
80.131792587826524
 50
84.629494104655265
 51
95.370505895344735
  0
LINE
  5
4499
  8
0
 10
151.14756207780641
 20
136.50928631511511
 30
0.0
 11
151.14756207780641
 21
146.50928609159769
 31
0.0
  0
LINE
  5
449D
  8
2
 10
131.3475621850948
 20
136.50928631511511
 30
0.0
 11
131.3475621850948
 21
146.50928609159749
 31
0.0
  0
LINE
  5
45C3
  8
2
 10
145.8475622335236
 20
99.509285838277961
 30
0.0
 11
130.84756117181581
 21
99.509285838277961
 31
0.0
  0
LINE
  5
45F5
  8
2
 10
143.2126152139231
 20
108.2092859604674
 30
0.0
 11
133.48250865707769
 21
108.2092859604674
 31
0.0
  0
LINE
  5
45F6
  8
2
 10
135.84756199137971
 20
157.50928603199301
 30
0.0
 11
135.84756199137971
 21
151.5092869111615
 31
0.0
  0
LINE
  5
45F7
  8
2
 10
133.84756166355419
 20
151.5092869111615
 30
0.0
 11
133.84756166355419
 21
157.50928603199301
 31
0.0
  0
LINE
  5
45FA
  8
2
 10
125.8475622148971
 20
136.50928631511511
 30
0.0
 11
131.3475621850948
 21
136.50928631511511
 31
0.0
  0
LINE
  5
45FB
  8
2
 10
131.3475621850948
 20
146.50928609159769
 30
0.0
 11
125.8475622148971
 21
146.50928609159769
 31
0.0
  0
LINE
  5
45FC
  8
2
 10
151.14756207780641
 20
144.25928711977781
 30
0.0
 11
131.3475621850948
 21
144.25928711977781
 31
0.0
  0
LINE
  5
45FD
  8
2
 10
131.3475621850948
 20
138.7592862182575
 30
0.0
 11
151.14756207780641
 21
138.7592862182575
 31
0.0
  0
LINE
  5
4602
  8
2
 10
150.84756206355721
 20
139.50928564456279
 30
0.0
 11
125.8475622148971
 21
139.50928564456279
 31
0.0
  0
LINE
  5
4603
  8
2
 10
125.8475622148971
 20
109.50928564456279
 30
0.0
 11
150.84756206355721
 21
109.50928564456289
 31
0.0
  0
LINE
  5
4604
  8
2
 10
145.8475622335236
 20
99.009286687644135
 30
0.0
 11
145.8475622335236
 21
99.509285838277961
 31
0.0
  0
LINE
  5
4605
  8
2
 10
130.84756117181581
 20
99.509285838277961
 30
0.0
 11
130.84756117181581
 21
99.009286687644135
 31
0.0
  0
LINE
  5
4606
  8
2
 10
142.63056218491599
 20
99.509285838277961
 30
0.0
 11
142.63056218491599
 21
108.2092859604674
 31
0.0
  0
LINE
  5
4607
  8
2
 10
134.06456168608469
 20
108.2092859604674
 30
0.0
 11
134.06456168608469
 21
99.509285838277961
 31
0.0
  0
LINE
  5
4608
  8
2
 10
150.84756206355721
 20
157.50928603199301
 30
0.0
 11
135.84756199137971
 21
157.50928603199301
 31
0.0
  0
LINE
  5
4609
  8
2
 10
135.84756199137971
 20
151.5092869111615
 30
0.0
 11
150.84756206355721
 21
151.5092869111615
 31
0.0
  0
LINE
  5
460A
  8
2
 10
133.84756166355419
 20
157.50928603199301
 30
0.0
 11
125.8475622148971
 21
157.50928603199301
 31
0.0
  0
LINE
  5
460B
  8
2
 10
125.8475622148971
 20
151.5092869111615
 30
0.0
 11
133.84756166355419
 21
151.5092869111615
 31
0.0
  0
LINE
  5
460C
  8
0
 10
73.847561887071549
 20
23.709285781653421
 30
0.0
 11
73.847561887071549
 21
24.00928579590266
 31
0.0
  0
LINE
  5
460D
  8
0
 10
63.84756211058896
 20
24.00928579590266
 30
0.0
 11
63.84756211058896
 21
23.709285781653421
 31
0.0
  0
LINE
  5
460E
  8
0
 10
39.847561901972711
 20
23.709285781653421
 30
0.0
 11
39.847561901972711
 21
24.00928579590266
 31
0.0
  0
LINE
  5
460F
  8
0
 10
29.847562125490128
 20
24.00928579590266
 30
0.0
 11
29.847562125490128
 21
23.709285781653421
 31
0.0
  0
LINE
  5
4610
  8
0
 10
74.041111207173273
 20
49.009285644562851
 30
0.0
 11
74.041111207173273
 21
24.00928579590277
 31
0.0
  0
LINE
  5
4611
  8
0
 10
29.65401280538839
 20
24.00928579590277
 30
0.0
 11
29.65401280538839
 21
49.009285644562851
 31
0.0
  0
LINE
  5
4612
  8
0
 10
75.847562214897152
 20
49.009285644562851
 30
0.0
 11
27.847561797664639
 21
49.009285644562738
 31
0.0
  0
CIRCLE
  5
4613
  8
0
 10
51.84755662372698
 20
36.509540845677982
 30
0.0
 40
7.4997458419681511
  0
LINE
  5
4614
  8
0
 10
75.847562214897152
 20
24.00928579590277
 30
0.0
 11
27.847561797664639
 21
24.00928579590266
 31
0.0
  0
CIRCLE
  5
4615
  8
0
 10
51.847562006280839
 20
36.509285781653602
 30
0.0
 40
4.2829999999999968
  0
LINE
  5
4616
  8
0
 10
75.847562214897096
 20
24.00928579590277
 30
0.0
 11
75.847562214897096
 21
49.009285644562851
 31
0.0
  0
LINE
  5
4619
  8
0
 10
27.847561797664579
 20
49.009285644562851
 30
0.0
 11
27.847561797664579
 21
24.00928579590277
 31
0.0
  0
LINE
  5
461C
  8
0
 10
63.84756211058896
 20
23.709285781653421
 30
0.0
 11
73.847561887071549
 21
23.709285781653421
 31
0.0
  0
LINE
  5
461D
  8
0
 10
29.847562125490128
 20
23.709285781653421
 30
0.0
 11
39.847561901972711
 21
23.709285781653421
 31
0.0
  0
ARC
  5
474C
  8
3
 10
64.066243403197404
 20
151.44247777713181
 30
0.0
 40
7.711333390885283
 50
52.172917840362842
 51
127.8270821596371
  0
ARC
  5
474D
  8
3
 10
64.070226437018391
 20
151.44513820918559
 30
0.0
 40
7.1063054616950874
 50
58.952457824752919
 51
121.0475421752471
  0
ARC
  5
474F
  8
3
 10
64.066243403197404
 20
158.1760930395975
 30
0.0
 40
7.711333390885283
 50
232.17291784036291
 51
307.8270821596372
  0
ARC
  5
4750
  8
3
 10
64.070226437018391
 20
158.17343260754359
 30
0.0
 40
7.1063054616950874
 50
238.95245782475251
 51
301.04754217524749
  0
POLYLINE
  5
4755
  8
3
 66
     1
 10
0.0
 20
0.0
 30
0.0
 70
     1
  0
VERTEX
  5
4757
  8
3
 10
68.036621248887059
 20
156.98372151044191
 30
0.0
 42
0.1040389459222476
  0
VERTEX
  5
4765
  8
3
 10
67.26506267017453
 20
156.8214204648329
 30
0.0
 42
0.1006187674778827
  0
VERTEX
  5
4758
  8
3
 10
66.599760109076783
 20
156.35123318956499
 30
0.0
 42
0.0961317388519061
 70
     2
 50
226.74126552361599
  0
VERTEX
  5
4766
  8
3
 10
66.161086308401863
 20
155.65669187657161
 30
0.0
 42
0.0931829020071892
 50
226.74126552361599
  0
VERTEX
  5
4759
  8
3
 10
66.004592737720486
 20
154.8242713072616
 30
0.0
 42
0.0931829020071995
  0
VERTEX
  5
475F
  8
3
 10
66.161086308401991
 20
153.9918507379511
 30
0.0
 42
0.0961317388517972
  0
VERTEX
  5
475A
  8
3
 10
66.599760109076783
 20
153.29730942495809
 30
0.0
 42
0.1006187674778303
 70
     2
 50
313.25873447638401
  0
VERTEX
  5
4760
  8
3
 10
67.265062670174302
 20
152.8271221496903
 30
0.0
 42
0.1040389459222533
 50
313.25873447638401
  0
VERTEX
  5
475B
  8
3
 10
68.036621248887059
 20
152.66482110408131
 30
0.0
 42
0.1040389459222233
  0
VERTEX
  5
4761
  8
3
 10
68.808179827600043
 20
152.8271221496903
 30
0.0
 42
0.1006187674777489
  0
VERTEX
  5
475C
  8
3
 10
69.473482388697334
 20
153.29730942495809
 30
0.0
 42
0.0961317388516823
 70
     2
 50
46.741265523616022
  0
VERTEX
  5
4762
  8
3
 10
69.91215618937224
 20
153.9918507379509
 30
0.0
 42
0.0931829020071142
 50
46.741265523616022
  0
VERTEX
  5
475D
  8
3
 10
70.068649760053631
 20
154.8242713072616
 30
0.0
 42
0.093182902007185
  0
VERTEX
  5
4763
  8
3
 10
69.912156189372183
 20
155.6566918765719
 30
0.0
 42
0.0961317388518236
  0
VERTEX
  5
475E
  8
3
 10
69.473482388697334
 20
156.35123318956499
 30
0.0
 42
0.1006187674778014
 70
     2
 50
133.25873447638401
  0
VERTEX
  5
4764
  8
3
 10
68.808179827599815
 20
156.8214204648329
 30
0.0
 42
0.1040389459222176
 50
133.25873447638401
  0
SEQEND
  5
4756
  8
3
  0
POLYLINE
  5
4767
  8
3
 66
     1
 10
0.0
 20
0.0
 30
0.0
 70
     1
  0
VERTEX
  5
4769
  8
3
 10
68.036621248887059
 20
156.3161553206445
 30
0.0
 42
0.1100504958869895
  0
VERTEX
  5
4777
  8
3
 10
67.540539380373502
 20
156.20562942066789
 30
0.0
 42
0.1025517268491352
  0
VERTEX
  5
476A
  8
3
 10
67.104678664935022
 20
155.87919406430211
 30
0.0
 42
0.0934680573273555
 70
     2
 50
228.54178648396481
  0
VERTEX
  5
4778
  8
3
 10
66.821284510214696
 20
155.40339181464211
 30
0.0
 42
0.087923423941003
 50
228.54178648396481
  0
VERTEX
  5
476B
  8
3
 10
66.71865404341878
 20
154.82427336414139
 30
0.0
 42
0.0879234239409436
  0
VERTEX
  5
4771
  8
3
 10
66.82128270261353
 20
154.24515459330351
 30
0.0
 42
0.0934680573273441
  0
VERTEX
  5
476C
  8
3
 10
67.104675372212512
 20
153.76935145908831
 30
0.0
 42
0.1025517268492942
 70
     2
 50
311.45803467889908
  0
VERTEX
  5
4772
  8
3
 10
67.54053506874709
 20
153.44291474227381
 30
0.0
 42
0.1100504958872438
 50
311.45803467889908
  0
VERTEX
  5
476D
  8
3
 10
68.036616592274186
 20
153.33238729387861
 30
0.0
 42
0.1100504958871612
  0
VERTEX
  5
4773
  8
3
 10
68.532698460787969
 20
153.4429131938555
 30
0.0
 42
0.1025517268491776
  0
VERTEX
  5
476E
  8
3
 10
68.968559176226222
 20
153.769348550221
 30
0.0
 42
0.0934680573272221
 70
     2
 50
48.541786483964771
  0
VERTEX
  5
4774
  8
3
 10
69.251953330946719
 20
154.24515079988109
 30
0.0
 42
0.0879234239408591
 50
48.541786483964771
  0
VERTEX
  5
476F
  8
3
 10
69.354583797742464
 20
154.8242692503818
 30
0.0
 42
0.0879234239409351
  0
VERTEX
  5
4775
  8
3
 10
69.251955138547714
 20
155.40338802121971
 30
0.0
 42
0.0934680573273177
  0
VERTEX
  5
4770
  8
3
 10
68.968562468948733
 20
155.8791911554348
 30
0.0
 42
0.1025517268492308
 70
     2
 50
131.45803467889911
  0
VERTEX
  5
4776
  8
3
 10
68.532702772414041
 20
156.20562787224949
 30
0.0
 42
0.1100504958871027
 50
131.45803467889911
  0
SEQEND
  5
4768
  8
3
  0
CIRCLE
  5
4EA5
  8
3
 10
51.847562006280839
 20
36.509285781653602
 30
0.0
 40
4.8650532784226712
  0
LINE
  5
4ED2
  8
2
 10
133.48250865707769
 20
99.509285838277961
 30
0.0
 11
133.48250865707769
 21
108.2092859604674
 31
0.0
  0
LINE
  5
4ED3
  8
2
 10
143.2126152139231
 20
99.509285838277961
 30
0.0
 11
143.2126152139231
 21
108.2092859604674
 31
0.0
  0
LINE
  5
4ED5
  8
1
 10
30.247562006280869
 20
124.50928564456279
 30
0.0
 11
73.447562006280918
 21
124.50928564456279
 31
0.0
  0
LINE
  5
4ED6
  8
1
 10
46.847562006280889
 20
154.50928564456279
 30
0.0
 11
56.847562006280903
 21
154.50928564456279
 31
0.0
  0
LINE
  5
4ED7
  8
1
 10
27.847562006280899
 20
141.50928564456279
 30
0.0
 11
41.847562006280889
 21
141.50928564456279
 31
0.0
  0
LINE
  5
4EDE
  8
1
 10
51.847562006280903
 20
169.50928564456279
 30
0.0
 11
51.847562006280903
 21
96.009285644562851
 31
0.0
  0
LINE
  5
4EDF
  8
1
 10
51.847562006280903
 20
52.009285644562851
 30
0.0
 11
51.847562006280903
 21
21.00928579590266
 31
0.0
  0
LINE
  5
4EE3
  8
1
 10
61.847562006280903
 20
141.50928564456279
 30
0.0
 11
75.847562006280896
 21
141.50928564456279
 31
0.0
  0
LINE
  5
4EE4
  8
1
 10
34.847562006280903
 20
148.50928564456279
 30
0.0
 11
34.847562006280903
 21
134.50928564456279
 31
0.0
  0
LINE
  5
4EE5
  8
1
 10
68.847562006280896
 20
148.50928564456279
 30
0.0
 11
68.847562006280896
 21
134.50928564456279
 31
0.0
  0
LINE
  5
4EFD
  8
1
 10
62.347302462597042
 20
36.509285781653602
 30
0.0
 11
41.347810784856897
 21
36.509285781653602
 31
0.0
  0
LINE
  5
4F0E
  8
1
 10
68.847562006280896
 20
51.009285644562851
 30
0.0
 11
68.847562006280896
 21
21.709285781653421
 31
0.0
  0
LINE
  5
4F0F
  8
1
 10
34.847562006280903
 20
51.009285644562738
 30
0.0
 11
34.847562006280903
 21
21.709285781653421
 31
0.0
  0
LINE
  5
4F17
  8
1
 10
123.8475622148972
 20
154.50928564456279
 30
0.0
 11
135.84756221489721
 21
154.50928564456279
 31
0.0
  0
LINE
  5
4F18
  8
1
 10
123.8475622148971
 20
141.50928564456279
 30
0.0
 11
152.84756206355721
 21
141.50928564456279
 31
0.0
  0
LINE
  5
4F19
  8
1
 10
122.8475622148971
 20
124.50928564456279
 30
0.0
 11
153.84756206355721
 21
124.50928564456279
 31
0.0
  0
LINE
  5
4F1A
  8
1
 10
138.34756170266979
 20
97.361042473250336
 30
0.0
 11
138.34756170266979
 21
110.2092859604674
 31
0.0
  0
CIRCLE
  5
4F29
  8
0
 10
51.847562006280903
 20
124.50928564456279
 30
0.0
 40
15.0
  0
LINE
  5
542E
  8
2
 10
125.8475622148971
 20
130.50928564456279
 30
0.0
 11
150.84756206355721
 21
130.50928564456279
 31
0.0
  0
LINE
  5
542F
  8
2
 10
125.8475622148971
 20
118.50928564456279
 30
0.0
 11
150.84756206355721
 21
118.50928564456279
 31
0.0
  0
TEXT
  5
5511
  8
0
 62
     3
 10
0.0
 20
0.0
 30
0.0
 40
10.0
  1
SKPAR09-12
  7
STANDARD1
  0
ENDSEC
  0
EOF
