  0
SECTION
  2
HEADER
  9
$ACADVER
  1
AC1009
  9
$INSBASE
 10
0.0
 20
0.0
 30
0.0
  9
$EXTMIN
 10
0.0
 20
-2.960436562073669
 30
0.0
  9
$EXTMAX
 10
335.0
 20
269.5
 30
0.0
  9
$LIMMIN
 10
0.0
 20
0.0
  9
$LIMMAX
 10
375.0
 20
270.0
  9
$ORTHOMODE
 70
     1
  9
$REGENMODE
 70
     1
  9
$FILLMODE
 70
     1
  9
$QTEXTMODE
 70
     0
  9
$MIRRTEXT
 70
     0
  9
$DRAGMODE
 70
     2
  9
$LTSCALE
 40
10.0
  9
$OSMODE
 70
    55
  9
$ATTMODE
 70
     1
  9
$TEXTSIZE
 40
0.2
  9
$TRACEWID
 40
0.05
  9
$TEXTSTYLE
  7
STANDARD
  9
$CLAYER
  8
0
  9
$CELTYPE
  6
BYLAYER
  9
$CECOLOR
 62
   256
  9
$DIMSCALE
 40
1.0
  9
$DIMASZ
 40
3.0
  9
$DIMEXO
 40
2.0
  9
$DIMDLI
 40
0.38
  9
$DIMRND
 40
0.0
  9
$DIMDLE
 40
0.0
  9
$DIMEXE
 40
2.0
  9
$DIMTP
 40
0.0
  9
$DIMTM
 40
0.0
  9
$DIMTXT
 40
3.2000000000000002
  9
$DIMCEN
 40
0.0
  9
$DIMTSZ
 40
0.0
  9
$DIMTOL
 70
     0
  9
$DIMLIM
 70
     0
  9
$DIMTIH
 70
     0
  9
$DIMTOH
 70
     0
  9
$DIMSE1
 70
     0
  9
$DIMSE2
 70
     0
  9
$DIMTAD
 70
     1
  9
$DIMZIN
 70
     0
  9
$DIMBLK
  1

  9
$DIMASO
 70
     1
  9
$DIMSHO
 70
     0
  9
$DIMPOST
  1

  9
$DIMAPOST
  1

  9
$DIMALT
 70
     0
  9
$DIMALTD
 70
     2
  9
$DIMALTF
 40
25.399999999999999
  9
$DIMLFAC
 40
1.0
  9
$DIMTOFL
 70
     1
  9
$DIMTVP
 40
1.6000000000000001
  9
$DIMTIX
 70
     1
  9
$DIMSOXD
 70
     0
  9
$DIMSAH
 70
     0
  9
$DIMBLK1
  1

  9
$DIMBLK2
  1

  9
$DIMSTYLE
  2
STANDARD
  9
$DIMCLRD
 70
     0
  9
$DIMCLRE
 70
     0
  9
$DIMCLRT
 70
     0
  9
$DIMTFAC
 40
1.0
  9
$DIMGAP
 40
0.09
  9
$LUNITS
 70
     2
  9
$LUPREC
 70
     4
  9
$SKETCHINC
 40
0.1
  9
$FILLETRAD
 40
2.0
  9
$AUNITS
 70
     0
  9
$AUPREC
 70
     4
  9
$MENU
  1
E:\r13\win\SUPPORT\ACAD
  9
$ELEVATION
 40
0.0
  9
$PELEVATION
 40
0.0
  9
$THICKNESS
 40
0.0
  9
$LIMCHECK
 70
     0
  9
$BLIPMODE
 70
     0
  9
$CHAMFERA
 40
0.0
  9
$CHAMFERB
 40
0.0
  9
$SKPOLY
 70
     0
  9
$TDCREATE
 40
2449839.7854050919
  9
$TDUPDATE
 40
2456598.5020754398
  9
$TDINDWG
 40
0.0001663426
  9
$TDUSRTIMER
 40
0.0001663426
  9
$USRTIMER
 70
     1
  9
$ANGBASE
 50
0.0
  9
$ANGDIR
 70
     0
  9
$PDMODE
 70
     0
  9
$PDSIZE
 40
0.0
  9
$PLINEWID
 40
0.0
  9
$COORDS
 70
     1
  9
$SPLFRAME
 70
     0
  9
$SPLINETYPE
 70
     6
  9
$SPLINESEGS
 70
     8
  9
$ATTDIA
 70
     0
  9
$ATTREQ
 70
     1
  9
$HANDLING
 70
     1
  9
$HANDSEED
  5
2EF
  9
$SURFTAB1
 70
     6
  9
$SURFTAB2
 70
     6
  9
$SURFTYPE
 70
     6
  9
$SURFU
 70
     6
  9
$SURFV
 70
     6
  9
$UCSNAME
  2

  9
$UCSORG
 10
0.0
 20
0.0
 30
0.0
  9
$UCSXDIR
 10
1.0
 20
0.0
 30
0.0
  9
$UCSYDIR
 10
0.0
 20
1.0
 30
0.0
  9
$PUCSNAME
  2

  9
$PUCSORG
 10
0.0
 20
0.0
 30
0.0
  9
$PUCSXDIR
 10
1.0
 20
0.0
 30
0.0
  9
$PUCSYDIR
 10
0.0
 20
1.0
 30
0.0
  9
$USERI1
 70
     0
  9
$USERI2
 70
     1
  9
$USERI3
 70
     1
  9
$USERI4
 70
     0
  9
$USERI5
 70
     0
  9
$USERR1
 40
0.0
  9
$USERR2
 40
0.0
  9
$USERR3
 40
0.0
  9
$USERR4
 40
0.0
  9
$USERR5
 40
0.0
  9
$WORLDVIEW
 70
     1
  9
$SHADEDGE
 70
     3
  9
$SHADEDIF
 70
    70
  9
$TILEMODE
 70
     1
  9
$MAXACTVP
 70
    16
  9
$PLIMCHECK
 70
     0
  9
$PEXTMIN
 10
1.0000000000000000E+020
 20
1.0000000000000000E+020
 30
1.0000000000000000E+020
  9
$PEXTMAX
 10
-1.0000000000000000E+020
 20
-1.0000000000000000E+020
 30
-1.0000000000000000E+020
  9
$PLIMMIN
 10
0.0
 20
0.0
  9
$PLIMMAX
 10
12.0
 20
9.0
  9
$UNITMODE
 70
     0
  9
$VISRETAIN
 70
     0
  9
$PLINEGEN
 70
     0
  9
$PSLTSCALE
 70
     0
  0
ENDSEC
  0
SECTION
  2
TABLES
  0
TABLE
  2
VPORT
 70
     1
  0
VPORT
  2
*ACTIVE
 70
     0
 10
0.0
 20
0.0
 11
1.0
 21
1.0
 12
187.49427839065231
 22
174.91677254346851
 13
0.0
 23
0.0
 14
10.0
 24
10.0
 15
10.0
 25
10.0
 16
0.0
 26
0.0
 36
1.0
 17
0.0
 27
0.0
 37
0.0
 40
358.92027899574339
 41
1.7807262569832401
 42
50.0
 43
0.0
 44
0.0
 50
0.0
 51
0.0
 71
     0
 72
   500
 73
     1
 74
     0
 75
     0
 76
     0
 77
     0
 78
     2
  0
ENDTAB
  0
TABLE
  2
LTYPE
 70
     3
  0
LTYPE
  2
CONTINUOUS
 70
     0
  3
Solid Line
 72
    65
 73
     0
 40
0.0
  0
LTYPE
  2
CENTER
 70
     0
  3
____ _ ____ _ ____ _ ____ _ ____ _ ____ _ ____
 72
    65
 73
     4
 40
2.0
 49
1.25
 49
-0.25
 49
0.25
 49
-0.25
  0
LTYPE
  2
PHANTOM2
 70
     0
  3
___ _ _ ___ _ _ ___ _ _ ___ _ _
 72
    65
 73
     6
 40
1.25
 49
0.625
 49
-0.125
 49
0.125
 49
-0.125
 49
0.125
 49
-0.125
  0
ENDTAB
  0
TABLE
  2
LAYER
 70
     2
  0
LAYER
  2
0
 70
     0
 62
     7
  6
CONTINUOUS
  0
LAYER
  2
1
 70
     0
 62
     1
  6
CENTER
  0
ENDTAB
  0
TABLE
  2
STYLE
 70
     2
  0
STYLE
  2
STANDARD
 70
     0
 40
0.0
 41
1.0
 50
0.0
 71
     0
 42
0.2
  3
TXT
  4
BIGFONT
  0
STYLE
  2
STANDARD1
 70
     0
 40
0.0
 41
1.0
 50
0.0
 71
     0
 42
3.0
  3
txt
  4

  0
ENDTAB
  0
TABLE
  2
VIEW
 70
     1
  0
VIEW
  2
ALL
 70
     0
 40
270.0
 10
220.99159663865549
 20
135.0
 41
0.0
 11
0.0
 21
0.0
 31
1.0
 12
0.0
 22
0.0
 32
0.0
 42
0.0
 43
0.0
 44
0.0
 50
0.0
 71
     0
  0
ENDTAB
  0
TABLE
  2
UCS
 70
     0
  0
ENDTAB
  0
TABLE
  2
APPID
 70
     3
  0
APPID
  2
ACAD
 70
     0
  0
APPID
  2
ACAD_MLEADERVER
 70
     0
  0
APPID
  2
ACAD_NAV_VCDISPLAY
 70
     0
  0
ENDTAB
  0
TABLE
  2
DIMSTYLE
 70
     1
  0
DIMSTYLE
  2
STANDARD
 70
     0
  3

  4

  5

  6

  7

 40
1.0
 41
0.18
 42
0.0625
 43
0.38
 44
0.18
 45
0.0
 46
0.0
 47
0.0
 48
0.0
140
0.18
141
0.09
142
0.0
143
25.399999999999999
144
1.0
145
0.0
146
1.0
147
0.09
 71
     0
 72
     0
 73
     1
 74
     1
 75
     0
 76
     0
 77
     0
 78
     0
170
     0
171
     2
172
     0
173
     0
174
     0
175
     0
176
     0
177
     0
178
     0
  0
ENDTAB
  0
ENDSEC
  0
SECTION
  2
BLOCKS
  0
BLOCK
  8
0
  2
$MODEL_SPACE
 70
     0
 10
0.0
 20
0.0
 30
0.0
  3
$MODEL_SPACE
  1

  0
ENDBLK
  5
172
  8
0
  0
BLOCK
 67
     1
  8
0
  2
$PAPER_SPACE
 70
     0
 10
0.0
 20
0.0
 30
0.0
  3
$PAPER_SPACE
  1

  0
ENDBLK
  5
170
 67
     1
  8
0
  0
ENDSEC
  0
SECTION
  2
ENTITIES
  0
ARC
  5
33
  8
0
 10
120.0
 20
200.0
 30
0.0
 40
64.5
 50
304.56613101792118
 51
325.43386898207888
  0
LINE
  5
34
  8
1
 10
189.5
 20
200.0
 30
0.0
 11
50.5
 21
200.0
 31
0.0
  0
LINE
  5
35
  8
1
 10
120.0
 20
130.5
 30
0.0
 11
120.0
 21
269.5
 31
0.0
  0
ARC
  5
36
  8
0
 10
189.29096493834649
 20
171.29874257261829
 30
0.0
 40
18.0
 50
108.9908168556518
 51
206.0091831443481
  0
ARC
  5
37
  8
0
 10
148.70125742738171
 20
130.70903506165351
 30
0.0
 40
18.0
 50
63.990816855651858
 51
161.0091831443481
  0
ARC
  5
38
  8
0
 10
91.298742572618266
 20
130.7090350616534
 30
0.0
 40
18.0
 50
18.990816855651861
 51
116.0091831443481
  0
ARC
  5
39
  8
0
 10
50.709035061653481
 20
171.29874257261821
 30
0.0
 40
18.0
 50
333.99081685565187
 51
71.009183144348142
  0
ARC
  5
3A
  8
0
 10
50.709035061653481
 20
228.70125742738171
 30
0.0
 40
18.0
 50
288.99081685565187
 51
26.009183144348189
  0
ARC
  5
3B
  8
0
 10
91.298742572618224
 20
269.29096493834652
 30
0.0
 40
18.0
 50
243.9908168556519
 51
341.00918314434813
  0
ARC
  5
3C
  8
0
 10
148.70125742738171
 20
269.29096493834641
 30
0.0
 40
18.0
 50
198.99081685565179
 51
296.00918314434819
  0
ARC
  5
3D
  8
0
 10
189.29096493834641
 20
228.70125742738179
 30
0.0
 40
18.0
 50
153.9908168556519
 51
251.0091831443481
  0
ARC
  5
3E
  8
0
 10
120.0
 20
200.0
 30
0.0
 40
64.5
 50
259.56613101792112
 51
280.43386898207888
  0
ARC
  5
3F
  8
0
 10
120.0
 20
200.0
 30
0.0
 40
64.5
 50
214.56613101792121
 51
235.43386898207891
  0
ARC
  5
40
  8
0
 10
120.0
 20
200.0
 30
0.0
 40
64.5
 50
169.56613101792109
 51
190.43386898207891
  0
ARC
  5
41
  8
0
 10
120.0
 20
200.0
 30
0.0
 40
64.5
 50
124.56613101792109
 51
145.43386898207891
  0
ARC
  5
42
  8
0
 10
120.0
 20
200.0
 30
0.0
 40
64.5
 50
79.566131017921165
 51
100.43386898207891
  0
ARC
  5
43
  8
0
 10
120.0
 20
200.0
 30
0.0
 40
64.5
 50
34.566131017921158
 51
55.433868982078842
  0
ARC
  5
44
  8
0
 10
120.0
 20
200.0
 30
0.0
 40
64.5
 50
349.56613101792112
 51
10.43386898207889
  0
ARC
  5
45
  8
0
 10
120.0
 20
200.0
 30
0.0
 40
51.5
 50
99.441737513185004
 51
80.558262486814954
  0
ARC
  5
46
  8
0
 10
120.0
 20
200.0
 30
0.0
 40
36.5
 50
103.75328311240369
 51
76.24671688759625
  0
LINE
  5
47
  8
1
 10
136.5
 20
243.0
 30
0.0
 11
103.5
 21
243.0
 31
0.0
  0
CIRCLE
  5
48
  8
0
 10
120.0
 20
243.0
 30
0.0
 40
11.5
  0
LINE
  5
49
  8
0
 10
110.0
 20
248.67890834580061
 30
0.0
 11
110.0
 21
250.51979809935901
 31
0.0
  0
LINE
  5
4A
  8
0
 10
130.0
 20
248.67890834580029
 30
0.0
 11
130.0
 21
250.51979809935901
 31
0.0
  0
CIRCLE
  5
4B
  8
0
 10
120.0
 20
243.0
 30
0.0
 40
8.1999999999999993
  0
LINE
  5
4C
  8
0
 10
117.0000000000003
 20
244.73205080756861
 30
0.0
 11
120.0000000000003
 21
246.46410161513759
 31
0.0
  0
LINE
  5
4D
  8
0
 10
120.0000000000003
 20
246.46410161513759
 30
0.0
 11
123.0
 21
244.73205080756861
 31
0.0
  0
LINE
  5
4E
  8
0
 10
123.0
 20
244.73205080756861
 30
0.0
 11
123.0
 21
241.26794919243039
 31
0.0
  0
LINE
  5
4F
  8
0
 10
123.0
 20
241.26794919243039
 30
0.0
 11
120.0
 21
239.53589838486209
 31
0.0
  0
LINE
  5
50
  8
0
 10
120.0
 20
239.53589838486209
 30
0.0
 11
116.9999999999996
 21
241.26794919243139
 31
0.0
  0
LINE
  5
51
  8
0
 10
116.9999999999996
 20
241.26794919243139
 30
0.0
 11
117.0000000000003
 21
244.73205080756861
 31
0.0
  0
LINE
  5
52
  8
0
 10
125.9999999999999
 20
57.499999999999957
 30
0.0
 11
125.9999999999999
 21
56.99999999999995
 31
0.0
  0
LINE
  5
53
  8
0
 10
113.9999999999999
 20
57.499999999999957
 30
0.0
 11
113.9999999999999
 21
56.99999999999995
 31
0.0
  0
ARC
  5
54
  8
0
 10
128.38560121149499
 20
58.699999999999939
 30
0.0
 40
1.1999999999999991
 50
270.0
 51
355.76360520094102
  0
ARC
  5
55
  8
0
 10
111.6143987885049
 20
58.699999999999939
 30
0.0
 40
1.1999999999999991
 50
184.23639479905879
 51
269.99999999999989
  0
LINE
  5
56
  8
0
 10
129.58232251684299
 20
58.611353977381569
 30
0.0
 11
131.5
 21
84.499999999999943
 31
0.0
  0
LINE
  5
57
  8
0
 10
110.41767748315679
 20
58.611353977381569
 30
0.0
 11
108.4999999999999
 21
84.499999999999943
 31
0.0
  0
ARC
  5
58
  8
0
 10
119.9999999999999
 20
72.499999999999957
 30
0.0
 40
50.0
 50
78.584842257269472
 51
101.4151577427304
  0
LINE
  5
59
  8
0
 10
131.5
 20
119.5505047794388
 30
0.0
 11
131.49999999999989
 21
84.499999999999943
 31
0.0
  0
LINE
  5
5A
  8
0
 10
108.5
 20
119.5505047794388
 30
0.0
 11
108.4999999999999
 21
84.499999999999943
 31
0.0
  0
LINE
  5
5B
  8
0
 10
108.4999999999999
 20
84.499999999999943
 30
0.0
 11
131.49999999999989
 21
84.499999999999943
 31
0.0
  0
LINE
  5
5C
  8
0
 10
111.6143987885049
 20
57.499999999999957
 30
0.0
 11
128.38560121149499
 21
57.499999999999957
 31
0.0
  0
POLYLINE
  5
5D
  8
0
 66
     1
 10
0.0
 20
0.0
 30
0.0
  0
VERTEX
  5
5E
  8
0
 10
131.6809840308778
 20
45.999999999999957
 30
0.0
 42
-0.0996670490439935
 50
270.0
  0
VERTEX
  5
5F
  8
0
 10
132.45019307456209
 20
49.820561043283377
 30
0.0
 42
-0.0989706205305048
 50
270.0
  0
VERTEX
  5
60
  8
0
 10
134.648569809809
 20
53.071067811865269
 30
0.0
 42
-0.0980013847201777
 70
     2
 50
44.62441293226464
  0
VERTEX
  5
61
  8
0
 10
138.21689978315541
 20
55.426632057055052
 30
0.0
 42
-0.1154957332325018
 50
270.0
  0
VERTEX
  5
62
  8
0
 10
141.8129556448101
 20
55.99999999999973
 30
0.0
 42
-0.0973268720747883
 50
270.0
  0
SEQEND
  5
63
  8
0
  0
POLYLINE
  5
64
  8
0
 66
     1
 10
0.0
 20
0.0
 30
0.0
  0
VERTEX
  5
65
  8
0
 10
141.8129556448101
 20
36.000000000000192
 30
0.0
 42
-0.0973268720747809
 50
270.0
  0
VERTEX
  5
66
  8
0
 10
137.92935150761261
 20
36.763187393974832
 30
0.0
 42
-0.0980013847201723
 50
270.0
  0
VERTEX
  5
67
  8
0
 10
134.648569809809
 20
38.928932188134652
 30
0.0
 42
-0.0989706205305098
 70
     2
 50
135.37558706773541
  0
VERTEX
  5
68
  8
0
 10
132.45019307456221
 20
42.179438956716481
 30
0.0
 42
-0.0996670490440023
 50
270.0
  0
VERTEX
  5
69
  8
0
 10
131.6809840308778
 20
45.999999999999957
 30
0.0
 42
-0.0996670490439935
 50
270.0
  0
SEQEND
  5
6A
  8
0
  0
POLYLINE
  5
6B
  8
0
 66
     1
 10
0.0
 20
0.0
 30
0.0
  0
VERTEX
  5
6C
  8
0
 10
156.59453096197811
 20
45.999999999999957
 30
0.0
 42
-0.1382189591156419
 50
270.0
  0
VERTEX
  5
6D
  8
0
 10
155.5790936030468
 20
42.396883749088673
 30
0.0
 42
-0.107058673674062
 50
270.0
  0
VERTEX
  5
6E
  8
0
 10
152.26510778819929
 20
38.928932188134482
 30
0.0
 42
-0.0805677333999104
 70
     2
 50
214.07905419132459
  0
VERTEX
  5
6F
  8
0
 10
147.18902156449931
 20
36.576290208785181
 30
0.0
 42
-0.0834064190665777
 50
270.0
  0
VERTEX
  5
70
  8
0
 10
141.8129556448101
 20
36.000000000000192
 30
0.0
 42
-0.0684102627165008
 50
270.0
  0
SEQEND
  5
71
  8
0
  0
POLYLINE
  5
72
  8
0
 66
     1
 10
0.0
 20
0.0
 30
0.0
  0
VERTEX
  5
73
  8
0
 10
141.8129556448101
 20
55.999999999999957
 30
0.0
 42
-0.0684102627165013
 50
270.0
  0
VERTEX
  5
74
  8
0
 10
147.688158576527
 20
55.192371977751137
 30
0.0
 42
-0.0805677333999139
 50
270.0
  0
VERTEX
  5
75
  8
0
 10
152.26510778819929
 20
53.071067811865433
 30
0.0
 42
-0.1070586736740675
 70
     2
 50
325.92094580867541
  0
VERTEX
  5
76
  8
0
 10
155.57909360304669
 20
49.603116250911242
 30
0.0
 42
-0.1382189591156503
 50
270.0
  0
VERTEX
  5
77
  8
0
 10
156.59453096197811
 20
45.999999999999957
 30
0.0
 42
-0.1382189591156419
 50
270.0
  0
SEQEND
  5
78
  8
0
  0
ARC
  5
79
  8
0
 10
173.4334660259895
 20
45.999999999999957
 30
0.0
 40
9.9999999999999716
 50
297.48553802988192
 51
62.514461970118013
  0
ARC
  5
7A
  8
0
 10
161.11393700030919
 20
45.999999999999957
 30
0.0
 40
11.99999999999997
 50
340.56891845905272
 51
19.431081540947179
  0
ARC
  5
7B
  8
0
 10
176.2026142800824
 20
40.677235873453078
 30
0.0
 40
4.0
 50
160.5689184590527
 51
297.48553802988198
  0
ARC
  5
7C
  8
0
 10
176.2026142800824
 20
51.322764126546822
 30
0.0
 40
4.0
 50
62.514461970117942
 51
199.43108154094719
  0
ARC
  5
7D
  8
0
 10
63.797385719917479
 20
51.322764126546851
 30
0.0
 40
4.0
 50
340.56891845905272
 51
117.48553802988199
  0
ARC
  5
7E
  8
0
 10
63.797385719917479
 20
40.6772358734531
 30
0.0
 40
4.0
 50
242.51446197011799
 51
19.43108154094724
  0
ARC
  5
7F
  8
0
 10
78.886062999690722
 20
45.999999999999957
 30
0.0
 40
11.99999999999997
 50
160.5689184590527
 51
199.43108154094719
  0
ARC
  5
80
  8
0
 10
66.566533974010383
 20
45.999999999999957
 30
0.0
 40
9.9999999999999716
 50
117.48553802988189
 51
242.51446197011799
  0
POLYLINE
  5
81
  8
0
 66
     1
 10
0.0
 20
0.0
 30
0.0
  0
VERTEX
  5
82
  8
0
 10
98.187044355189812
 20
55.999999999999972
 30
0.0
 42
0.0684102627165013
 50
270.0
  0
VERTEX
  5
83
  8
0
 10
92.311841423472927
 20
55.192371977751151
 30
0.0
 42
0.0805677333999139
 50
270.0
  0
VERTEX
  5
84
  8
0
 10
87.734892211800599
 20
53.07106781186544
 30
0.0
 42
0.1070586736740675
 70
     2
 50
214.0790541913245
  0
VERTEX
  5
85
  8
0
 10
84.420906396953214
 20
49.603116250911263
 30
0.0
 42
0.1382189591156503
 50
270.0
  0
VERTEX
  5
86
  8
0
 10
83.405469038021764
 20
45.999999999999957
 30
0.0
 42
0.1382189591156419
 50
270.0
  0
SEQEND
  5
87
  8
0
  0
POLYLINE
  5
88
  8
0
 66
     1
 10
0.0
 20
0.0
 30
0.0
  0
VERTEX
  5
89
  8
0
 10
83.405469038021764
 20
45.999999999999957
 30
0.0
 42
0.1382189591156419
 50
270.0
  0
VERTEX
  5
8A
  8
0
 10
84.420906396953129
 20
42.39688374908868
 30
0.0
 42
0.107058673674062
 50
270.0
  0
VERTEX
  5
8B
  8
0
 10
87.734892211800599
 20
38.928932188134503
 30
0.0
 42
0.0805677333999104
 70
     2
 50
325.9209458086753
  0
VERTEX
  5
8C
  8
0
 10
92.810978435500601
 20
36.576290208785203
 30
0.0
 42
0.0834064190665777
 50
270.0
  0
VERTEX
  5
8D
  8
0
 10
98.187044355189812
 20
36.000000000000199
 30
0.0
 42
0.0684102627165008
 50
270.0
  0
SEQEND
  5
8E
  8
0
  0
POLYLINE
  5
8F
  8
0
 66
     1
 10
0.0
 20
0.0
 30
0.0
  0
VERTEX
  5
90
  8
0
 10
98.187044355189812
 20
36.000000000000199
 30
0.0
 42
0.0973268720747809
 50
270.0
  0
VERTEX
  5
91
  8
0
 10
102.07064849238721
 20
36.763187393974853
 30
0.0
 42
0.0980013847201723
 50
270.0
  0
VERTEX
  5
92
  8
0
 10
105.3514301901909
 20
38.928932188134667
 30
0.0
 42
0.0989706205305098
 70
     2
 50
44.624412932264498
  0
VERTEX
  5
93
  8
0
 10
107.54980692543769
 20
42.179438956716481
 30
0.0
 42
0.0996670490440023
 50
270.0
  0
VERTEX
  5
94
  8
0
 10
108.31901596912211
 20
45.999999999999957
 30
0.0
 42
0.0996670490439935
 50
270.0
  0
SEQEND
  5
95
  8
0
  0
POLYLINE
  5
96
  8
0
 66
     1
 10
0.0
 20
0.0
 30
0.0
  0
VERTEX
  5
97
  8
0
 10
108.31901596912211
 20
45.999999999999957
 30
0.0
 42
0.0996670490439935
 50
270.0
  0
VERTEX
  5
98
  8
0
 10
107.54980692543781
 20
49.820561043283377
 30
0.0
 42
0.0989706205305048
 50
270.0
  0
VERTEX
  5
99
  8
0
 10
105.3514301901909
 20
53.071067811865269
 30
0.0
 42
0.0980013847201777
 70
     2
 50
135.3755870677353
  0
VERTEX
  5
9A
  8
0
 10
101.7831002168445
 20
55.426632057055059
 30
0.0
 42
0.1154957332325018
 50
270.0
  0
VERTEX
  5
9B
  8
0
 10
98.187044355189812
 20
55.999999999999737
 30
0.0
 42
0.0973268720747883
 50
270.0
  0
SEQEND
  5
9C
  8
0
  0
ARC
  5
9D
  8
0
 10
144.8452994616207
 20
24.999999999999961
 30
0.0
 40
2.0
 50
270.0
 51
329.99999999999989
  0
ARC
  5
9E
  8
0
 10
95.154700538379217
 20
24.999999999999972
 30
0.0
 40
2.0
 50
210.0
 51
269.99999999999989
  0
LINE
  5
9F
  8
0
 10
146.57735026918959
 20
23.999999999999961
 30
0.0
 11
152.92820323027539
 21
34.999999999999957
 31
0.0
  0
LINE
  5
A0
  8
0
 10
93.422649730810335
 20
23.999999999999972
 30
0.0
 11
87.071796769724472
 21
34.999999999999972
 31
0.0
  0
LINE
  5
A1
  8
0
 10
99.999999999999986
 20
11.49999999999997
 30
0.0
 11
139.99999999999989
 21
11.499999999999959
 31
0.0
  0
LINE
  5
A2
  8
0
 10
138.5
 20
9.9999999999999591
 30
0.0
 11
139.99999999999989
 21
11.499999999999959
 31
0.0
  0
LINE
  5
A3
  8
0
 10
99.999999999999986
 20
11.49999999999997
 30
0.0
 11
101.4999999999999
 21
9.999999999999968
 31
0.0
  0
LINE
  5
A4
  8
0
 10
139.99999999999989
 20
11.499999999999959
 30
0.0
 11
139.99999999999989
 21
22.999999999999961
 31
0.0
  0
LINE
  5
A5
  8
0
 10
99.999999999999986
 20
11.49999999999997
 30
0.0
 11
99.999999999999986
 21
22.999999999999972
 31
0.0
  0
LINE
  5
A6
  8
0
 10
144.8452994616207
 20
22.999999999999961
 30
0.0
 11
95.154700538379217
 21
22.999999999999972
 31
0.0
  0
ARC
  5
A7
  8
0
 10
173.5
 20
45.999999999999957
 30
0.0
 40
10.99999999999998
 50
269.99999999999989
 51
90.000000000000057
  0
ARC
  5
A8
  8
0
 10
66.499999999999972
 20
45.999999999999957
 30
0.0
 40
11.0
 50
89.999999999999986
 51
270.0
  0
LINE
  5
A9
  8
0
 10
66.499999999999972
 20
34.999999999999972
 30
0.0
 11
173.49999999999989
 21
34.999999999999957
 31
0.0
  0
LINE
  5
AA
  8
1
 10
119.9999999999999
 20
4.9999999999999654
 30
0.0
 11
119.9999999999999
 21
127.5
 31
0.0
  0
LINE
  5
AB
  8
0
 10
66.499999999999972
 20
56.999999999999972
 30
0.0
 11
173.49999999999989
 21
56.99999999999995
 31
0.0
  0
LINE
  5
AC
  8
0
 10
138.5
 20
9.9999999999999591
 30
0.0
 11
101.4999999999999
 21
9.999999999999968
 31
0.0
  0
LINE
  5
AD
  8
0
 10
129.08295106229221
 20
121.15953144040751
 30
0.0
 11
110.9170489377077
 21
121.15953144040741
 31
0.0
  0
ARC
  5
AE
  8
0
 10
129.5
 20
119.5505047794388
 30
0.0
 40
2.0
 50
360.0
 51
78.584842257269216
  0
ARC
  5
AF
  8
0
 10
110.5
 20
119.5505047794388
 30
0.0
 40
2.0
 50
101.4151577427306
 51
180.0
  0
ARC
  5
B0
  8
0
 10
220.4494952205612
 20
233.5
 30
0.0
 40
2.0
 50
191.4151577427306
 51
270.0
  0
ARC
  5
B1
  8
0
 10
220.4494952205612
 20
252.5
 30
0.0
 40
2.0
 50
90.0
 51
168.5848422572692
  0
LINE
  5
B2
  8
0
 10
218.84046855959249
 20
252.08295106229221
 30
0.0
 11
218.84046855959249
 21
233.9170489377077
 31
0.0
  0
LINE
  5
B3
  8
0
 10
330.0
 20
218.5
 30
0.0
 11
330.0
 21
181.5
 31
0.0
  0
LINE
  5
B4
  8
0
 10
283.0
 20
146.5
 30
0.0
 11
283.0
 21
253.5
 31
0.0
  0
LINE
  5
B5
  8
1
 10
335.0
 20
200.0
 30
0.0
 11
278.0
 21
200.0
 31
0.0
  0
LINE
  5
B6
  8
0
 10
305.0
 20
146.5
 30
0.0
 11
305.0
 21
253.5
 31
0.0
  0
ARC
  5
B7
  8
0
 10
294.0
 20
146.5
 30
0.0
 40
11.0
 50
180.0
 51
360.0
  0
ARC
  5
B8
  8
0
 10
294.0
 20
253.5
 30
0.0
 40
10.99999999999998
 50
359.99999999999989
 51
180.0
  0
LINE
  5
B9
  8
0
 10
317.0
 20
224.84529946162081
 30
0.0
 11
317.0
 21
175.15470053837919
 31
0.0
  0
LINE
  5
BA
  8
0
 10
328.5
 20
180.0
 30
0.0
 11
317.0
 21
180.0
 31
0.0
  0
LINE
  5
BB
  8
0
 10
328.5
 20
220.0
 30
0.0
 11
317.0
 21
220.0
 31
0.0
  0
LINE
  5
BC
  8
0
 10
328.5
 20
180.0
 30
0.0
 11
330.0
 21
181.5
 31
0.0
  0
LINE
  5
BD
  8
0
 10
330.0
 20
218.5
 30
0.0
 11
328.5
 21
220.0
 31
0.0
  0
LINE
  5
BE
  8
0
 10
328.5
 20
180.0
 30
0.0
 11
328.5
 21
220.0
 31
0.0
  0
LINE
  5
BF
  8
0
 10
316.0
 20
173.42264973081041
 30
0.0
 11
305.0
 21
167.0717967697245
 31
0.0
  0
LINE
  5
C0
  8
0
 10
316.0
 20
226.57735026918959
 30
0.0
 11
305.0
 21
232.9282032302755
 31
0.0
  0
ARC
  5
C1
  8
0
 10
315.0
 20
175.15470053837919
 30
0.0
 40
2.0
 50
300.0
 51
359.99999999999989
  0
ARC
  5
C2
  8
0
 10
315.0
 20
224.84529946162081
 30
0.0
 40
2.0
 50
360.0
 51
59.999999999999922
  0
LINE
  5
C3
  8
1
 10
212.5
 20
243.0
 30
0.0
 11
305.0
 21
243.0
 31
0.0
  0
POLYLINE
  5
C4
  8
0
 66
     1
 10
0.0
 20
0.0
 30
0.0
  0
VERTEX
  5
C5
  8
0
 10
294.0
 20
188.31901596912209
 30
0.0
 42
0.0996670490439935
  0
VERTEX
  5
C6
  8
0
 10
290.17943895671658
 20
187.54980692543779
 30
0.0
 42
0.0989706205305048
  0
VERTEX
  5
C7
  8
0
 10
286.9289321881347
 20
185.351430190191
 30
0.0
 42
0.0980013847201777
 70
     2
 50
225.3755870677353
  0
VERTEX
  5
C8
  8
0
 10
284.57336794294491
 20
181.7831002168445
 30
0.0
 42
0.1154957332325018
  0
VERTEX
  5
C9
  8
0
 10
284.00000000000028
 20
178.18704435518981
 30
0.0
 42
0.0973268720747883
  0
SEQEND
  5
CA
  8
0
  0
POLYLINE
  5
CB
  8
0
 66
     1
 10
0.0
 20
0.0
 30
0.0
  0
VERTEX
  5
CC
  8
0
 10
303.99999999999977
 20
178.18704435518981
 30
0.0
 42
0.0973268720747809
  0
VERTEX
  5
CD
  8
0
 10
303.23681260602513
 20
182.07064849238731
 30
0.0
 42
0.0980013847201723
  0
VERTEX
  5
CE
  8
0
 10
301.0710678118653
 20
185.351430190191
 30
0.0
 42
0.0989706205305098
 70
     2
 50
134.62441293226451
  0
VERTEX
  5
CF
  8
0
 10
297.82056104328348
 20
187.54980692543779
 30
0.0
 42
0.0996670490440023
  0
VERTEX
  5
D0
  8
0
 10
294.0
 20
188.31901596912209
 30
0.0
 42
0.0996670490439935
  0
SEQEND
  5
D1
  8
0
  0
POLYLINE
  5
D2
  8
0
 66
     1
 10
0.0
 20
0.0
 30
0.0
  0
VERTEX
  5
D3
  8
0
 10
294.0
 20
163.40546903802181
 30
0.0
 42
0.1382189591156419
  0
VERTEX
  5
D4
  8
0
 10
297.60311625091128
 20
164.42090639695309
 30
0.0
 42
0.107058673674062
  0
VERTEX
  5
D5
  8
0
 10
301.07106781186548
 20
167.7348922118006
 30
0.0
 42
0.0805677333999104
 70
     2
 50
55.920945808675292
  0
VERTEX
  5
D6
  8
0
 10
303.42370979121478
 20
172.8109784355006
 30
0.0
 42
0.0834064190665777
  0
VERTEX
  5
D7
  8
0
 10
303.99999999999977
 20
178.18704435518981
 30
0.0
 42
0.0684102627165008
  0
SEQEND
  5
D8
  8
0
  0
POLYLINE
  5
D9
  8
0
 66
     1
 10
0.0
 20
0.0
 30
0.0
  0
VERTEX
  5
DA
  8
0
 10
284.0
 20
178.18704435518981
 30
0.0
 42
0.0684102627165013
  0
VERTEX
  5
DB
  8
0
 10
284.80762802224882
 20
172.311841423473
 30
0.0
 42
0.0805677333999139
  0
VERTEX
  5
DC
  8
0
 10
286.92893218813452
 20
167.7348922118006
 30
0.0
 42
0.1070586736740675
 70
     2
 50
304.07905419132447
  0
VERTEX
  5
DD
  8
0
 10
290.39688374908872
 20
164.4209063969532
 30
0.0
 42
0.1382189591156503
  0
VERTEX
  5
DE
  8
0
 10
294.0
 20
163.40546903802181
 30
0.0
 42
0.1382189591156419
  0
SEQEND
  5
DF
  8
0
  0
ARC
  5
E0
  8
0
 10
294.0
 20
146.56653397401041
 30
0.0
 40
9.9999999999999716
 50
207.48553802988189
 51
332.51446197011802
  0
ARC
  5
E1
  8
0
 10
294.0
 20
158.88606299969069
 30
0.0
 40
11.99999999999997
 50
250.56891845905281
 51
289.43108154094722
  0
ARC
  5
E2
  8
0
 10
299.32276412654687
 20
143.79738571991749
 30
0.0
 40
4.0
 50
332.51446197011802
 51
109.4310815409472
  0
ARC
  5
E3
  8
0
 10
288.67723587345318
 20
143.79738571991749
 30
0.0
 40
4.0
 50
70.568918459052639
 51
207.48553802988201
  0
ARC
  5
E4
  8
0
 10
288.67723587345318
 20
256.2026142800824
 30
0.0
 40
4.0
 50
152.51446197011799
 51
289.43108154094728
  0
ARC
  5
E5
  8
0
 10
299.32276412654687
 20
256.2026142800824
 30
0.0
 40
4.0
 50
250.5689184590527
 51
27.48553802988198
  0
ARC
  5
E6
  8
0
 10
294.0
 20
241.11393700030919
 30
0.0
 40
11.99999999999997
 50
70.568918459052753
 51
109.4310815409472
  0
ARC
  5
E7
  8
0
 10
294.0
 20
253.43346602598959
 30
0.0
 40
9.9999999999999716
 50
27.48553802988193
 51
152.51446197011799
  0
POLYLINE
  5
E8
  8
0
 66
     1
 10
0.0
 20
0.0
 30
0.0
  0
VERTEX
  5
E9
  8
0
 10
284.0
 20
221.81295564481019
 30
0.0
 42
-0.0684102627165013
  0
VERTEX
  5
EA
  8
0
 10
284.80762802224882
 20
227.688158576527
 30
0.0
 42
-0.0805677333999139
  0
VERTEX
  5
EB
  8
0
 10
286.92893218813452
 20
232.2651077881994
 30
0.0
 42
-0.1070586736740675
 70
     2
 50
55.920945808675448
  0
VERTEX
  5
EC
  8
0
 10
290.39688374908872
 20
235.5790936030468
 30
0.0
 42
-0.1382189591156503
  0
VERTEX
  5
ED
  8
0
 10
294.0
 20
236.59453096197819
 30
0.0
 42
-0.1382189591156419
  0
SEQEND
  5
EE
  8
0
  0
POLYLINE
  5
EF
  8
0
 66
     1
 10
0.0
 20
0.0
 30
0.0
  0
VERTEX
  5
F0
  8
0
 10
294.0
 20
236.59453096197819
 30
0.0
 42
-0.1382189591156419
  0
VERTEX
  5
F1
  8
0
 10
297.60311625091128
 20
235.5790936030468
 30
0.0
 42
-0.107058673674062
  0
VERTEX
  5
F2
  8
0
 10
301.07106781186548
 20
232.2651077881994
 30
0.0
 42
-0.0805677333999104
 70
     2
 50
304.0790541913247
  0
VERTEX
  5
F3
  8
0
 10
303.42370979121478
 20
227.1890215644994
 30
0.0
 42
-0.0834064190665777
  0
VERTEX
  5
F4
  8
0
 10
303.99999999999977
 20
221.81295564481019
 30
0.0
 42
-0.0684102627165008
  0
SEQEND
  5
F5
  8
0
  0
POLYLINE
  5
F6
  8
0
 66
     1
 10
0.0
 20
0.0
 30
0.0
  0
VERTEX
  5
F7
  8
0
 10
303.99999999999977
 20
221.81295564481019
 30
0.0
 42
-0.0973268720747809
  0
VERTEX
  5
F8
  8
0
 10
303.23681260602513
 20
217.92935150761269
 30
0.0
 42
-0.0980013847201723
  0
VERTEX
  5
F9
  8
0
 10
301.0710678118653
 20
214.648569809809
 30
0.0
 42
-0.0989706205305098
 70
     2
 50
225.37558706773549
  0
VERTEX
  5
FA
  8
0
 10
297.82056104328348
 20
212.45019307456221
 30
0.0
 42
-0.0996670490440023
  0
VERTEX
  5
FB
  8
0
 10
294.0
 20
211.68098403087791
 30
0.0
 42
-0.0996670490439935
  0
SEQEND
  5
FC
  8
0
  0
POLYLINE
  5
FD
  8
0
 66
     1
 10
0.0
 20
0.0
 30
0.0
  0
VERTEX
  5
FE
  8
0
 10
294.0
 20
211.68098403087791
 30
0.0
 42
-0.0996670490439935
  0
VERTEX
  5
FF
  8
0
 10
290.17943895671658
 20
212.45019307456209
 30
0.0
 42
-0.0989706205305048
  0
VERTEX
  5
100
  8
0
 10
286.9289321881347
 20
214.648569809809
 30
0.0
 42
-0.0980013847201777
 70
     2
 50
134.62441293226459
  0
VERTEX
  5
101
  8
0
 10
284.57336794294491
 20
218.2168997831555
 30
0.0
 42
-0.1154957332325018
  0
VERTEX
  5
102
  8
0
 10
284.00000000000028
 20
221.81295564481019
 30
0.0
 42
-0.0973268720747883
  0
SEQEND
  5
103
  8
0
  0
LINE
  5
104
  8
0
 10
282.5
 20
234.6143987885049
 30
0.0
 11
282.5
 21
251.38560121149499
 31
0.0
  0
LINE
  5
105
  8
0
 10
255.5
 20
231.5
 30
0.0
 11
255.5
 21
254.5
 31
0.0
  0
LINE
  5
106
  8
0
 10
220.4494952205612
 20
231.5
 30
0.0
 11
255.5
 21
231.5
 31
0.0
  0
LINE
  5
107
  8
0
 10
220.4494952205612
 20
254.5
 30
0.0
 11
255.5
 21
254.5
 31
0.0
  0
ARC
  5
108
  8
0
 10
267.5
 20
243.0
 30
0.0
 40
50.0
 50
168.58484225726949
 51
191.4151577427304
  0
LINE
  5
109
  8
0
 10
281.38864602261839
 20
233.41767748315689
 30
0.0
 11
255.5
 21
231.5
 31
0.0
  0
LINE
  5
10A
  8
0
 10
281.38864602261839
 20
252.58232251684311
 30
0.0
 11
255.5
 21
254.5
 31
0.0
  0
ARC
  5
10B
  8
0
 10
281.30000000000001
 20
234.6143987885049
 30
0.0
 40
1.1999999999999991
 50
274.2363947990587
 51
359.99999999999989
  0
ARC
  5
10C
  8
0
 10
281.30000000000001
 20
251.38560121149499
 30
0.0
 40
1.1999999999999991
 50
360.0
 51
85.763605200941015
  0
LINE
  5
10D
  8
0
 10
282.5
 20
237.0
 30
0.0
 11
283.0
 21
237.0
 31
0.0
  0
LINE
  5
10E
  8
0
 10
282.5
 20
249.0
 30
0.0
 11
283.0
 21
249.0
 31
0.0
  0
TEXT
  5
25C
  8
0
 62
     3
 10
0.0
 20
0.0
 30
0.0
 40
10.0
  1
SK130R
  7
STANDARD1
  0
ENDSEC
  0
EOF
