  0
SECTION
  2
HEADER
  9
$ACADVER
  1
AC1009
  9
$INSBASE
 10
0.0
 20
0.0
 30
0.0
  9
$EXTMIN
 10
0.0
 20
-1.4802182810368341
 30
0.0
  9
$EXTMAX
 10
275.80879159940849
 20
206.82733812949641
 30
0.0
  9
$LIMMIN
 10
0.0
 20
0.0
  9
$LIMMAX
 10
375.0
 20
270.0
  9
$ORTHOMODE
 70
     1
  9
$REGENMODE
 70
     1
  9
$FILLMODE
 70
     1
  9
$QTEXTMODE
 70
     0
  9
$MIRRTEXT
 70
     0
  9
$DRAGMODE
 70
     2
  9
$LTSCALE
 40
10.0
  9
$OSMODE
 70
    55
  9
$ATTMODE
 70
     1
  9
$TEXTSIZE
 40
0.2
  9
$TRACEWID
 40
0.05
  9
$TEXTSTYLE
  7
STANDARD
  9
$CLAYER
  8
0
  9
$CELTYPE
  6
BYLAYER
  9
$CECOLOR
 62
   256
  9
$DIMSCALE
 40
1.0
  9
$DIMASZ
 40
3.0
  9
$DIMEXO
 40
2.0
  9
$DIMDLI
 40
0.38
  9
$DIMRND
 40
0.0
  9
$DIMDLE
 40
0.0
  9
$DIMEXE
 40
2.0
  9
$DIMTP
 40
0.0
  9
$DIMTM
 40
0.0
  9
$DIMTXT
 40
3.2000000000000002
  9
$DIMCEN
 40
0.0
  9
$DIMTSZ
 40
0.0
  9
$DIMTOL
 70
     0
  9
$DIMLIM
 70
     0
  9
$DIMTIH
 70
     0
  9
$DIMTOH
 70
     0
  9
$DIMSE1
 70
     0
  9
$DIMSE2
 70
     0
  9
$DIMTAD
 70
     1
  9
$DIMZIN
 70
     0
  9
$DIMBLK
  1

  9
$DIMASO
 70
     0
  9
$DIMSHO
 70
     0
  9
$DIMPOST
  1

  9
$DIMAPOST
  1

  9
$DIMALT
 70
     0
  9
$DIMALTD
 70
     2
  9
$DIMALTF
 40
25.399999999999999
  9
$DIMLFAC
 40
1.0
  9
$DIMTOFL
 70
     1
  9
$DIMTVP
 40
1.6000000000000001
  9
$DIMTIX
 70
     1
  9
$DIMSOXD
 70
     0
  9
$DIMSAH
 70
     0
  9
$DIMBLK1
  1

  9
$DIMBLK2
  1

  9
$DIMSTYLE
  2
STANDARD
  9
$DIMCLRD
 70
     0
  9
$DIMCLRE
 70
     0
  9
$DIMCLRT
 70
     0
  9
$DIMTFAC
 40
1.0
  9
$DIMGAP
 40
0.09
  9
$LUNITS
 70
     2
  9
$LUPREC
 70
     4
  9
$SKETCHINC
 40
0.1
  9
$FILLETRAD
 40
1.5
  9
$AUNITS
 70
     0
  9
$AUPREC
 70
     4
  9
$MENU
  1
E:\r13\win\SUPPORT\ACAD
  9
$ELEVATION
 40
0.0
  9
$PELEVATION
 40
0.0
  9
$THICKNESS
 40
0.0
  9
$LIMCHECK
 70
     0
  9
$BLIPMODE
 70
     0
  9
$CHAMFERA
 40
0.0
  9
$CHAMFERB
 40
0.0
  9
$SKPOLY
 70
     0
  9
$TDCREATE
 40
2449840.648495371
  9
$TDUPDATE
 40
2456598.5019600699
  9
$TDINDWG
 40
0.0089217361
  9
$TDUSRTIMER
 40
0.0089217361
  9
$USRTIMER
 70
     1
  9
$ANGBASE
 50
0.0
  9
$ANGDIR
 70
     0
  9
$PDMODE
 70
     0
  9
$PDSIZE
 40
0.0
  9
$PLINEWID
 40
0.0
  9
$COORDS
 70
     1
  9
$SPLFRAME
 70
     0
  9
$SPLINETYPE
 70
     6
  9
$SPLINESEGS
 70
     8
  9
$ATTDIA
 70
     0
  9
$ATTREQ
 70
     1
  9
$HANDLING
 70
     1
  9
$HANDSEED
  5
510
  9
$SURFTAB1
 70
     6
  9
$SURFTAB2
 70
     6
  9
$SURFTYPE
 70
     6
  9
$SURFU
 70
     6
  9
$SURFV
 70
     6
  9
$UCSNAME
  2

  9
$UCSORG
 10
0.0
 20
0.0
 30
0.0
  9
$UCSXDIR
 10
1.0
 20
0.0
 30
0.0
  9
$UCSYDIR
 10
0.0
 20
1.0
 30
0.0
  9
$PUCSNAME
  2

  9
$PUCSORG
 10
0.0
 20
0.0
 30
0.0
  9
$PUCSXDIR
 10
1.0
 20
0.0
 30
0.0
  9
$PUCSYDIR
 10
0.0
 20
1.0
 30
0.0
  9
$USERI1
 70
     0
  9
$USERI2
 70
     1
  9
$USERI3
 70
     0
  9
$USERI4
 70
     0
  9
$USERI5
 70
     0
  9
$USERR1
 40
0.0
  9
$USERR2
 40
0.0
  9
$USERR3
 40
0.0
  9
$USERR4
 40
0.0
  9
$USERR5
 40
0.0
  9
$WORLDVIEW
 70
     1
  9
$SHADEDGE
 70
     3
  9
$SHADEDIF
 70
    70
  9
$TILEMODE
 70
     1
  9
$MAXACTVP
 70
    16
  9
$PLIMCHECK
 70
     0
  9
$PEXTMIN
 10
1.0000000000000000E+020
 20
1.0000000000000000E+020
 30
1.0000000000000000E+020
  9
$PEXTMAX
 10
-1.0000000000000000E+020
 20
-1.0000000000000000E+020
 30
-1.0000000000000000E+020
  9
$PLIMMIN
 10
0.0
 20
0.0
  9
$PLIMMAX
 10
12.0
 20
9.0
  9
$UNITMODE
 70
     0
  9
$VISRETAIN
 70
     0
  9
$PLINEGEN
 70
     0
  9
$PSLTSCALE
 70
     0
  0
ENDSEC
  0
SECTION
  2
TABLES
  0
TABLE
  2
VPORT
 70
     1
  0
VPORT
  2
*ACTIVE
 70
     0
 10
0.0
 20
0.0
 11
1.0
 21
1.0
 12
187.49427839065231
 22
175.433388831352
 13
0.0
 23
0.0
 14
10.0
 24
10.0
 15
10.0
 25
10.0
 16
0.0
 26
0.0
 36
1.0
 17
0.0
 27
0.0
 37
0.0
 40
356.9701552237488
 41
1.7807262569832401
 42
50.0
 43
0.0
 44
0.0
 50
0.0
 51
0.0
 71
     0
 72
   500
 73
     1
 74
     0
 75
     0
 76
     0
 77
     0
 78
     2
  0
ENDTAB
  0
TABLE
  2
LTYPE
 70
     3
  0
LTYPE
  2
CONTINUOUS
 70
     0
  3
Solid Line
 72
    65
 73
     0
 40
0.0
  0
LTYPE
  2
CENTER
 70
     0
  3
____ _ ____ _ ____ _ ____ _ ____ _ ____ _ ____
 72
    65
 73
     4
 40
2.0
 49
1.25
 49
-0.25
 49
0.25
 49
-0.25
  0
LTYPE
  2
PHANTOM2
 70
     0
  3
___ _ _ ___ _ _ ___ _ _ ___ _ _
 72
    65
 73
     6
 40
1.25
 49
0.625
 49
-0.125
 49
0.125
 49
-0.125
 49
0.125
 49
-0.125
  0
ENDTAB
  0
TABLE
  2
LAYER
 70
     3
  0
LAYER
  2
0
 70
     0
 62
     7
  6
CONTINUOUS
  0
LAYER
  2
1
 70
     0
 62
     1
  6
CENTER
  0
LAYER
  2
3
 70
     0
 62
     3
  6
CONTINUOUS
  0
ENDTAB
  0
TABLE
  2
STYLE
 70
     2
  0
STYLE
  2
STANDARD
 70
     0
 40
0.0
 41
1.0
 50
0.0
 71
     0
 42
0.2
  3
TXT
  4
BIGFONT
  0
STYLE
  2
STANDARD1
 70
     0
 40
0.0
 41
1.0
 50
0.0
 71
     0
 42
3.0
  3
txt
  4

  0
ENDTAB
  0
TABLE
  2
VIEW
 70
     1
  0
VIEW
  2
ALL
 70
     0
 40
270.0
 10
220.99159663865549
 20
135.0
 41
0.0
 11
0.0
 21
0.0
 31
1.0
 12
0.0
 22
0.0
 32
0.0
 42
0.0
 43
0.0
 44
0.0
 50
0.0
 71
     0
  0
ENDTAB
  0
TABLE
  2
UCS
 70
     0
  0
ENDTAB
  0
TABLE
  2
APPID
 70
     4
  0
APPID
  2
ACAD
 70
     0
  0
APPID
  2
CCLAB
 70
     0
  0
APPID
  2
ACAD_MLEADERVER
 70
     0
  0
APPID
  2
ACAD_NAV_VCDISPLAY
 70
     0
  0
ENDTAB
  0
TABLE
  2
DIMSTYLE
 70
     2
  0
DIMSTYLE
  2
STANDARD
 70
     0
  3

  4

  5

  6

  7

 40
1.0
 41
0.18
 42
0.0625
 43
0.38
 44
0.18
 45
0.0
 46
0.0
 47
0.0
 48
0.0
140
0.18
141
0.09
142
0.0
143
25.399999999999999
144
1.0
145
0.0
146
1.0
147
0.09
 71
     0
 72
     0
 73
     1
 74
     1
 75
     0
 76
     0
 77
     0
 78
     0
170
     0
171
     2
172
     0
173
     0
174
     0
175
     0
176
     0
177
     0
178
     0
  0
DIMSTYLE
  2
ISO-25
 70
     0
  3

  4

  5

  6

  7

 40
1.0
 41
2.5
 42
0.625
 43
3.75
 44
1.25
 45
0.0
 46
0.0
 47
0.0
 48
0.0
140
2.5
141
2.5
142
0.0
143
0.03937007874016
144
1.0
145
0.0
146
1.0
147
0.625
 71
     0
 72
     0
 73
     0
 74
     0
 75
     0
 76
     0
 77
     1
 78
     8
170
     0
171
     3
172
     1
173
     0
174
     0
175
     0
176
     0
177
     0
178
     0
  0
ENDTAB
  0
ENDSEC
  0
SECTION
  2
BLOCKS
  0
BLOCK
  8
0
  2
$MODEL_SPACE
 70
     0
 10
0.0
 20
0.0
 30
0.0
  3
$MODEL_SPACE
  1

  0
ENDBLK
  5
CF
  8
0
  0
BLOCK
 67
     1
  8
0
  2
$PAPER_SPACE
 70
     0
 10
0.0
 20
0.0
 30
0.0
  3
$PAPER_SPACE
  1

  0
ENDBLK
  5
CD
 67
     1
  8
0
  0
BLOCK
  8
0
  2
ITEM_0002607_STANDARD_FAST
 70
     0
 10
0.0
 20
0.0
 30
0.0
  3
ITEM_0002607_STANDARD_FAST
  1

  0
LINE
  5
F5
  8
0
 10
-17.5
 20
-6.1999998092651358
 30
0.0
 11
-17.5
 21
-2.5
 31
0.0
  0
LINE
  5
F6
  8
0
 10
-6.2220163345336914
 20
-3.001837730407714
 30
0.0
 11
-4.25
 21
-3.001837730407714
 31
0.0
  0
ARC
  5
F7
  8
0
 10
-6.222016280000001
 20
-4.001837679999996
 30
0.0
 40
0.9999999999999957
 50
90.000003124550403
 51
129.99999991496199
  0
LINE
  5
F8
  8
0
 10
-12.33359336853027
 20
-7.8246521949768058
 30
0.0
 11
-6.8648037910461417
 21
-3.2357933521270752
 31
0.0
  0
ARC
  5
F9
  8
0
 10
-13.5
 20
-6.2000000100000001
 30
0.0
 40
2.0000000028655882
 50
180.0
 51
305.67616801841223
  0
LINE
  5
FA
  8
0
 10
4.25
 20
-3.001837730407714
 30
0.0
 11
6.2220163345336914
 21
-3.001837730407714
 31
0.0
  0
LINE
  5
FB
  8
0
 10
4.25
 20
-5.001837730407714
 30
0.0
 11
4.25
 21
-3.001837730407714
 31
0.0
  0
LINE
  5
FC
  8
0
 10
5.4940757751464844
 20
-5.001837730407714
 30
0.0
 11
4.25
 21
-5.001837730407714
 31
0.0
  0
ARC
  5
FD
  8
0
 10
5.4940758099999973
 20
-6.0018376800000057
 30
0.0
 40
1.0000000000000051
 50
50.000012789064407
 51
90.000001996959298
  0
LINE
  5
FE
  8
0
 10
11.09592151641845
 20
-9.3969373703002912
 30
0.0
 11
6.1368632316589347
 21
-5.2357931137084961
 31
0.0
  0
ARC
  5
FF
  8
0
 10
6.2220162799999983
 20
-4.0018376800000057
 30
0.0
 40
0.9999999978122179
 50
50.00000008503816
 51
89.999996875449384
  0
LINE
  5
100
  8
0
 10
6.8648037910461417
 20
-3.2357933521270752
 30
0.0
 11
12.33359336853027
 21
-7.8246521949768058
 31
0.0
  0
ARC
  5
101
  8
0
 10
13.5
 20
-6.2000000099999966
 30
0.0
 40
2.0000000000000022
 50
234.3238319815878
 51
0.0
  0
LINE
  5
102
  8
0
 10
-4.25
 20
-3.001837730407714
 30
0.0
 11
-4.25
 21
-5.001837730407714
 31
0.0
  0
LINE
  5
103
  8
0
 10
-4.25
 20
-5.001837730407714
 30
0.0
 11
-5.4940757751464844
 21
-5.001837730407714
 31
0.0
  0
ARC
  5
104
  8
0
 10
-5.4940758099999956
 20
-6.0018376800000102
 30
0.0
 40
0.9999999978122216
 50
89.999998003040758
 51
129.9999872109355
  0
LINE
  5
105
  8
0
 10
-15.5
 20
-2.2000000476837149
 30
0.0
 11
-15.5
 21
-6.1999998092651358
 31
0.0
  0
ARC
  5
106
  8
0
 10
-15.0
 20
-2.5
 30
0.0
 40
2.5
 50
101.5369590340333
 51
180.0
  0
ARC
  5
107
  8
0
 10
-13.5
 20
-6.2000000000000073
 30
0.0
 40
3.999999999999996
 50
180.0
 51
306.94295500390001
  0
LINE
  5
108
  8
0
 10
-6.1368632316589347
 20
-5.2357931137084961
 30
0.0
 11
-11.09592151641845
 21
-9.3969373703002912
 31
0.0
  0
LINE
  5
109
  8
0
 10
15.5
 20
-0.0505102574825287
 30
0.0
 11
15.5
 21
-2.2000000476837149
 31
0.0
  0
LINE
  5
10A
  8
0
 10
14.999990463256831
 20
-0.0000025048620955
 30
0.0
 11
15.04762458801269
 21
-0.0004574688209686
 31
0.0
  0
LINE
  5
10B
  8
0
 10
15.04762458801269
 20
-0.0004574688209686
 30
0.0
 11
15.09290599822998
 21
-0.0017287820810452
 31
0.0
  0
LINE
  5
10C
  8
0
 10
15.09290599822998
 20
-0.0017287820810452
 30
0.0
 11
15.135665893554689
 21
-0.0036837907973677
 31
0.0
  0
LINE
  5
10D
  8
0
 10
15.135665893554689
 20
-0.0036837907973677
 30
0.0
 11
15.17642116546631
 21
-0.0062469770200551
 31
0.0
  0
LINE
  5
10E
  8
0
 10
15.17642116546631
 20
-0.0062469770200551
 30
0.0
 11
15.215560913085939
 21
-0.0093491934239864
 31
0.0
  0
LINE
  5
10F
  8
0
 10
15.215560913085939
 20
-0.0093491934239864
 30
0.0
 11
15.25288677215576
 21
-0.0128795383498073
 31
0.0
  0
LINE
  5
110
  8
0
 10
15.25288677215576
 20
-0.0128795383498073
 30
0.0
 11
15.2881965637207
 21
-0.0167271103709936
 31
0.0
  0
LINE
  5
111
  8
0
 10
15.2881965637207
 20
-0.0167271103709936
 30
0.0
 11
15.32129287719726
 21
-0.0207810066640377
 31
0.0
  0
LINE
  5
112
  8
0
 10
15.32129287719726
 20
-0.0207810066640377
 30
0.0
 11
15.351974487304689
 21
-0.0249303281307221
 31
0.0
  0
LINE
  5
113
  8
0
 10
15.351974487304689
 20
-0.0249303281307221
 30
0.0
 11
15.38004207611084
 21
-0.0290641691535711
 31
0.0
  0
LINE
  5
114
  8
0
 10
15.38004207611084
 20
-0.0290641691535711
 30
0.0
 11
15.405295372009279
 21
-0.0330716148018837
 31
0.0
  0
LINE
  5
115
  8
0
 10
15.405295372009279
 20
-0.0330716148018837
 30
0.0
 11
15.427571296691889
 21
-0.0368111245334149
 31
0.0
  0
LINE
  5
116
  8
0
 10
15.427571296691889
 20
-0.0368111245334149
 30
0.0
 11
15.44684505462646
 21
-0.0401901565492153
 31
0.0
  0
LINE
  5
117
  8
0
 10
15.44684505462646
 20
-0.0401901565492153
 30
0.0
 11
15.463127136230471
 21
-0.0431661382317543
 31
0.0
  0
LINE
  5
118
  8
0
 10
15.463127136230471
 20
-0.0431661382317543
 30
0.0
 11
15.47642803192139
 21
-0.0456964932382107
 31
0.0
  0
LINE
  5
119
  8
0
 10
15.47642803192139
 20
-0.0456964932382107
 30
0.0
 11
15.48675537109375
 21
-0.0477386564016342
 31
0.0
  0
LINE
  5
11A
  8
0
 10
15.48675537109375
 20
-0.0477386564016342
 30
0.0
 11
15.494119644165041
 21
-0.0492500551044941
 31
0.0
  0
LINE
  5
11B
  8
0
 10
15.494119644165041
 20
-0.0492500551044941
 30
0.0
 11
15.498531341552731
 21
-0.0501881092786789
 31
0.0
  0
LINE
  5
11C
  8
0
 10
15.498531341552731
 20
-0.0501881092786789
 30
0.0
 11
15.5
 21
-0.0505102574825287
 31
0.0
  0
LINE
  5
11D
  8
0
 10
14.25
 20
0.0
 30
0.0
 11
15.0
 21
0.0
 31
0.0
  0
LINE
  5
11E
  8
0
 10
14.25
 20
-2.2000000476837149
 30
0.0
 11
14.25
 21
0.0
 31
0.0
  0
LINE
  5
11F
  8
0
 10
14.25
 20
-2.2000000476837149
 30
0.0
 11
15.5
 21
-2.2000000476837149
 31
0.0
  0
LINE
  5
120
  8
0
 10
-15.5
 20
-0.0505102574825287
 30
0.0
 11
-15.5
 21
-2.2000000476837149
 31
0.0
  0
LINE
  5
121
  8
0
 10
-15.0
 20
0.0
 30
0.0
 11
-14.25
 21
0.0
 31
0.0
  0
LINE
  5
122
  8
0
 10
-15.5
 20
-0.0505102574825287
 30
0.0
 11
-15.498531341552731
 21
-0.050187710672617
 31
0.0
  0
LINE
  5
123
  8
0
 10
-15.498531341552731
 20
-0.050187710672617
 30
0.0
 11
-15.494119644165041
 21
-0.0492487475275993
 31
0.0
  0
LINE
  5
124
  8
0
 10
-15.494119644165041
 20
-0.0492487475275993
 30
0.0
 11
-15.48675537109375
 21
-0.0477364026010037
 31
0.0
  0
LINE
  5
125
  8
0
 10
-15.48675537109375
 20
-0.0477364026010037
 30
0.0
 11
-15.47642993927002
 21
-0.0456936918199062
 31
0.0
  0
LINE
  5
126
  8
0
 10
-15.47642993927002
 20
-0.0456936918199062
 30
0.0
 11
-15.463135719299309
 21
-0.0431636422872543
 31
0.0
  0
LINE
  5
127
  8
0
 10
-15.463135719299309
 20
-0.0431636422872543
 30
0.0
 11
-15.44686222076416
 21
-0.0401892811059952
 31
0.0
  0
LINE
  5
128
  8
0
 10
-15.44686222076416
 20
-0.0401892811059952
 30
0.0
 11
-15.42760181427002
 21
-0.036813635379076
 31
0.0
  0
LINE
  5
129
  8
0
 10
-15.42760181427002
 20
-0.036813635379076
 30
0.0
 11
-15.40534591674805
 21
-0.0330797247588635
 31
0.0
  0
LINE
  5
12A
  8
0
 10
-15.40534591674805
 20
-0.0330797247588635
 30
0.0
 11
-15.38011264801025
 21
-0.0290741324424744
 31
0.0
  0
LINE
  5
12B
  8
0
 10
-15.38011264801025
 20
-0.0290741324424744
 30
0.0
 11
-15.35205745697021
 21
-0.0249411892145872
 31
0.0
  0
LINE
  5
12C
  8
0
 10
-15.35205745697021
 20
-0.0249411892145872
 30
0.0
 11
-15.32137775421142
 21
-0.0207919459789992
 31
0.0
  0
LINE
  5
12D
  8
0
 10
-15.32137775421142
 20
-0.0207919459789992
 30
0.0
 11
-15.288271903991699
 21
-0.0167371686547995
 31
0.0
  0
LINE
  5
12E
  8
0
 10
-15.288271903991699
 20
-0.0167371686547995
 30
0.0
 11
-15.252939224243161
 21
-0.0128876268863678
 31
0.0
  0
LINE
  5
12F
  8
0
 10
-15.252939224243161
 20
-0.0128876268863678
 30
0.0
 11
-15.215576171875
 21
-0.0093540865927935
 31
0.0
  0
LINE
  5
130
  8
0
 10
-15.215576171875
 20
-0.0093540865927935
 30
0.0
 11
-15.17638111114502
 21
-0.0062473155558109
 31
0.0
  0
LINE
  5
131
  8
0
 10
-15.17638111114502
 20
-0.0062473155558109
 30
0.0
 11
-15.13555240631103
 21
-0.0036780820228159
 31
0.0
  0
LINE
  5
132
  8
0
 10
-15.13555240631103
 20
-0.0036780820228159
 30
0.0
 11
-15.09283924102783
 21
-0.0017260200111195
 31
0.0
  0
LINE
  5
133
  8
0
 10
-15.09283924102783
 20
-0.0017260200111195
 30
0.0
 11
-15.04760074615478
 21
-0.000456994283013
 31
0.0
  0
LINE
  5
134
  8
0
 10
-15.04760074615478
 20
-0.000456994283013
 30
0.0
 11
-15.0
 21
0.0
 31
0.0
  0
LINE
  5
135
  8
0
 10
-15.5
 20
-2.2000000476837149
 30
0.0
 11
-14.25
 21
-2.2000000476837149
 31
0.0
  0
LINE
  5
136
  8
0
 10
-14.25
 20
-2.2000000476837149
 30
0.0
 11
-14.25
 21
0.0
 31
0.0
  0
LINE
  5
137
  8
0
 10
17.5
 20
-2.5
 30
0.0
 11
17.5
 21
-6.1999998092651358
 31
0.0
  0
ARC
  5
138
  8
0
 10
14.999999999999989
 20
-2.5000000000000089
 30
0.0
 40
2.500000000000008
 50
0.0
 51
78.463040965966414
  0
LINE
  5
139
  8
0
 10
15.5
 20
-6.1999998092651358
 30
0.0
 11
15.5
 21
-2.2000000476837149
 31
0.0
  0
ARC
  5
13A
  8
0
 10
13.5
 20
-6.2000000000000011
 30
0.0
 40
4.0000000054706213
 50
233.0570449961001
 51
0.0
  0
LINE
  5
13B
  8
0
 10
14.25
 20
-2.2000000476837149
 30
0.0
 11
-14.25
 21
-2.2000000476837149
 31
0.0
  0
LINE
  5
13C
  8
0
 10
-14.25
 20
-0.0000000000000009
 30
0.0
 11
14.25
 21
-0.0000000000000009
 31
0.0
  0
LINE
  5
13D
  8
0
 10
7.0
 20
0.0
 30
0.0
 11
7.0
 21
0.4399999976158142
 31
0.0
  0
LINE
  5
13E
  8
0
 10
-7.0
 20
0.4399999976158142
 30
0.0
 11
7.0
 21
0.4399999976158142
 31
0.0
  0
LINE
  5
13F
  8
0
 10
-7.0
 20
0.4399999976158142
 30
0.0
 11
-7.0
 21
0.0
 31
0.0
  0
ARC
  5
140
  8
0
 10
3.0399999999999991
 20
0.4399999999999999
 30
0.0
 40
3.96
 50
0.0
 51
90.000000551934463
  0
LINE
  5
141
  8
0
 10
-3.0399999618530269
 20
4.4000000953674308
 30
0.0
 11
3.0399999618530269
 21
4.4000000953674308
 31
0.0
  0
ARC
  5
142
  8
0
 10
-3.0399999999999991
 20
0.4399999999999999
 30
0.0
 40
3.96
 50
89.999999448065552
 51
180.0
  0
LINE
  5
143
  8
0
 10
3.2332000732421871
 20
-20.0
 30
0.0
 11
4.0
 21
-19.233200073242191
 31
0.0
  0
LINE
  5
144
  8
0
 10
-4.0
 20
-19.233200073242191
 30
0.0
 11
-3.2332000732421871
 21
-20.0
 31
0.0
  0
LINE
  5
145
  8
0
 10
4.0
 20
-19.233200073242191
 30
0.0
 11
4.0
 21
-2.1999940872192378
 31
0.0
  0
LINE
  5
146
  8
0
 10
-4.0
 20
-2.1999940872192378
 30
0.0
 11
-4.0
 21
-19.233200073242191
 31
0.0
  0
LINE
  5
147
  8
0
 10
-4.0
 20
-19.233200073242191
 30
0.0
 11
4.0
 21
-19.233200073242191
 31
0.0
  0
LINE
  5
148
  8
0
 10
-3.2332000732421871
 20
-20.0
 30
0.0
 11
3.2332000732421871
 21
-20.0
 31
0.0
  0
LINE
  5
149
  8
0
 10
0.0
 20
4.3999999999999977
 30
0.0
 11
0.0
 21
-20.0
 31
0.0
  0
ENDBLK
  5
14B
  8
0
  0
BLOCK
  8
0
  2
ITEM_0002607_STANDARD_FAS0
 70
     0
 10
0.0
 20
0.0
 30
0.0
  3
ITEM_0002607_STANDARD_FAS0
  1

  0
LINE
  5
14E
  8
0
 10
4.0
 20
-2.5
 30
0.0
 11
4.0
 21
-0.0505102574825287
 31
0.0
  0
LINE
  5
14F
  8
0
 10
4.0
 20
-6.1999998092651358
 30
0.0
 11
4.0
 21
-2.5
 31
0.0
  0
LINE
  5
150
  8
0
 10
4.0
 20
-10.19999980926513
 30
0.0
 11
4.0
 21
-6.1999998092651358
 31
0.0
  0
LINE
  5
151
  8
0
 10
-7.25
 20
-0.0505102574825287
 30
0.0
 11
-4.0
 21
-0.0505102574825287
 31
0.0
  0
LINE
  5
152
  8
0
 10
-7.25
 20
-0.0505102574825287
 30
0.0
 11
-7.25
 21
-2.2000000476837149
 31
0.0
  0
LINE
  5
153
  8
0
 10
-4.0
 20
-2.2000000476837149
 30
0.0
 11
-7.25
 21
-2.2000000476837149
 31
0.0
  0
LINE
  5
154
  8
0
 10
-8.2499876022338867
 20
-0.0000025048620955
 30
0.0
 11
-8.2124090194702148
 21
-0.0004574688209686
 31
0.0
  0
LINE
  5
155
  8
0
 10
-8.2124090194702148
 20
-0.0004574688209686
 30
0.0
 11
-8.1730260848999023
 21
-0.0017287820810452
 31
0.0
  0
LINE
  5
156
  8
0
 10
-8.1730260848999023
 20
-0.0017287820810452
 30
0.0
 11
-8.1320972442626953
 21
-0.0036837907973677
 31
0.0
  0
LINE
  5
157
  8
0
 10
-8.1320972442626953
 20
-0.0036837907973677
 30
0.0
 11
-8.0890932083129883
 21
-0.0062469770200551
 31
0.0
  0
LINE
  5
158
  8
0
 10
-8.0890932083129883
 20
-0.0062469770200551
 30
0.0
 11
-8.0435495376586914
 21
-0.0093491934239864
 31
0.0
  0
LINE
  5
159
  8
0
 10
-8.0435495376586914
 20
-0.0093491934239864
 30
0.0
 11
-7.995652198791503
 21
-0.0128795383498073
 31
0.0
  0
LINE
  5
15A
  8
0
 10
-7.995652198791503
 20
-0.0128795383498073
 30
0.0
 11
-7.9455833435058594
 21
-0.0167271103709936
 31
0.0
  0
LINE
  5
15B
  8
0
 10
-7.9455833435058594
 20
-0.0167271103709936
 30
0.0
 11
-7.8935275077819824
 21
-0.0207810066640377
 31
0.0
  0
LINE
  5
15C
  8
0
 10
-7.8935275077819824
 20
-0.0207810066640377
 30
0.0
 11
-7.8396682739257813
 21
-0.0249303281307221
 31
0.0
  0
LINE
  5
15D
  8
0
 10
-7.8396682739257813
 20
-0.0249303281307221
 30
0.0
 11
-7.7841901779174796
 21
-0.0290641691535711
 31
0.0
  0
LINE
  5
15E
  8
0
 10
-7.7841901779174796
 20
-0.0290641691535711
 30
0.0
 11
-7.727275848388671
 21
-0.0330716148018837
 31
0.0
  0
LINE
  5
15F
  8
0
 10
-7.727275848388671
 20
-0.0330716148018837
 30
0.0
 11
-7.6691231727600089
 21
-0.0368111245334149
 31
0.0
  0
LINE
  5
160
  8
0
 10
-7.6691231727600089
 20
-0.0368111245334149
 30
0.0
 11
-7.6099891662597647
 21
-0.0401901565492153
 31
0.0
  0
LINE
  5
161
  8
0
 10
-7.6099891662597647
 20
-0.0401901565492153
 30
0.0
 11
-7.5501499176025391
 21
-0.0431661382317543
 31
0.0
  0
LINE
  5
162
  8
0
 10
-7.5501499176025391
 20
-0.0431661382317543
 30
0.0
 11
-7.489879608154296
 21
-0.0456964932382107
 31
0.0
  0
LINE
  5
163
  8
0
 10
-7.489879608154296
 20
-0.0456964932382107
 30
0.0
 11
-7.4294543266296378
 21
-0.0477386564016342
 31
0.0
  0
LINE
  5
164
  8
0
 10
-7.4294543266296378
 20
-0.0477386564016342
 30
0.0
 11
-7.3691492080688468
 21
-0.0492500551044941
 31
0.0
  0
LINE
  5
165
  8
0
 10
-7.3691492080688468
 20
-0.0492500551044941
 30
0.0
 11
-7.309239387512207
 21
-0.0501881092786789
 31
0.0
  0
LINE
  5
166
  8
0
 10
-7.309239387512207
 20
-0.0501881092786789
 30
0.0
 11
-7.25
 21
-0.0505102574825287
 31
0.0
  0
LINE
  5
167
  8
0
 10
-8.5
 20
0.0
 30
0.0
 11
-8.25
 21
0.0
 31
0.0
  0
LINE
  5
168
  8
0
 10
-8.5
 20
-2.2000000476837149
 30
0.0
 11
-8.5
 21
0.0
 31
0.0
  0
LINE
  5
169
  8
0
 10
-8.5
 20
-2.2000000476837149
 30
0.0
 11
-7.25
 21
-2.2000000476837149
 31
0.0
  0
LINE
  5
16A
  8
0
 10
-4.0
 20
-2.5
 30
0.0
 11
-4.0
 21
-6.1999998092651358
 31
0.0
  0
LINE
  5
16B
  8
0
 10
-4.0
 20
-2.5
 30
0.0
 11
-4.0
 21
-0.0505102574825287
 31
0.0
  0
LINE
  5
16C
  8
0
 10
-4.0
 20
-10.19999980926513
 30
0.0
 11
-4.0
 21
-6.1999998092651358
 31
0.0
  0
LINE
  5
16D
  8
0
 10
4.0
 20
-6.1999998092651358
 30
0.0
 11
-4.0
 21
-6.1999998092651358
 31
0.0
  0
LINE
  5
16E
  8
0
 10
7.25
 20
-2.2000000476837149
 30
0.0
 11
8.5
 21
-2.2000000476837149
 31
0.0
  0
LINE
  5
16F
  8
0
 10
7.25
 20
-2.2000000476837149
 30
0.0
 11
4.0
 21
-2.2000000476837149
 31
0.0
  0
LINE
  5
170
  8
0
 10
8.25
 20
0.0
 30
0.0
 11
8.5
 21
0.0
 31
0.0
  0
LINE
  5
171
  8
0
 10
7.25
 20
-0.0505102574825287
 30
0.0
 11
7.3092465400695801
 21
-0.050187710672617
 31
0.0
  0
LINE
  5
172
  8
0
 10
7.3092465400695801
 20
-0.050187710672617
 30
0.0
 11
7.3691511154174796
 21
-0.0492487475275993
 31
0.0
  0
LINE
  5
173
  8
0
 10
7.3691511154174796
 20
-0.0492487475275993
 30
0.0
 11
7.4294409751892081
 21
-0.0477364026010037
 31
0.0
  0
LINE
  5
174
  8
0
 10
7.4294409751892081
 20
-0.0477364026010037
 30
0.0
 11
7.489844799041748
 21
-0.0456936918199062
 31
0.0
  0
LINE
  5
175
  8
0
 10
7.489844799041748
 20
-0.0456936918199062
 30
0.0
 11
7.5500898361206046
 21
-0.0431636422872543
 31
0.0
  0
LINE
  5
176
  8
0
 10
7.5500898361206046
 20
-0.0431636422872543
 30
0.0
 11
7.6099042892456046
 21
-0.0401892811059952
 31
0.0
  0
LINE
  5
177
  8
0
 10
7.6099042892456046
 20
-0.0401892811059952
 30
0.0
 11
7.6690158843994141
 21
-0.036813635379076
 31
0.0
  0
LINE
  5
178
  8
0
 10
7.6690158843994141
 20
-0.036813635379076
 30
0.0
 11
7.7271523475646973
 21
-0.0330797247588635
 31
0.0
  0
LINE
  5
179
  8
0
 10
7.7271523475646973
 20
-0.0330797247588635
 30
0.0
 11
7.7840557098388672
 21
-0.0290741324424744
 31
0.0
  0
LINE
  5
17A
  8
0
 10
7.7840557098388672
 20
-0.0290741324424744
 30
0.0
 11
7.8395299911499023
 21
-0.0249411892145872
 31
0.0
  0
LINE
  5
17B
  8
0
 10
7.8395299911499023
 20
-0.0249411892145872
 30
0.0
 11
7.8933935165405273
 21
-0.0207919459789992
 31
0.0
  0
LINE
  5
17C
  8
0
 10
7.8933935165405273
 20
-0.0207919459789992
 30
0.0
 11
7.945465087890625
 21
-0.0167371686547995
 31
0.0
  0
LINE
  5
17D
  8
0
 10
7.945465087890625
 20
-0.0167371686547995
 30
0.0
 11
7.9955635070800781
 21
-0.0128876268863678
 31
0.0
  0
LINE
  5
17E
  8
0
 10
7.9955635070800781
 20
-0.0128876268863678
 30
0.0
 11
8.0435075759887695
 21
-0.0093540865927935
 31
0.0
  0
LINE
  5
17F
  8
0
 10
8.0435075759887695
 20
-0.0093540865927935
 30
0.0
 11
8.089116096496582
 21
-0.0062473155558109
 31
0.0
  0
LINE
  5
180
  8
0
 10
8.089116096496582
 20
-0.0062473155558109
 30
0.0
 11
8.1322088241577148
 21
-0.0036780820228159
 31
0.0
  0
LINE
  5
181
  8
0
 10
8.1322088241577148
 20
-0.0036780820228159
 30
0.0
 11
8.1730890274047852
 21
-0.0017260200111195
 31
0.0
  0
LINE
  5
182
  8
0
 10
8.1730890274047852
 20
-0.0017260200111195
 30
0.0
 11
8.2124300003051758
 21
-0.000456994283013
 31
0.0
  0
LINE
  5
183
  8
0
 10
8.2124300003051758
 20
-0.000456994283013
 30
0.0
 11
8.25
 21
-0.0000000000000004
 31
0.0
  0
LINE
  5
184
  8
0
 10
7.25
 20
-0.0505102574825287
 30
0.0
 11
7.25
 21
-2.2000000476837149
 31
0.0
  0
LINE
  5
185
  8
0
 10
8.5
 20
-2.2000000476837149
 30
0.0
 11
8.5
 21
0.0
 31
0.0
  0
LINE
  5
186
  8
0
 10
4.0
 20
-0.0505102574825287
 30
0.0
 11
7.25
 21
-0.0505102574825287
 31
0.0
  0
LINE
  5
187
  8
0
 10
8.25
 20
-0.0000000000000004
 30
0.0
 11
-8.25
 21
-0.0000000000000004
 31
0.0
  0
LINE
  5
188
  8
0
 10
4.0
 20
-2.5
 30
0.0
 11
-4.0
 21
-2.5
 31
0.0
  0
LINE
  5
189
  8
0
 10
-4.0
 20
-10.19999980926513
 30
0.0
 11
4.0
 21
-10.19999980926513
 31
0.0
  0
LINE
  5
18A
  8
0
 10
-7.0
 20
0.4399999976158142
 30
0.0
 11
0.0
 21
0.4399999976158142
 31
0.0
  0
LINE
  5
18B
  8
0
 10
0.0000000000000017
 20
0.4399999976158142
 30
0.0
 11
7.0
 21
0.4399999976158142
 31
0.0
  0
LINE
  5
18C
  8
0
 10
-3.0399999618530269
 20
4.4000000953674308
 30
0.0
 11
0.0
 21
4.4000000953674308
 31
0.0
  0
LINE
  5
18D
  8
0
 10
0.000000000000001
 20
-19.233200073242191
 30
0.0
 11
4.0
 21
-19.233200073242191
 31
0.0
  0
LINE
  5
18E
  8
0
 10
0.0000000000000008
 20
-20.0
 30
0.0
 11
3.2332000732421871
 21
-20.0
 31
0.0
  0
LINE
  5
18F
  8
0
 10
-4.0
 20
-19.233200073242191
 30
0.0
 11
0.0
 21
-19.233200073242191
 31
0.0
  0
LINE
  5
190
  8
0
 10
-3.2332000732421871
 20
-20.0
 30
0.0
 11
0.0
 21
-20.0
 31
0.0
  0
LINE
  5
191
  8
0
 10
0.0000000000000007
 20
4.4000000953674308
 30
0.0
 11
3.0399999618530269
 21
4.4000000953674308
 31
0.0
  0
LINE
  5
192
  8
0
 10
-7.0
 20
0.0
 30
0.0
 11
-7.0
 21
0.4399999976158142
 31
0.0
  0
LINE
  5
193
  8
0
 10
7.0
 20
0.0
 30
0.0
 11
7.0
 21
0.4399999976158142
 31
0.0
  0
ARC
  5
194
  8
0
 10
-3.0399999999999991
 20
0.4399999999999999
 30
0.0
 40
3.96
 50
89.999999448065552
 51
180.0
  0
LINE
  5
195
  8
0
 10
3.2332000732421871
 20
-20.0
 30
0.0
 11
4.0
 21
-19.233200073242191
 31
0.0
  0
LINE
  5
196
  8
0
 10
4.0
 20
-19.233200073242191
 30
0.0
 11
4.0
 21
-10.19999980926513
 31
0.0
  0
LINE
  5
197
  8
0
 10
-4.0
 20
-19.233200073242191
 30
0.0
 11
-4.0
 21
-2.2000000476837149
 31
0.0
  0
LINE
  5
198
  8
0
 10
-3.2332000732421871
 20
-20.0
 30
0.0
 11
-4.0
 21
-19.233200073242191
 31
0.0
  0
ARC
  5
199
  8
0
 10
3.0399999999999991
 20
0.4399999999999999
 30
0.0
 40
3.96
 50
0.0
 51
90.000000551934463
  0
LINE
  5
19A
  8
0
 10
0.0
 20
4.3999999999999977
 30
0.0
 11
0.0
 21
-20.0
 31
0.0
  0
ENDBLK
  5
19C
  8
0
  0
BLOCK
  8
0
  2
ITEM_0002607_STANDARD_FAS1
 70
     0
 10
0.0
 20
0.0
 30
0.0
  3
ITEM_0002607_STANDARD_FAS1
  1

  0
LINE
  5
2AF
  8
0
 10
-17.5
 20
4.0
 30
0.0
 11
-17.5
 21
-4.0
 31
0.0
  0
LINE
  5
2B0
  8
0
 10
-17.5
 20
4.0
 30
0.0
 11
-15.5
 21
4.0
 31
0.0
  0
LINE
  5
2B1
  8
0
 10
15.5
 20
4.0
 30
0.0
 11
17.5
 21
4.0
 31
0.0
  0
LINE
  5
2B2
  8
0
 10
-17.5
 20
-4.0
 30
0.0
 11
-15.5
 21
-4.0
 31
0.0
  0
LINE
  5
2B3
  8
0
 10
15.5
 20
-7.25
 30
0.0
 11
15.5
 21
-4.0
 31
0.0
  0
LINE
  5
2B4
  8
0
 10
14.999990463256831
 20
-8.2499876022338867
 30
0.0
 11
15.04762458801269
 21
-8.2124090194702148
 31
0.0
  0
LINE
  5
2B5
  8
0
 10
15.04762458801269
 20
-8.2124090194702148
 30
0.0
 11
15.09290599822998
 21
-8.1730260848999023
 31
0.0
  0
LINE
  5
2B6
  8
0
 10
15.09290599822998
 20
-8.1730260848999023
 30
0.0
 11
15.135665893554689
 21
-8.1320972442626953
 31
0.0
  0
LINE
  5
2B7
  8
0
 10
15.135665893554689
 20
-8.1320972442626953
 30
0.0
 11
15.17642116546631
 21
-8.0890932083129883
 31
0.0
  0
LINE
  5
2B8
  8
0
 10
15.17642116546631
 20
-8.0890932083129883
 30
0.0
 11
15.215560913085939
 21
-8.0435495376586914
 31
0.0
  0
LINE
  5
2B9
  8
0
 10
15.215560913085939
 20
-8.0435495376586914
 30
0.0
 11
15.25288677215576
 21
-7.995652198791503
 31
0.0
  0
LINE
  5
2BA
  8
0
 10
15.25288677215576
 20
-7.995652198791503
 30
0.0
 11
15.2881965637207
 21
-7.9455833435058594
 31
0.0
  0
LINE
  5
2BB
  8
0
 10
15.2881965637207
 20
-7.9455833435058594
 30
0.0
 11
15.32129287719726
 21
-7.8935275077819824
 31
0.0
  0
LINE
  5
2BC
  8
0
 10
15.32129287719726
 20
-7.8935275077819824
 30
0.0
 11
15.351974487304689
 21
-7.8396682739257813
 31
0.0
  0
LINE
  5
2BD
  8
0
 10
15.351974487304689
 20
-7.8396682739257813
 30
0.0
 11
15.38004207611084
 21
-7.7841901779174796
 31
0.0
  0
LINE
  5
2BE
  8
0
 10
15.38004207611084
 20
-7.7841901779174796
 30
0.0
 11
15.405295372009279
 21
-7.727275848388671
 31
0.0
  0
LINE
  5
2BF
  8
0
 10
15.405295372009279
 20
-7.727275848388671
 30
0.0
 11
15.427571296691889
 21
-7.6691231727600089
 31
0.0
  0
LINE
  5
2C0
  8
0
 10
15.427571296691889
 20
-7.6691231727600089
 30
0.0
 11
15.44684505462646
 21
-7.6099891662597647
 31
0.0
  0
LINE
  5
2C1
  8
0
 10
15.44684505462646
 20
-7.6099891662597647
 30
0.0
 11
15.463127136230471
 21
-7.5501499176025391
 31
0.0
  0
LINE
  5
2C2
  8
0
 10
15.463127136230471
 20
-7.5501499176025391
 30
0.0
 11
15.47642803192139
 21
-7.489879608154296
 31
0.0
  0
LINE
  5
2C3
  8
0
 10
15.47642803192139
 20
-7.489879608154296
 30
0.0
 11
15.48675537109375
 21
-7.4294543266296378
 31
0.0
  0
LINE
  5
2C4
  8
0
 10
15.48675537109375
 20
-7.4294543266296378
 30
0.0
 11
15.494119644165041
 21
-7.3691492080688468
 31
0.0
  0
LINE
  5
2C5
  8
0
 10
15.494119644165041
 20
-7.3691492080688468
 30
0.0
 11
15.498531341552731
 21
-7.309239387512207
 31
0.0
  0
LINE
  5
2C6
  8
0
 10
15.498531341552731
 20
-7.309239387512207
 30
0.0
 11
15.5
 21
-7.25
 31
0.0
  0
ARC
  5
2C7
  8
0
 10
14.25
 20
-7.2499999999999947
 30
0.0
 40
1.250000000000004
 50
270.00000000000023
 51
306.86989764584411
  0
LINE
  5
2C8
  8
0
 10
-15.5
 20
-4.0
 30
0.0
 11
-15.5
 21
-7.25
 31
0.0
  0
ARC
  5
2C9
  8
0
 10
-14.25
 20
-7.2499999999999947
 30
0.0
 40
1.250000000000004
 50
233.13010235415589
 51
269.99999999999977
  0
LINE
  5
2CA
  8
0
 10
-15.5
 20
-7.25
 30
0.0
 11
-15.498531341552731
 21
-7.3092465400695801
 31
0.0
  0
LINE
  5
2CB
  8
0
 10
-15.498531341552731
 20
-7.3092465400695801
 30
0.0
 11
-15.494119644165041
 21
-7.3691511154174796
 31
0.0
  0
LINE
  5
2CC
  8
0
 10
-15.494119644165041
 20
-7.3691511154174796
 30
0.0
 11
-15.48675537109375
 21
-7.4294409751892081
 31
0.0
  0
LINE
  5
2CD
  8
0
 10
-15.48675537109375
 20
-7.4294409751892081
 30
0.0
 11
-15.47642993927002
 21
-7.489844799041748
 31
0.0
  0
LINE
  5
2CE
  8
0
 10
-15.47642993927002
 20
-7.489844799041748
 30
0.0
 11
-15.463135719299309
 21
-7.5500898361206046
 31
0.0
  0
LINE
  5
2CF
  8
0
 10
-15.463135719299309
 20
-7.5500898361206046
 30
0.0
 11
-15.44686222076416
 21
-7.6099042892456046
 31
0.0
  0
LINE
  5
2D0
  8
0
 10
-15.44686222076416
 20
-7.6099042892456046
 30
0.0
 11
-15.42760181427002
 21
-7.6690158843994141
 31
0.0
  0
LINE
  5
2D1
  8
0
 10
-15.42760181427002
 20
-7.6690158843994141
 30
0.0
 11
-15.40534591674805
 21
-7.7271523475646973
 31
0.0
  0
LINE
  5
2D2
  8
0
 10
-15.40534591674805
 20
-7.7271523475646973
 30
0.0
 11
-15.38011264801025
 21
-7.7840557098388672
 31
0.0
  0
LINE
  5
2D3
  8
0
 10
-15.38011264801025
 20
-7.7840557098388672
 30
0.0
 11
-15.35205745697021
 21
-7.8395299911499023
 31
0.0
  0
LINE
  5
2D4
  8
0
 10
-15.35205745697021
 20
-7.8395299911499023
 30
0.0
 11
-15.32137775421142
 21
-7.8933935165405273
 31
0.0
  0
LINE
  5
2D5
  8
0
 10
-15.32137775421142
 20
-7.8933935165405273
 30
0.0
 11
-15.288271903991699
 21
-7.945465087890625
 31
0.0
  0
LINE
  5
2D6
  8
0
 10
-15.288271903991699
 20
-7.945465087890625
 30
0.0
 11
-15.252939224243161
 21
-7.9955635070800781
 31
0.0
  0
LINE
  5
2D7
  8
0
 10
-15.252939224243161
 20
-7.9955635070800781
 30
0.0
 11
-15.215576171875
 21
-8.0435075759887695
 31
0.0
  0
LINE
  5
2D8
  8
0
 10
-15.215576171875
 20
-8.0435075759887695
 30
0.0
 11
-15.17638111114502
 21
-8.089116096496582
 31
0.0
  0
LINE
  5
2D9
  8
0
 10
-15.17638111114502
 20
-8.089116096496582
 30
0.0
 11
-15.13555240631103
 21
-8.1322088241577148
 31
0.0
  0
LINE
  5
2DA
  8
0
 10
-15.13555240631103
 20
-8.1322088241577148
 30
0.0
 11
-15.09283924102783
 21
-8.1730890274047852
 31
0.0
  0
LINE
  5
2DB
  8
0
 10
-15.09283924102783
 20
-8.1730890274047852
 30
0.0
 11
-15.04760074615478
 21
-8.2124300003051758
 31
0.0
  0
LINE
  5
2DC
  8
0
 10
-15.04760074615478
 20
-8.2124300003051758
 30
0.0
 11
-15.0
 21
-8.25
 31
0.0
  0
LINE
  5
2DD
  8
0
 10
15.5
 20
-4.0
 30
0.0
 11
17.5
 21
-4.0
 31
0.0
  0
LINE
  5
2DE
  8
0
 10
-15.0
 20
8.25
 30
0.0
 11
-15.0
 21
-8.25
 31
0.0
  0
LINE
  5
2DF
  8
0
 10
-15.0
 20
8.25
 30
0.0
 11
-15.04760074615478
 21
8.2124300003051758
 31
0.0
  0
LINE
  5
2E0
  8
0
 10
-15.04760074615478
 20
8.2124300003051758
 30
0.0
 11
-15.09283924102783
 21
8.1730890274047852
 31
0.0
  0
LINE
  5
2E1
  8
0
 10
-15.09283924102783
 20
8.1730890274047852
 30
0.0
 11
-15.13555240631103
 21
8.1322088241577148
 31
0.0
  0
LINE
  5
2E2
  8
0
 10
-15.13555240631103
 20
8.1322088241577148
 30
0.0
 11
-15.17638111114502
 21
8.089116096496582
 31
0.0
  0
LINE
  5
2E3
  8
0
 10
-15.17638111114502
 20
8.089116096496582
 30
0.0
 11
-15.215576171875
 21
8.0435075759887695
 31
0.0
  0
LINE
  5
2E4
  8
0
 10
-15.215576171875
 20
8.0435075759887695
 30
0.0
 11
-15.252939224243161
 21
7.9955635070800781
 31
0.0
  0
LINE
  5
2E5
  8
0
 10
-15.252939224243161
 20
7.9955635070800781
 30
0.0
 11
-15.288271903991699
 21
7.945465087890625
 31
0.0
  0
LINE
  5
2E6
  8
0
 10
-15.288271903991699
 20
7.945465087890625
 30
0.0
 11
-15.32137775421142
 21
7.8933935165405273
 31
0.0
  0
LINE
  5
2E7
  8
0
 10
-15.32137775421142
 20
7.8933935165405273
 30
0.0
 11
-15.35205745697021
 21
7.8395299911499023
 31
0.0
  0
LINE
  5
2E8
  8
0
 10
-15.35205745697021
 20
7.8395299911499023
 30
0.0
 11
-15.38011264801025
 21
7.7840557098388672
 31
0.0
  0
LINE
  5
2E9
  8
0
 10
-15.38011264801025
 20
7.7840557098388672
 30
0.0
 11
-15.40534591674805
 21
7.7271523475646973
 31
0.0
  0
LINE
  5
2EA
  8
0
 10
-15.40534591674805
 20
7.7271523475646973
 30
0.0
 11
-15.42760181427002
 21
7.6690158843994141
 31
0.0
  0
LINE
  5
2EB
  8
0
 10
-15.42760181427002
 20
7.6690158843994141
 30
0.0
 11
-15.44686222076416
 21
7.6099042892456046
 31
0.0
  0
LINE
  5
2EC
  8
0
 10
-15.44686222076416
 20
7.6099042892456046
 30
0.0
 11
-15.463135719299309
 21
7.5500898361206046
 31
0.0
  0
LINE
  5
2ED
  8
0
 10
-15.463135719299309
 20
7.5500898361206046
 30
0.0
 11
-15.47642993927002
 21
7.489844799041748
 31
0.0
  0
LINE
  5
2EE
  8
0
 10
-15.47642993927002
 20
7.489844799041748
 30
0.0
 11
-15.48675537109375
 21
7.4294409751892081
 31
0.0
  0
LINE
  5
2EF
  8
0
 10
-15.48675537109375
 20
7.4294409751892081
 30
0.0
 11
-15.494119644165041
 21
7.3691511154174796
 31
0.0
  0
LINE
  5
2F0
  8
0
 10
-15.494119644165041
 20
7.3691511154174796
 30
0.0
 11
-15.498531341552731
 21
7.3092465400695801
 31
0.0
  0
LINE
  5
2F1
  8
0
 10
-15.498531341552731
 20
7.3092465400695801
 30
0.0
 11
-15.5
 21
7.25
 31
0.0
  0
LINE
  5
2F2
  8
0
 10
-15.5
 20
7.25
 30
0.0
 11
-15.5
 21
4.0
 31
0.0
  0
LINE
  5
2F3
  8
0
 10
-14.25
 20
-8.5
 30
0.0
 11
14.25
 21
-8.5
 31
0.0
  0
ARC
  5
2F4
  8
0
 10
-14.25
 20
7.2499999999999947
 30
0.0
 40
1.250000000000004
 50
90.000000000000171
 51
126.86989764584411
  0
ARC
  5
2F5
  8
0
 10
14.25
 20
7.2499999999999947
 30
0.0
 40
1.250000000000002
 50
53.130102354155873
 51
89.999999999999844
  0
LINE
  5
2F6
  8
0
 10
15.5
 20
7.25
 30
0.0
 11
15.498531341552731
 21
7.3092465400695801
 31
0.0
  0
LINE
  5
2F7
  8
0
 10
15.498531341552731
 20
7.3092465400695801
 30
0.0
 11
15.494119644165041
 21
7.3691511154174796
 31
0.0
  0
LINE
  5
2F8
  8
0
 10
15.494119644165041
 20
7.3691511154174796
 30
0.0
 11
15.48675537109375
 21
7.4294409751892081
 31
0.0
  0
LINE
  5
2F9
  8
0
 10
15.48675537109375
 20
7.4294409751892081
 30
0.0
 11
15.47642993927002
 21
7.489844799041748
 31
0.0
  0
LINE
  5
2FA
  8
0
 10
15.47642993927002
 20
7.489844799041748
 30
0.0
 11
15.463135719299309
 21
7.5500898361206046
 31
0.0
  0
LINE
  5
2FB
  8
0
 10
15.463135719299309
 20
7.5500898361206046
 30
0.0
 11
15.44686222076416
 21
7.6099042892456046
 31
0.0
  0
LINE
  5
2FC
  8
0
 10
15.44686222076416
 20
7.6099042892456046
 30
0.0
 11
15.42760181427002
 21
7.6690158843994141
 31
0.0
  0
LINE
  5
2FD
  8
0
 10
15.42760181427002
 20
7.6690158843994141
 30
0.0
 11
15.40534591674805
 21
7.7271523475646973
 31
0.0
  0
LINE
  5
2FE
  8
0
 10
15.40534591674805
 20
7.7271523475646973
 30
0.0
 11
15.38011264801025
 21
7.7840557098388672
 31
0.0
  0
LINE
  5
2FF
  8
0
 10
15.38011264801025
 20
7.7840557098388672
 30
0.0
 11
15.35205745697021
 21
7.8395299911499023
 31
0.0
  0
LINE
  5
300
  8
0
 10
15.35205745697021
 20
7.8395299911499023
 30
0.0
 11
15.32137775421142
 21
7.8933935165405273
 31
0.0
  0
LINE
  5
301
  8
0
 10
15.32137775421142
 20
7.8933935165405273
 30
0.0
 11
15.288271903991699
 21
7.945465087890625
 31
0.0
  0
LINE
  5
302
  8
0
 10
15.288271903991699
 20
7.945465087890625
 30
0.0
 11
15.252939224243161
 21
7.9955635070800781
 31
0.0
  0
LINE
  5
303
  8
0
 10
15.252939224243161
 20
7.9955635070800781
 30
0.0
 11
15.215576171875
 21
8.0435075759887695
 31
0.0
  0
LINE
  5
304
  8
0
 10
15.215576171875
 20
8.0435075759887695
 30
0.0
 11
15.17638111114502
 21
8.089116096496582
 31
0.0
  0
LINE
  5
305
  8
0
 10
15.17638111114502
 20
8.089116096496582
 30
0.0
 11
15.13555240631103
 21
8.1322088241577148
 31
0.0
  0
LINE
  5
306
  8
0
 10
15.13555240631103
 20
8.1322088241577148
 30
0.0
 11
15.09283924102783
 21
8.1730890274047852
 31
0.0
  0
LINE
  5
307
  8
0
 10
15.09283924102783
 20
8.1730890274047852
 30
0.0
 11
15.04760074615478
 21
8.2124300003051758
 31
0.0
  0
LINE
  5
308
  8
0
 10
15.04760074615478
 20
8.2124300003051758
 30
0.0
 11
15.0
 21
8.25
 31
0.0
  0
LINE
  5
309
  8
0
 10
15.5
 20
4.0
 30
0.0
 11
15.5
 21
7.25
 31
0.0
  0
LINE
  5
30A
  8
0
 10
14.25
 20
8.5
 30
0.0
 11
-14.25
 21
8.5
 31
0.0
  0
LINE
  5
30B
  8
0
 10
15.0
 20
8.25
 30
0.0
 11
15.0
 21
-8.25
 31
0.0
  0
LINE
  5
30C
  8
0
 10
17.5
 20
4.0
 30
0.0
 11
17.5
 21
-4.0
 31
0.0
  0
ARC
  5
30D
  8
0
 10
0.0
 20
0.0
 30
0.0
 40
7.0
 50
180.0
 51
0.0
  0
ARC
  5
30E
  8
0
 10
0.0
 20
0.0
 30
0.0
 40
7.0
 50
0.0
 51
180.0
  0
ARC
  5
30F
  8
0
 10
0.0
 20
0.0
 30
0.0
 40
3.04
 50
180.0
 51
0.0
  0
LINE
  5
310
  8
0
 10
-2.5
 20
-1.443375706672668
 30
0.0
 11
-2.5
 21
1.443375706672668
 31
0.0
  0
LINE
  5
311
  8
0
 10
0.0
 20
-2.886751413345336
 30
0.0
 11
-2.5
 21
-1.443375706672668
 31
0.0
  0
LINE
  5
312
  8
0
 10
2.5
 20
-1.443375706672668
 30
0.0
 11
0.0
 21
-2.886751413345336
 31
0.0
  0
LINE
  5
313
  8
0
 10
2.5
 20
1.443375706672668
 30
0.0
 11
2.5
 21
-1.443375706672668
 31
0.0
  0
LINE
  5
314
  8
0
 10
0.0
 20
2.886751413345336
 30
0.0
 11
2.5
 21
1.443375706672668
 31
0.0
  0
LINE
  5
315
  8
0
 10
-2.5
 20
1.443375706672668
 30
0.0
 11
-0.0000000000000001
 21
2.886751413345336
 31
0.0
  0
ARC
  5
316
  8
0
 10
0.0
 20
0.0
 30
0.0
 40
3.04
 50
0.0
 51
180.0
  0
LINE
  5
317
  8
0
 10
0.0
 20
8.5
 30
0.0
 11
0.0
 21
-8.5
 31
0.0
  0
LINE
  5
318
  8
0
 10
-17.5
 20
0.0
 30
0.0
 11
17.5
 21
0.0
 31
0.0
  0
ENDBLK
  5
31A
  8
0
  0
ENDSEC
  0
SECTION
  2
ENTITIES
  0
LINE
  5
3D
  8
1
 10
187.5
 20
206.82733812949641
 30
0.0
 11
187.5
 21
169.82733812949641
 31
0.0
  0
LINE
  5
3E
  8
1
 10
159.5
 20
188.32733812949641
 30
0.0
 11
215.5
 21
188.32733812949641
 31
0.0
  0
LINE
  5
56
  8
1
 10
187.5
 20
135.74860554771701
 30
0.0
 11
187.5
 21
89.748605547717005
 31
0.0
  0
LINE
  5
79
  8
1
 10
267.30879159940849
 20
135.74860554771701
 30
0.0
 11
267.30879159940849
 21
89.748605547717005
 31
0.0
  0
LINE
  5
93
  8
1
 10
107.69120840059151
 20
135.74860554771701
 30
0.0
 11
107.69120840059151
 21
89.748605547717005
 31
0.0
  0
LINE
  5
1FF
  8
0
 10
271.30879159940849
 20
119.7088628909309
 30
0.0
 11
271.30879159940849
 21
122.1583526334483
 31
0.0
  0
LINE
  5
200
  8
0
 10
271.30879159940849
 20
116.00886308166569
 30
0.0
 11
271.30879159940849
 21
119.7088628909309
 31
0.0
  0
LINE
  5
201
  8
0
 10
271.30879159940849
 20
112.00886308166569
 30
0.0
 11
271.30879159940849
 21
116.00886308166569
 31
0.0
  0
LINE
  5
202
  8
0
 10
260.05879159940849
 20
122.1583526334483
 30
0.0
 11
263.30879159940849
 21
122.1583526334483
 31
0.0
  0
LINE
  5
203
  8
0
 10
260.05879159940849
 20
122.1583526334483
 30
0.0
 11
260.05879159940849
 21
120.0088628432471
 31
0.0
  0
LINE
  5
204
  8
0
 10
263.30879159940849
 20
120.0088628432471
 30
0.0
 11
260.05879159940849
 21
120.0088628432471
 31
0.0
  0
LINE
  5
205
  8
0
 10
259.05880399717461
 20
122.20886038606869
 30
0.0
 11
259.09638257993828
 21
122.20840542210991
 31
0.0
  0
LINE
  5
206
  8
0
 10
259.09638257993828
 20
122.20840542210991
 30
0.0
 11
259.13576551450859
 21
122.2071341088498
 31
0.0
  0
LINE
  5
207
  8
0
 10
259.13576551450859
 20
122.2071341088498
 30
0.0
 11
259.1766943551458
 21
122.20517910013351
 31
0.0
  0
LINE
  5
208
  8
0
 10
259.1766943551458
 20
122.20517910013351
 30
0.0
 11
259.21969839109551
 21
122.2026159139108
 31
0.0
  0
LINE
  5
209
  8
0
 10
259.21969839109551
 20
122.2026159139108
 30
0.0
 11
259.2652420617498
 21
122.1995136975069
 31
0.0
  0
LINE
  5
20A
  8
0
 10
259.2652420617498
 20
122.1995136975069
 30
0.0
 11
259.31313940061699
 21
122.195983352581
 31
0.0
  0
LINE
  5
20B
  8
0
 10
259.31313940061699
 20
122.195983352581
 30
0.0
 11
259.36320825590258
 21
122.19213578055979
 31
0.0
  0
LINE
  5
20C
  8
0
 10
259.36320825590258
 20
122.19213578055979
 30
0.0
 11
259.41526409162651
 21
122.18808188426679
 31
0.0
  0
LINE
  5
20D
  8
0
 10
259.41526409162651
 20
122.18808188426679
 30
0.0
 11
259.46912332548271
 21
122.18393256280009
 31
0.0
  0
LINE
  5
20E
  8
0
 10
259.46912332548271
 20
122.18393256280009
 30
0.0
 11
259.52460142149101
 21
122.1797987217773
 31
0.0
  0
LINE
  5
20F
  8
0
 10
259.52460142149101
 20
122.1797987217773
 30
0.0
 11
259.58151575101982
 21
122.175791276129
 31
0.0
  0
LINE
  5
210
  8
0
 10
259.58151575101982
 20
122.175791276129
 30
0.0
 11
259.63966842664848
 21
122.1720517663974
 31
0.0
  0
LINE
  5
211
  8
0
 10
259.63966842664848
 20
122.1720517663974
 30
0.0
 11
259.69880243314873
 21
122.1686727343816
 31
0.0
  0
LINE
  5
212
  8
0
 10
259.69880243314873
 20
122.1686727343816
 30
0.0
 11
259.75864168180601
 21
122.16569675269911
 31
0.0
  0
LINE
  5
213
  8
0
 10
259.75864168180601
 20
122.16569675269911
 30
0.0
 11
259.8189119912542
 21
122.16316639769261
 31
0.0
  0
LINE
  5
214
  8
0
 10
259.8189119912542
 20
122.16316639769261
 30
0.0
 11
259.87933727277891
 21
122.1611242345292
 31
0.0
  0
LINE
  5
215
  8
0
 10
259.87933727277891
 20
122.1611242345292
 30
0.0
 11
259.93964239133959
 21
122.15961283582639
 31
0.0
  0
LINE
  5
216
  8
0
 10
259.93964239133959
 20
122.15961283582639
 30
0.0
 11
259.99955221189629
 21
122.15867478165219
 31
0.0
  0
LINE
  5
217
  8
0
 10
259.99955221189629
 20
122.15867478165219
 30
0.0
 11
260.05879159940849
 21
122.1583526334483
 31
0.0
  0
LINE
  5
218
  8
0
 10
258.80879159940849
 20
122.2088628909308
 30
0.0
 11
259.05879159940849
 21
122.2088628909308
 31
0.0
  0
LINE
  5
219
  8
0
 10
258.80879159940849
 20
120.0088628432471
 30
0.0
 11
258.80879159940849
 21
122.2088628909308
 31
0.0
  0
LINE
  5
21A
  8
0
 10
258.80879159940849
 20
120.0088628432471
 30
0.0
 11
260.05879159940849
 21
120.0088628432471
 31
0.0
  0
LINE
  5
21B
  8
0
 10
263.30879159940849
 20
119.7088628909309
 30
0.0
 11
263.30879159940849
 21
116.00886308166569
 31
0.0
  0
LINE
  5
21C
  8
0
 10
263.30879159940849
 20
119.7088628909309
 30
0.0
 11
263.30879159940849
 21
122.1583526334483
 31
0.0
  0
LINE
  5
21D
  8
0
 10
263.30879159940849
 20
112.00886308166569
 30
0.0
 11
263.30879159940849
 21
116.00886308166569
 31
0.0
  0
LINE
  5
21E
  8
0
 10
271.30879159940849
 20
116.00886308166569
 30
0.0
 11
263.30879159940849
 21
116.00886308166569
 31
0.0
  0
LINE
  5
21F
  8
0
 10
274.55879159940849
 20
120.0088628432471
 30
0.0
 11
275.80879159940849
 21
120.0088628432471
 31
0.0
  0
LINE
  5
220
  8
0
 10
274.55879159940849
 20
120.0088628432471
 30
0.0
 11
271.30879159940849
 21
120.0088628432471
 31
0.0
  0
LINE
  5
221
  8
0
 10
275.55879159940849
 20
122.2088628909308
 30
0.0
 11
275.80879159940849
 21
122.2088628909308
 31
0.0
  0
LINE
  5
222
  8
0
 10
274.55879159940849
 20
122.1583526334483
 30
0.0
 11
274.61803813947807
 21
122.1586751802582
 31
0.0
  0
LINE
  5
223
  8
0
 10
274.61803813947807
 20
122.1586751802582
 30
0.0
 11
274.67794271482597
 21
122.1596141434033
 31
0.0
  0
LINE
  5
224
  8
0
 10
274.67794271482597
 20
122.1596141434033
 30
0.0
 11
274.7382325745977
 21
122.1611264883298
 31
0.0
  0
LINE
  5
225
  8
0
 10
274.7382325745977
 20
122.1611264883298
 30
0.0
 11
274.7986363984503
 21
122.1631691991109
 31
0.0
  0
LINE
  5
226
  8
0
 10
274.7986363984503
 20
122.1631691991109
 30
0.0
 11
274.8588814355291
 21
122.16569924864361
 31
0.0
  0
LINE
  5
227
  8
0
 10
274.8588814355291
 20
122.16569924864361
 30
0.0
 11
274.9186958886541
 21
122.16867360982491
 31
0.0
  0
LINE
  5
228
  8
0
 10
274.9186958886541
 20
122.16867360982491
 30
0.0
 11
274.97780748380791
 21
122.1720492555518
 31
0.0
  0
LINE
  5
229
  8
0
 10
274.97780748380791
 20
122.1720492555518
 30
0.0
 11
275.03594394697319
 21
122.175783166172
 31
0.0
  0
LINE
  5
22A
  8
0
 10
275.03594394697319
 20
122.175783166172
 30
0.0
 11
275.09284730924742
 21
122.1797887584884
 31
0.0
  0
LINE
  5
22B
  8
0
 10
275.09284730924742
 20
122.1797887584884
 30
0.0
 11
275.1483215905584
 21
122.1839217017163
 31
0.0
  0
LINE
  5
22C
  8
0
 10
275.1483215905584
 20
122.1839217017163
 30
0.0
 11
275.20218511594902
 21
122.1880709449518
 31
0.0
  0
LINE
  5
22D
  8
0
 10
275.20218511594902
 20
122.1880709449518
 30
0.0
 11
275.25425668729912
 21
122.192125722276
 31
0.0
  0
LINE
  5
22E
  8
0
 10
275.25425668729912
 20
122.192125722276
 30
0.0
 11
275.30435510648857
 21
122.19597526404451
 31
0.0
  0
LINE
  5
22F
  8
0
 10
275.30435510648857
 20
122.19597526404451
 30
0.0
 11
275.35229917539721
 21
122.199508804338
 31
0.0
  0
LINE
  5
230
  8
0
 10
275.35229917539721
 20
122.199508804338
 30
0.0
 11
275.39790769590508
 21
122.20261557537501
 31
0.0
  0
LINE
  5
231
  8
0
 10
275.39790769590508
 20
122.20261557537501
 30
0.0
 11
275.44100042356621
 21
122.205184808908
 31
0.0
  0
LINE
  5
232
  8
0
 10
275.44100042356621
 20
122.205184808908
 30
0.0
 11
275.48188062681328
 21
122.2071368709197
 31
0.0
  0
LINE
  5
233
  8
0
 10
275.48188062681328
 20
122.2071368709197
 30
0.0
 11
275.52122159971373
 21
122.2084058966478
 31
0.0
  0
LINE
  5
234
  8
0
 10
275.52122159971373
 20
122.2084058966478
 30
0.0
 11
275.55879159940849
 21
122.2088628909308
 31
0.0
  0
LINE
  5
235
  8
0
 10
274.55879159940849
 20
122.1583526334483
 30
0.0
 11
274.55879159940849
 21
120.0088628432471
 31
0.0
  0
LINE
  5
236
  8
0
 10
275.80879159940849
 20
120.0088628432471
 30
0.0
 11
275.80879159940849
 21
122.2088628909308
 31
0.0
  0
LINE
  5
237
  8
0
 10
271.30879159940849
 20
122.1583526334483
 30
0.0
 11
274.55879159940849
 21
122.1583526334483
 31
0.0
  0
LINE
  5
238
  8
0
 10
275.55879159940849
 20
122.2088628909308
 30
0.0
 11
259.05879159940849
 21
122.2088628909308
 31
0.0
  0
LINE
  5
239
  8
0
 10
271.30879159940849
 20
119.7088628909309
 30
0.0
 11
263.30879159940849
 21
119.7088628909309
 31
0.0
  0
LINE
  5
23A
  8
0
 10
263.30879159940849
 20
112.00886308166569
 30
0.0
 11
271.30879159940849
 21
112.00886308166569
 31
0.0
  0
LINE
  5
23B
  8
0
 10
260.30879159940849
 20
122.6488628885467
 30
0.0
 11
267.30879159940849
 21
122.6488628885467
 31
0.0
  0
LINE
  5
23C
  8
0
 10
267.30879159940849
 20
122.6488628885467
 30
0.0
 11
274.30879159940849
 21
122.6488628885467
 31
0.0
  0
LINE
  5
23D
  8
0
 10
264.26879163755552
 20
126.60886298629831
 30
0.0
 11
267.30879159940849
 21
126.60886298629831
 31
0.0
  0
LINE
  5
23E
  8
0
 10
267.30879159940849
 20
102.9756628176887
 30
0.0
 11
271.30879159940849
 21
102.9756628176887
 31
0.0
  0
LINE
  5
23F
  8
0
 10
267.30879159940849
 20
102.2088628909308
 30
0.0
 11
270.54199167265068
 21
102.2088628909308
 31
0.0
  0
LINE
  5
240
  8
0
 10
263.30879159940849
 20
102.9756628176887
 30
0.0
 11
267.30879159940849
 21
102.9756628176887
 31
0.0
  0
LINE
  5
241
  8
0
 10
264.07559152616631
 20
102.2088628909308
 30
0.0
 11
267.30879159940849
 21
102.2088628909308
 31
0.0
  0
LINE
  5
242
  8
0
 10
267.30879159940849
 20
126.60886298629831
 30
0.0
 11
270.34879156126152
 21
126.60886298629831
 31
0.0
  0
LINE
  5
243
  8
0
 10
260.30879159940849
 20
122.2088628909308
 30
0.0
 11
260.30879159940849
 21
122.6488628885467
 31
0.0
  0
LINE
  5
244
  8
0
 10
274.30879159940849
 20
122.2088628909308
 30
0.0
 11
274.30879159940849
 21
122.6488628885467
 31
0.0
  0
ARC
  5
245
  8
0
 10
264.26879159940847
 20
122.6488628909308
 30
0.0
 40
3.96
 50
89.999999448064955
 51
180.0
  0
LINE
  5
246
  8
0
 10
270.54199167265068
 20
102.2088628909308
 30
0.0
 11
271.30879159940849
 21
102.9756628176887
 31
0.0
  0
LINE
  5
247
  8
0
 10
271.30879159940849
 20
102.9756628176887
 30
0.0
 11
271.30879159940849
 21
112.00886308166569
 31
0.0
  0
LINE
  5
248
  8
0
 10
263.30879159940849
 20
102.9756628176887
 30
0.0
 11
263.30879159940849
 21
120.0088628432471
 31
0.0
  0
LINE
  5
249
  8
0
 10
264.07559152616631
 20
102.2088628909308
 30
0.0
 11
263.30879159940849
 21
102.9756628176887
 31
0.0
  0
ARC
  5
24A
  8
0
 10
270.34879159940851
 20
122.6488628909308
 30
0.0
 40
3.96
 50
0.0
 51
90.000000551935031
  0
LINE
  5
24C
  8
0
 10
170.0
 20
116.00886308166569
 30
0.0
 11
170.0
 21
119.7088628909309
 31
0.0
  0
LINE
  5
24D
  8
0
 10
181.27798366546631
 20
119.2070251605231
 30
0.0
 11
183.25
 21
119.2070251605231
 31
0.0
  0
ARC
  5
24E
  8
0
 10
181.27798372000001
 20
118.20702521093079
 30
0.0
 40
0.9999999999999957
 50
90.000003124550844
 51
129.9999999149621
  0
LINE
  5
24F
  8
0
 10
175.1664066314697
 20
114.3842106959541
 30
0.0
 11
180.6351962089538
 21
118.9730695388038
 31
0.0
  0
ARC
  5
250
  8
0
 10
174.0
 20
116.00886288093091
 30
0.0
 40
2.0000000028655882
 50
180.0
 51
305.67616801841262
  0
LINE
  5
251
  8
0
 10
191.75
 20
119.2070251605231
 30
0.0
 11
193.72201633453369
 21
119.2070251605231
 31
0.0
  0
LINE
  5
252
  8
0
 10
191.75
 20
117.2070251605231
 30
0.0
 11
191.75
 21
119.2070251605231
 31
0.0
  0
LINE
  5
253
  8
0
 10
192.99407577514651
 20
117.2070251605231
 30
0.0
 11
191.75
 21
117.2070251605231
 31
0.0
  0
ARC
  5
254
  8
0
 10
192.99407581
 20
116.20702521093079
 30
0.0
 40
1.0000000000000051
 50
50.000012789064648
 51
90.000001996959227
  0
LINE
  5
255
  8
0
 10
198.5959215164184
 20
112.8119255206305
 30
0.0
 11
193.63686323165891
 21
116.97306977722231
 31
0.0
  0
ARC
  5
256
  8
0
 10
193.72201627999999
 20
118.20702521093079
 30
0.0
 40
0.9999999978122179
 50
50.00000008503811
 51
89.999996875449142
  0
LINE
  5
257
  8
0
 10
194.36480379104611
 20
118.9730695388038
 30
0.0
 11
199.8335933685303
 21
114.3842106959541
 31
0.0
  0
ARC
  5
258
  8
0
 10
201.0
 20
116.00886288093091
 30
0.0
 40
2.0000000000000022
 50
234.3238319815874
 51
0.0
  0
LINE
  5
259
  8
0
 10
183.25
 20
119.2070251605231
 30
0.0
 11
183.25
 21
117.2070251605231
 31
0.0
  0
LINE
  5
25A
  8
0
 10
183.25
 20
117.2070251605231
 30
0.0
 11
182.00592422485349
 21
117.2070251605231
 31
0.0
  0
ARC
  5
25B
  8
0
 10
182.00592419
 20
116.20702521093079
 30
0.0
 40
0.9999999978122216
 50
89.999998003040758
 51
129.9999872109353
  0
LINE
  5
25C
  8
0
 10
172.0
 20
120.0088628432471
 30
0.0
 11
172.0
 21
116.00886308166569
 31
0.0
  0
ARC
  5
25D
  8
0
 10
172.5
 20
119.7088628909309
 30
0.0
 40
2.5
 50
101.5369590340331
 51
180.0
  0
ARC
  5
25E
  8
0
 10
174.0
 20
116.0088628909308
 30
0.0
 40
3.999999999999996
 50
180.0
 51
306.94295500390018
  0
LINE
  5
25F
  8
0
 10
181.36313676834101
 20
116.97306977722231
 30
0.0
 11
176.40407848358149
 21
112.8119255206305
 31
0.0
  0
LINE
  5
260
  8
0
 10
203.0
 20
122.1583526334483
 30
0.0
 11
203.0
 21
120.0088628432471
 31
0.0
  0
LINE
  5
261
  8
0
 10
202.49999046325681
 20
122.20886038606869
 30
0.0
 11
202.5476245880127
 21
122.20840542210991
 31
0.0
  0
LINE
  5
262
  8
0
 10
202.5476245880127
 20
122.20840542210991
 30
0.0
 11
202.59290599823001
 21
122.2071341088498
 31
0.0
  0
LINE
  5
263
  8
0
 10
202.59290599823001
 20
122.2071341088498
 30
0.0
 11
202.63566589355469
 21
122.20517910013351
 31
0.0
  0
LINE
  5
264
  8
0
 10
202.63566589355469
 20
122.20517910013351
 30
0.0
 11
202.67642116546631
 21
122.2026159139108
 31
0.0
  0
LINE
  5
265
  8
0
 10
202.67642116546631
 20
122.2026159139108
 30
0.0
 11
202.71556091308599
 21
122.1995136975069
 31
0.0
  0
LINE
  5
266
  8
0
 10
202.71556091308599
 20
122.1995136975069
 30
0.0
 11
202.7528867721557
 21
122.195983352581
 31
0.0
  0
LINE
  5
267
  8
0
 10
202.7528867721557
 20
122.195983352581
 30
0.0
 11
202.7881965637207
 21
122.19213578055979
 31
0.0
  0
LINE
  5
268
  8
0
 10
202.7881965637207
 20
122.19213578055979
 30
0.0
 11
202.82129287719729
 21
122.18808188426679
 31
0.0
  0
LINE
  5
269
  8
0
 10
202.82129287719729
 20
122.18808188426679
 30
0.0
 11
202.85197448730469
 21
122.18393256280009
 31
0.0
  0
LINE
  5
26A
  8
0
 10
202.85197448730469
 20
122.18393256280009
 30
0.0
 11
202.8800420761109
 21
122.1797987217773
 31
0.0
  0
LINE
  5
26B
  8
0
 10
202.8800420761109
 20
122.1797987217773
 30
0.0
 11
202.90529537200931
 21
122.175791276129
 31
0.0
  0
LINE
  5
26C
  8
0
 10
202.90529537200931
 20
122.175791276129
 30
0.0
 11
202.92757129669189
 21
122.1720517663974
 31
0.0
  0
LINE
  5
26D
  8
0
 10
202.92757129669189
 20
122.1720517663974
 30
0.0
 11
202.94684505462649
 21
122.1686727343816
 31
0.0
  0
LINE
  5
26E
  8
0
 10
202.94684505462649
 20
122.1686727343816
 30
0.0
 11
202.9631271362305
 21
122.16569675269911
 31
0.0
  0
LINE
  5
26F
  8
0
 10
202.9631271362305
 20
122.16569675269911
 30
0.0
 11
202.97642803192139
 21
122.16316639769261
 31
0.0
  0
LINE
  5
270
  8
0
 10
202.97642803192139
 20
122.16316639769261
 30
0.0
 11
202.98675537109369
 21
122.1611242345292
 31
0.0
  0
LINE
  5
271
  8
0
 10
202.98675537109369
 20
122.1611242345292
 30
0.0
 11
202.99411964416501
 21
122.15961283582639
 31
0.0
  0
LINE
  5
272
  8
0
 10
202.99411964416501
 20
122.15961283582639
 30
0.0
 11
202.99853134155271
 21
122.15867478165219
 31
0.0
  0
LINE
  5
273
  8
0
 10
202.99853134155271
 20
122.15867478165219
 30
0.0
 11
203.0
 21
122.1583526334483
 31
0.0
  0
LINE
  5
274
  8
0
 10
201.75
 20
122.2088628909308
 30
0.0
 11
202.5
 21
122.2088628909308
 31
0.0
  0
LINE
  5
275
  8
0
 10
201.75
 20
120.0088628432471
 30
0.0
 11
201.75
 21
122.2088628909308
 31
0.0
  0
LINE
  5
276
  8
0
 10
201.75
 20
120.0088628432471
 30
0.0
 11
203.0
 21
120.0088628432471
 31
0.0
  0
LINE
  5
277
  8
0
 10
172.0
 20
122.1583526334483
 30
0.0
 11
172.0
 21
120.0088628432471
 31
0.0
  0
LINE
  5
278
  8
0
 10
172.5
 20
122.2088628909308
 30
0.0
 11
173.25
 21
122.2088628909308
 31
0.0
  0
LINE
  5
279
  8
0
 10
172.0
 20
122.1583526334483
 30
0.0
 11
172.00146865844721
 21
122.1586751802582
 31
0.0
  0
LINE
  5
27A
  8
0
 10
172.00146865844721
 20
122.1586751802582
 30
0.0
 11
172.0058803558349
 21
122.1596141434033
 31
0.0
  0
LINE
  5
27B
  8
0
 10
172.0058803558349
 20
122.1596141434033
 30
0.0
 11
172.01324462890619
 21
122.1611264883298
 31
0.0
  0
LINE
  5
27C
  8
0
 10
172.01324462890619
 20
122.1611264883298
 30
0.0
 11
172.02357006073001
 21
122.1631691991109
 31
0.0
  0
LINE
  5
27D
  8
0
 10
172.02357006073001
 20
122.1631691991109
 30
0.0
 11
172.03686428070071
 21
122.16569924864361
 31
0.0
  0
LINE
  5
27E
  8
0
 10
172.03686428070071
 20
122.16569924864361
 30
0.0
 11
172.05313777923581
 21
122.16867360982491
 31
0.0
  0
LINE
  5
27F
  8
0
 10
172.05313777923581
 20
122.16867360982491
 30
0.0
 11
172.07239818573001
 21
122.1720492555518
 31
0.0
  0
LINE
  5
280
  8
0
 10
172.07239818573001
 20
122.1720492555518
 30
0.0
 11
172.0946540832519
 21
122.175783166172
 31
0.0
  0
LINE
  5
281
  8
0
 10
172.0946540832519
 20
122.175783166172
 30
0.0
 11
172.11988735198969
 21
122.1797887584884
 31
0.0
  0
LINE
  5
282
  8
0
 10
172.11988735198969
 20
122.1797887584884
 30
0.0
 11
172.14794254302981
 21
122.1839217017163
 31
0.0
  0
LINE
  5
283
  8
0
 10
172.14794254302981
 20
122.1839217017163
 30
0.0
 11
172.17862224578849
 21
122.1880709449518
 31
0.0
  0
LINE
  5
284
  8
0
 10
172.17862224578849
 20
122.1880709449518
 30
0.0
 11
172.2117280960083
 21
122.192125722276
 31
0.0
  0
LINE
  5
285
  8
0
 10
172.2117280960083
 20
122.192125722276
 30
0.0
 11
172.24706077575681
 21
122.19597526404451
 31
0.0
  0
LINE
  5
286
  8
0
 10
172.24706077575681
 20
122.19597526404451
 30
0.0
 11
172.284423828125
 21
122.199508804338
 31
0.0
  0
LINE
  5
287
  8
0
 10
172.284423828125
 20
122.199508804338
 30
0.0
 11
172.32361888885501
 21
122.20261557537501
 31
0.0
  0
LINE
  5
288
  8
0
 10
172.32361888885501
 20
122.20261557537501
 30
0.0
 11
172.36444759368891
 21
122.205184808908
 31
0.0
  0
LINE
  5
289
  8
0
 10
172.36444759368891
 20
122.205184808908
 30
0.0
 11
172.40716075897211
 21
122.2071368709197
 31
0.0
  0
LINE
  5
28A
  8
0
 10
172.40716075897211
 20
122.2071368709197
 30
0.0
 11
172.45239925384519
 21
122.2084058966478
 31
0.0
  0
LINE
  5
28B
  8
0
 10
172.45239925384519
 20
122.2084058966478
 30
0.0
 11
172.5
 21
122.2088628909308
 31
0.0
  0
LINE
  5
28C
  8
0
 10
172.0
 20
120.0088628432471
 30
0.0
 11
173.25
 21
120.0088628432471
 31
0.0
  0
LINE
  5
28D
  8
0
 10
173.25
 20
120.0088628432471
 30
0.0
 11
173.25
 21
122.2088628909308
 31
0.0
  0
LINE
  5
28E
  8
0
 10
205.0
 20
119.7088628909309
 30
0.0
 11
205.0
 21
116.00886308166569
 31
0.0
  0
ARC
  5
28F
  8
0
 10
202.5
 20
119.7088628909309
 30
0.0
 40
2.500000000000008
 50
0.0
 51
78.463040965966911
  0
LINE
  5
290
  8
0
 10
203.0
 20
116.00886308166569
 30
0.0
 11
203.0
 21
120.0088628432471
 31
0.0
  0
ARC
  5
291
  8
0
 10
201.0
 20
116.0088628909308
 30
0.0
 40
4.0000000054706213
 50
233.0570449961001
 51
0.0
  0
LINE
  5
292
  8
0
 10
201.75
 20
120.0088628432471
 30
0.0
 11
173.25
 21
120.0088628432471
 31
0.0
  0
LINE
  5
293
  8
0
 10
173.25
 20
122.2088628909308
 30
0.0
 11
201.75
 21
122.2088628909308
 31
0.0
  0
LINE
  5
294
  8
0
 10
194.5
 20
122.2088628909308
 30
0.0
 11
194.5
 21
122.6488628885467
 31
0.0
  0
LINE
  5
295
  8
0
 10
180.5
 20
122.6488628885467
 30
0.0
 11
194.5
 21
122.6488628885467
 31
0.0
  0
LINE
  5
296
  8
0
 10
180.5
 20
122.6488628885467
 30
0.0
 11
180.5
 21
122.2088628909308
 31
0.0
  0
ARC
  5
297
  8
0
 10
190.53999999999999
 20
122.6488628909308
 30
0.0
 40
3.96
 50
0.0
 51
90.000000551935031
  0
LINE
  5
298
  8
0
 10
184.46000003814689
 20
126.60886298629831
 30
0.0
 11
190.539999961853
 21
126.60886298629831
 31
0.0
  0
ARC
  5
299
  8
0
 10
184.46000000000001
 20
122.6488628909308
 30
0.0
 40
3.96
 50
89.999999448064955
 51
180.0
  0
LINE
  5
29A
  8
0
 10
190.73320007324219
 20
102.2088628909308
 30
0.0
 11
191.5
 21
102.9756628176887
 31
0.0
  0
LINE
  5
29B
  8
0
 10
183.5
 20
102.9756628176887
 30
0.0
 11
184.26679992675781
 21
102.2088628909308
 31
0.0
  0
LINE
  5
29C
  8
0
 10
191.5
 20
102.9756628176887
 30
0.0
 11
191.5
 21
120.00886880371159
 31
0.0
  0
LINE
  5
29D
  8
0
 10
183.5
 20
120.00886880371159
 30
0.0
 11
183.5
 21
102.9756628176887
 31
0.0
  0
LINE
  5
29E
  8
0
 10
183.5
 20
102.9756628176887
 30
0.0
 11
191.5
 21
102.9756628176887
 31
0.0
  0
LINE
  5
29F
  8
0
 10
184.26679992675781
 20
102.2088628909308
 30
0.0
 11
190.73320007324219
 21
102.2088628909308
 31
0.0
  0
LINE
  5
31C
  8
0
 10
170.0
 20
192.3273381294963
 30
0.0
 11
170.0
 21
184.3273381294963
 31
0.0
  0
LINE
  5
31D
  8
0
 10
170.0
 20
192.3273381294963
 30
0.0
 11
172.0
 21
192.3273381294963
 31
0.0
  0
LINE
  5
31E
  8
0
 10
203.0
 20
192.3273381294963
 30
0.0
 11
205.0
 21
192.3273381294963
 31
0.0
  0
LINE
  5
31F
  8
0
 10
170.0
 20
184.3273381294963
 30
0.0
 11
172.0
 21
184.3273381294963
 31
0.0
  0
LINE
  5
320
  8
0
 10
203.0
 20
181.0773381294963
 30
0.0
 11
203.0
 21
184.3273381294963
 31
0.0
  0
LINE
  5
321
  8
0
 10
202.49999046325681
 20
180.0773505272625
 30
0.0
 11
202.5476245880127
 21
180.11492911002611
 31
0.0
  0
LINE
  5
322
  8
0
 10
202.5476245880127
 20
180.11492911002611
 30
0.0
 11
202.59290599823001
 21
180.15431204459651
 31
0.0
  0
LINE
  5
323
  8
0
 10
202.59290599823001
 20
180.15431204459651
 30
0.0
 11
202.63566589355469
 21
180.19524088523369
 31
0.0
  0
LINE
  5
324
  8
0
 10
202.63566589355469
 20
180.19524088523369
 30
0.0
 11
202.67642116546631
 21
180.23824492118339
 31
0.0
  0
LINE
  5
325
  8
0
 10
202.67642116546631
 20
180.23824492118339
 30
0.0
 11
202.71556091308599
 21
180.28378859183769
 31
0.0
  0
LINE
  5
326
  8
0
 10
202.71556091308599
 20
180.28378859183769
 30
0.0
 11
202.7528867721557
 21
180.33168593070491
 31
0.0
  0
LINE
  5
327
  8
0
 10
202.7528867721557
 20
180.33168593070491
 30
0.0
 11
202.7881965637207
 21
180.38175478599049
 31
0.0
  0
LINE
  5
328
  8
0
 10
202.7881965637207
 20
180.38175478599049
 30
0.0
 11
202.82129287719729
 21
180.4338106217144
 31
0.0
  0
LINE
  5
329
  8
0
 10
202.82129287719729
 20
180.4338106217144
 30
0.0
 11
202.85197448730469
 21
180.4876698555706
 31
0.0
  0
LINE
  5
32A
  8
0
 10
202.85197448730469
 20
180.4876698555706
 30
0.0
 11
202.8800420761109
 21
180.5431479515789
 31
0.0
  0
LINE
  5
32B
  8
0
 10
202.8800420761109
 20
180.5431479515789
 30
0.0
 11
202.90529537200931
 21
180.60006228110771
 31
0.0
  0
LINE
  5
32C
  8
0
 10
202.90529537200931
 20
180.60006228110771
 30
0.0
 11
202.92757129669189
 21
180.65821495673629
 31
0.0
  0
LINE
  5
32D
  8
0
 10
202.92757129669189
 20
180.65821495673629
 30
0.0
 11
202.94684505462649
 21
180.71734896323659
 31
0.0
  0
LINE
  5
32E
  8
0
 10
202.94684505462649
 20
180.71734896323659
 30
0.0
 11
202.9631271362305
 21
180.77718821189379
 31
0.0
  0
LINE
  5
32F
  8
0
 10
202.9631271362305
 20
180.77718821189379
 30
0.0
 11
202.97642803192139
 21
180.83745852134211
 31
0.0
  0
LINE
  5
330
  8
0
 10
202.97642803192139
 20
180.83745852134211
 30
0.0
 11
202.98675537109369
 21
180.89788380286669
 31
0.0
  0
LINE
  5
331
  8
0
 10
202.98675537109369
 20
180.89788380286669
 30
0.0
 11
202.99411964416501
 21
180.95818892142751
 31
0.0
  0
LINE
  5
332
  8
0
 10
202.99411964416501
 20
180.95818892142751
 30
0.0
 11
202.99853134155271
 21
181.01809874198409
 31
0.0
  0
LINE
  5
333
  8
0
 10
202.99853134155271
 20
181.01809874198409
 30
0.0
 11
203.0
 21
181.0773381294963
 31
0.0
  0
ARC
  5
334
  8
0
 10
201.75
 20
181.0773381294963
 30
0.0
 40
1.250000000000004
 50
270.0
 51
306.86989764584342
  0
LINE
  5
335
  8
0
 10
172.0
 20
184.3273381294963
 30
0.0
 11
172.0
 21
181.0773381294963
 31
0.0
  0
ARC
  5
336
  8
0
 10
173.25
 20
181.0773381294963
 30
0.0
 40
1.250000000000004
 50
233.13010235415661
 51
270.0
  0
LINE
  5
337
  8
0
 10
172.0
 20
181.0773381294963
 30
0.0
 11
172.00146865844721
 21
181.0180915894268
 31
0.0
  0
LINE
  5
338
  8
0
 10
172.00146865844721
 20
181.0180915894268
 30
0.0
 11
172.0058803558349
 21
180.9581870140789
 31
0.0
  0
LINE
  5
339
  8
0
 10
172.0058803558349
 20
180.9581870140789
 30
0.0
 11
172.01324462890619
 21
180.89789715430709
 31
0.0
  0
LINE
  5
33A
  8
0
 10
172.01324462890619
 20
180.89789715430709
 30
0.0
 11
172.02357006073001
 21
180.83749333045461
 31
0.0
  0
LINE
  5
33B
  8
0
 10
172.02357006073001
 20
180.83749333045461
 30
0.0
 11
172.03686428070071
 21
180.77724829337569
 31
0.0
  0
LINE
  5
33C
  8
0
 10
172.03686428070071
 20
180.77724829337569
 30
0.0
 11
172.05313777923581
 21
180.71743384025069
 31
0.0
  0
LINE
  5
33D
  8
0
 10
172.05313777923581
 20
180.71743384025069
 30
0.0
 11
172.07239818573001
 21
180.65832224509691
 31
0.0
  0
LINE
  5
33E
  8
0
 10
172.07239818573001
 20
180.65832224509691
 30
0.0
 11
172.0946540832519
 21
180.60018578193171
 31
0.0
  0
LINE
  5
33F
  8
0
 10
172.0946540832519
 20
180.60018578193171
 30
0.0
 11
172.11988735198969
 21
180.54328241965749
 31
0.0
  0
LINE
  5
340
  8
0
 10
172.11988735198969
 20
180.54328241965749
 30
0.0
 11
172.14794254302981
 21
180.48780813834651
 31
0.0
  0
LINE
  5
341
  8
0
 10
172.14794254302981
 20
180.48780813834651
 30
0.0
 11
172.17862224578849
 21
180.4339446129558
 31
0.0
  0
LINE
  5
342
  8
0
 10
172.17862224578849
 20
180.4339446129558
 30
0.0
 11
172.2117280960083
 21
180.3818730416057
 31
0.0
  0
LINE
  5
343
  8
0
 10
172.2117280960083
 20
180.3818730416057
 30
0.0
 11
172.24706077575681
 21
180.3317746224163
 31
0.0
  0
LINE
  5
344
  8
0
 10
172.24706077575681
 20
180.3317746224163
 30
0.0
 11
172.284423828125
 21
180.28383055350761
 31
0.0
  0
LINE
  5
345
  8
0
 10
172.284423828125
 20
180.28383055350761
 30
0.0
 11
172.32361888885501
 21
180.2382220329998
 31
0.0
  0
LINE
  5
346
  8
0
 10
172.32361888885501
 20
180.2382220329998
 30
0.0
 11
172.36444759368891
 21
180.19512930533861
 31
0.0
  0
LINE
  5
347
  8
0
 10
172.36444759368891
 20
180.19512930533861
 30
0.0
 11
172.40716075897211
 21
180.1542491020916
 31
0.0
  0
LINE
  5
348
  8
0
 10
172.40716075897211
 20
180.1542491020916
 30
0.0
 11
172.45239925384519
 21
180.11490812919121
 31
0.0
  0
LINE
  5
349
  8
0
 10
172.45239925384519
 20
180.11490812919121
 30
0.0
 11
172.5
 21
180.07733812949641
 31
0.0
  0
LINE
  5
34A
  8
0
 10
203.0
 20
184.3273381294963
 30
0.0
 11
205.0
 21
184.3273381294963
 31
0.0
  0
LINE
  5
34B
  8
0
 10
172.5
 20
196.57733812949641
 30
0.0
 11
172.5
 21
180.07733812949641
 31
0.0
  0
LINE
  5
34C
  8
0
 10
172.5
 20
196.57733812949641
 30
0.0
 11
172.45239925384519
 21
196.5397681298015
 31
0.0
  0
LINE
  5
34D
  8
0
 10
172.45239925384519
 20
196.5397681298015
 30
0.0
 11
172.40716075897211
 21
196.50042715690111
 31
0.0
  0
LINE
  5
34E
  8
0
 10
172.40716075897211
 20
196.50042715690111
 30
0.0
 11
172.36444759368891
 21
196.4595469536541
 31
0.0
  0
LINE
  5
34F
  8
0
 10
172.36444759368891
 20
196.4595469536541
 30
0.0
 11
172.32361888885501
 21
196.41645422599291
 31
0.0
  0
LINE
  5
350
  8
0
 10
172.32361888885501
 20
196.41645422599291
 30
0.0
 11
172.284423828125
 21
196.3708457054851
 31
0.0
  0
LINE
  5
351
  8
0
 10
172.284423828125
 20
196.3708457054851
 30
0.0
 11
172.24706077575681
 21
196.3229016365764
 31
0.0
  0
LINE
  5
352
  8
0
 10
172.24706077575681
 20
196.3229016365764
 30
0.0
 11
172.2117280960083
 21
196.27280321738701
 31
0.0
  0
LINE
  5
353
  8
0
 10
172.2117280960083
 20
196.27280321738701
 30
0.0
 11
172.17862224578849
 21
196.22073164603691
 31
0.0
  0
LINE
  5
354
  8
0
 10
172.17862224578849
 20
196.22073164603691
 30
0.0
 11
172.14794254302981
 21
196.16686812064631
 31
0.0
  0
LINE
  5
355
  8
0
 10
172.14794254302981
 20
196.16686812064631
 30
0.0
 11
172.11988735198969
 21
196.11139383933519
 31
0.0
  0
LINE
  5
356
  8
0
 10
172.11988735198969
 20
196.11139383933519
 30
0.0
 11
172.0946540832519
 21
196.05449047706111
 31
0.0
  0
LINE
  5
357
  8
0
 10
172.0946540832519
 20
196.05449047706111
 30
0.0
 11
172.07239818573001
 21
195.9963540138958
 31
0.0
  0
LINE
  5
358
  8
0
 10
172.07239818573001
 20
195.9963540138958
 30
0.0
 11
172.05313777923581
 21
195.93724241874199
 31
0.0
  0
LINE
  5
359
  8
0
 10
172.05313777923581
 20
195.93724241874199
 30
0.0
 11
172.03686428070071
 21
195.87742796561699
 31
0.0
  0
LINE
  5
35A
  8
0
 10
172.03686428070071
 20
195.87742796561699
 30
0.0
 11
172.02357006073001
 21
195.8171829285381
 31
0.0
  0
LINE
  5
35B
  8
0
 10
172.02357006073001
 20
195.8171829285381
 30
0.0
 11
172.01324462890619
 21
195.75677910468551
 31
0.0
  0
LINE
  5
35C
  8
0
 10
172.01324462890619
 20
195.75677910468551
 30
0.0
 11
172.0058803558349
 21
195.69648924491381
 31
0.0
  0
LINE
  5
35D
  8
0
 10
172.0058803558349
 20
195.69648924491381
 30
0.0
 11
172.00146865844721
 21
195.63658466956591
 31
0.0
  0
LINE
  5
35E
  8
0
 10
172.00146865844721
 20
195.63658466956591
 30
0.0
 11
172.0
 21
195.57733812949641
 31
0.0
  0
LINE
  5
35F
  8
0
 10
172.0
 20
195.57733812949641
 30
0.0
 11
172.0
 21
192.3273381294963
 31
0.0
  0
LINE
  5
360
  8
0
 10
173.25
 20
179.82733812949641
 30
0.0
 11
201.75
 21
179.82733812949641
 31
0.0
  0
ARC
  5
361
  8
0
 10
173.25
 20
195.57733812949641
 30
0.0
 40
1.250000000000004
 50
90.0
 51
126.8698976458433
  0
ARC
  5
362
  8
0
 10
201.75
 20
195.57733812949641
 30
0.0
 40
1.250000000000002
 50
53.130102354156641
 51
90.0
  0
LINE
  5
363
  8
0
 10
203.0
 20
195.57733812949641
 30
0.0
 11
202.99853134155271
 21
195.63658466956591
 31
0.0
  0
LINE
  5
364
  8
0
 10
202.99853134155271
 20
195.63658466956591
 30
0.0
 11
202.99411964416501
 21
195.69648924491381
 31
0.0
  0
LINE
  5
365
  8
0
 10
202.99411964416501
 20
195.69648924491381
 30
0.0
 11
202.98675537109369
 21
195.75677910468551
 31
0.0
  0
LINE
  5
366
  8
0
 10
202.98675537109369
 20
195.75677910468551
 30
0.0
 11
202.97642993926999
 21
195.8171829285381
 31
0.0
  0
LINE
  5
367
  8
0
 10
202.97642993926999
 20
195.8171829285381
 30
0.0
 11
202.96313571929929
 21
195.87742796561699
 31
0.0
  0
LINE
  5
368
  8
0
 10
202.96313571929929
 20
195.87742796561699
 30
0.0
 11
202.9468622207641
 21
195.93724241874199
 31
0.0
  0
LINE
  5
369
  8
0
 10
202.9468622207641
 20
195.93724241874199
 30
0.0
 11
202.92760181426999
 21
195.9963540138958
 31
0.0
  0
LINE
  5
36A
  8
0
 10
202.92760181426999
 20
195.9963540138958
 30
0.0
 11
202.9053459167481
 21
196.05449047706111
 31
0.0
  0
LINE
  5
36B
  8
0
 10
202.9053459167481
 20
196.05449047706111
 30
0.0
 11
202.8801126480102
 21
196.11139383933519
 31
0.0
  0
LINE
  5
36C
  8
0
 10
202.8801126480102
 20
196.11139383933519
 30
0.0
 11
202.85205745697019
 21
196.16686812064631
 31
0.0
  0
LINE
  5
36D
  8
0
 10
202.85205745697019
 20
196.16686812064631
 30
0.0
 11
202.8213777542114
 21
196.22073164603691
 31
0.0
  0
LINE
  5
36E
  8
0
 10
202.8213777542114
 20
196.22073164603691
 30
0.0
 11
202.7882719039917
 21
196.27280321738701
 31
0.0
  0
LINE
  5
36F
  8
0
 10
202.7882719039917
 20
196.27280321738701
 30
0.0
 11
202.75293922424319
 21
196.3229016365764
 31
0.0
  0
LINE
  5
370
  8
0
 10
202.75293922424319
 20
196.3229016365764
 30
0.0
 11
202.715576171875
 21
196.3708457054851
 31
0.0
  0
LINE
  5
371
  8
0
 10
202.715576171875
 20
196.3708457054851
 30
0.0
 11
202.67638111114499
 21
196.41645422599291
 31
0.0
  0
LINE
  5
372
  8
0
 10
202.67638111114499
 20
196.41645422599291
 30
0.0
 11
202.63555240631101
 21
196.4595469536541
 31
0.0
  0
LINE
  5
373
  8
0
 10
202.63555240631101
 20
196.4595469536541
 30
0.0
 11
202.5928392410278
 21
196.50042715690111
 31
0.0
  0
LINE
  5
374
  8
0
 10
202.5928392410278
 20
196.50042715690111
 30
0.0
 11
202.54760074615481
 21
196.5397681298015
 31
0.0
  0
LINE
  5
375
  8
0
 10
202.54760074615481
 20
196.5397681298015
 30
0.0
 11
202.5
 21
196.57733812949641
 31
0.0
  0
LINE
  5
376
  8
0
 10
203.0
 20
192.3273381294963
 30
0.0
 11
203.0
 21
195.57733812949641
 31
0.0
  0
LINE
  5
377
  8
0
 10
201.75
 20
196.8273381294963
 30
0.0
 11
173.25
 21
196.8273381294963
 31
0.0
  0
LINE
  5
378
  8
0
 10
202.5
 20
196.57733812949641
 30
0.0
 11
202.5
 21
180.07733812949641
 31
0.0
  0
LINE
  5
379
  8
0
 10
205.0
 20
192.3273381294963
 30
0.0
 11
205.0
 21
184.3273381294963
 31
0.0
  0
ARC
  5
37A
  8
0
 10
187.5
 20
188.32733812949641
 30
0.0
 40
7.0
 50
180.0
 51
0.0
  0
ARC
  5
37B
  8
0
 10
187.5
 20
188.32733812949641
 30
0.0
 40
7.0
 50
0.0
 51
180.0
  0
ARC
  5
37C
  8
0
 10
187.5
 20
188.32733812949641
 30
0.0
 40
3.04
 50
180.0
 51
0.0
  0
LINE
  5
37D
  8
0
 10
185.0
 20
186.88396242282371
 30
0.0
 11
185.0
 21
189.77071383616899
 31
0.0
  0
LINE
  5
37E
  8
0
 10
187.5
 20
185.44058671615099
 30
0.0
 11
185.0
 21
186.88396242282371
 31
0.0
  0
LINE
  5
37F
  8
0
 10
190.0
 20
186.88396242282371
 30
0.0
 11
187.5
 21
185.44058671615099
 31
0.0
  0
LINE
  5
380
  8
0
 10
190.0
 20
189.77071383616899
 30
0.0
 11
190.0
 21
186.88396242282371
 31
0.0
  0
LINE
  5
381
  8
0
 10
187.5
 20
191.21408954284169
 30
0.0
 11
190.0
 21
189.77071383616899
 31
0.0
  0
LINE
  5
382
  8
0
 10
185.0
 20
189.77071383616899
 30
0.0
 11
187.5
 21
191.21408954284169
 31
0.0
  0
ARC
  5
383
  8
0
 10
187.5
 20
188.32733812949641
 30
0.0
 40
3.04
 50
0.0
 51
180.0
  0
LINE
  5
387
  8
3
 10
190.82300000000001
 20
102.29866281768869
 30
0.0
 11
190.82300000000001
 21
120.0088628432471
 31
0.0
  0
LINE
  5
388
  8
3
 10
184.17700000000119
 20
102.2986628176874
 30
0.0
 11
184.17699999999999
 21
120.0088628432471
 31
0.0
  0
LINE
  5
389
  8
3
 10
263.98579159940971
 20
102.2986628176874
 30
0.0
 11
263.98579159940908
 21
112.00886308166569
 31
0.0
  0
LINE
  5
38A
  8
3
 10
270.63179159940847
 20
102.29866281768869
 30
0.0
 11
270.63179159940847
 21
112.00886308166569
 31
0.0
  0
LINE
  5
38B
  8
3
 10
111.0142084005915
 20
102.29866281768869
 30
0.0
 11
111.0142084005915
 21
112.00886308166569
 31
0.0
  0
LINE
  5
38C
  8
3
 10
104.36820840059271
 20
102.2986628176874
 30
0.0
 11
104.3682084005921
 21
112.00886308166569
 31
0.0
  0
ARC
  5
38D
  8
0
 10
110.7312084005915
 20
122.6488628909309
 30
0.0
 40
3.96
 50
0.0
 51
90.000000551935031
  0
LINE
  5
38E
  8
0
 10
104.4580083273493
 20
102.2088628909309
 30
0.0
 11
103.69120840059151
 21
102.9756628176887
 31
0.0
  0
LINE
  5
38F
  8
0
 10
103.69120840059151
 20
102.9756628176887
 30
0.0
 11
103.69120840059151
 21
120.0088628432471
 31
0.0
  0
LINE
  5
390
  8
0
 10
111.69120840059151
 20
102.9756628176887
 30
0.0
 11
111.69120840059151
 21
112.00886308166569
 31
0.0
  0
LINE
  5
391
  8
0
 10
110.92440847383369
 20
102.2088628909309
 30
0.0
 11
111.69120840059151
 21
102.9756628176887
 31
0.0
  0
ARC
  5
392
  8
0
 10
104.6512084005914
 20
122.6488628909309
 30
0.0
 40
3.96
 50
89.999999448064955
 51
180.0
  0
LINE
  5
393
  8
0
 10
114.69120840059151
 20
122.2088628909309
 30
0.0
 11
114.69120840059151
 21
122.6488628885467
 31
0.0
  0
LINE
  5
394
  8
0
 10
100.69120840059151
 20
122.2088628909309
 30
0.0
 11
100.69120840059151
 21
122.6488628885467
 31
0.0
  0
LINE
  5
395
  8
0
 10
107.69120840059151
 20
126.60886298629831
 30
0.0
 11
110.73120836244451
 21
126.60886298629831
 31
0.0
  0
LINE
  5
396
  8
0
 10
104.4580083273493
 20
102.2088628909309
 30
0.0
 11
107.69120840059151
 21
102.2088628909309
 31
0.0
  0
LINE
  5
397
  8
0
 10
103.69120840059151
 20
102.9756628176887
 30
0.0
 11
107.69120840059151
 21
102.9756628176887
 31
0.0
  0
LINE
  5
398
  8
0
 10
107.69120840059151
 20
102.2088628909309
 30
0.0
 11
110.92440847383369
 21
102.2088628909309
 31
0.0
  0
LINE
  5
399
  8
0
 10
107.69120840059151
 20
102.9756628176887
 30
0.0
 11
111.69120840059151
 21
102.9756628176887
 31
0.0
  0
LINE
  5
39A
  8
0
 10
104.65120843873839
 20
126.60886298629831
 30
0.0
 11
107.69120840059151
 21
126.60886298629831
 31
0.0
  0
LINE
  5
39B
  8
0
 10
107.69120840059151
 20
122.6488628885467
 30
0.0
 11
114.69120840059151
 21
122.6488628885467
 31
0.0
  0
LINE
  5
39C
  8
0
 10
100.69120840059151
 20
122.6488628885467
 30
0.0
 11
107.69120840059151
 21
122.6488628885467
 31
0.0
  0
LINE
  5
39D
  8
0
 10
103.69120840059151
 20
112.00886308166569
 30
0.0
 11
111.69120840059151
 21
112.00886308166569
 31
0.0
  0
LINE
  5
39E
  8
0
 10
111.69120840059151
 20
119.7088628909309
 30
0.0
 11
103.69120840059151
 21
119.7088628909309
 31
0.0
  0
LINE
  5
39F
  8
0
 10
115.94120840059151
 20
122.2088628909309
 30
0.0
 11
99.441208400591506
 21
122.2088628909309
 31
0.0
  0
LINE
  5
3A0
  8
0
 10
111.69120840059151
 20
122.1583526334483
 30
0.0
 11
114.94120840059151
 21
122.1583526334483
 31
0.0
  0
LINE
  5
3A1
  8
0
 10
116.19120840059151
 20
120.0088628432471
 30
0.0
 11
116.19120840059151
 21
122.2088628909309
 31
0.0
  0
LINE
  5
3A2
  8
0
 10
114.94120840059151
 20
122.1583526334483
 30
0.0
 11
114.94120840059151
 21
120.0088628432471
 31
0.0
  0
LINE
  5
3A3
  8
0
 10
115.9036384008967
 20
122.2084058966478
 30
0.0
 11
115.94120840059151
 21
122.2088628909309
 31
0.0
  0
LINE
  5
3A4
  8
0
 10
115.86429742799631
 20
122.2071368709197
 30
0.0
 11
115.9036384008967
 21
122.2084058966478
 31
0.0
  0
LINE
  5
3A5
  8
0
 10
115.82341722474921
 20
122.205184808908
 30
0.0
 11
115.86429742799631
 21
122.2071368709197
 31
0.0
  0
LINE
  5
3A6
  8
0
 10
115.7803244970881
 20
122.20261557537511
 30
0.0
 11
115.82341722474921
 21
122.205184808908
 31
0.0
  0
LINE
  5
3A7
  8
0
 10
115.7347159765802
 20
122.19950880433809
 30
0.0
 11
115.7803244970881
 21
122.20261557537511
 31
0.0
  0
LINE
  5
3A8
  8
0
 10
115.6867719076716
 20
122.19597526404451
 30
0.0
 11
115.7347159765802
 21
122.19950880433809
 31
0.0
  0
LINE
  5
3A9
  8
0
 10
115.6366734884821
 20
122.1921257222761
 30
0.0
 11
115.6867719076716
 21
122.19597526404451
 31
0.0
  0
LINE
  5
3AA
  8
0
 10
115.58460191713201
 20
122.1880709449519
 30
0.0
 11
115.6366734884821
 21
122.1921257222761
 31
0.0
  0
LINE
  5
3AB
  8
0
 10
115.53073839174139
 20
122.1839217017163
 30
0.0
 11
115.58460191713201
 21
122.1880709449519
 31
0.0
  0
LINE
  5
3AC
  8
0
 10
115.4752641104304
 20
122.1797887584884
 30
0.0
 11
115.53073839174139
 21
122.1839217017163
 31
0.0
  0
LINE
  5
3AD
  8
0
 10
115.4183607481562
 20
122.175783166172
 30
0.0
 11
115.4752641104304
 21
122.1797887584884
 31
0.0
  0
LINE
  5
3AE
  8
0
 10
115.36022428499091
 20
122.1720492555518
 30
0.0
 11
115.4183607481562
 21
122.175783166172
 31
0.0
  0
LINE
  5
3AF
  8
0
 10
115.3011126898371
 20
122.16867360982491
 30
0.0
 11
115.36022428499091
 21
122.1720492555518
 31
0.0
  0
LINE
  5
3B0
  8
0
 10
115.2412982367121
 20
122.16569924864361
 30
0.0
 11
115.3011126898371
 21
122.16867360982491
 31
0.0
  0
LINE
  5
3B1
  8
0
 10
115.1810531996332
 20
122.163169199111
 30
0.0
 11
115.2412982367121
 21
122.16569924864361
 31
0.0
  0
LINE
  5
3B2
  8
0
 10
115.1206493757807
 20
122.1611264883299
 30
0.0
 11
115.1810531996332
 21
122.163169199111
 31
0.0
  0
LINE
  5
3B3
  8
0
 10
115.060359516009
 20
122.1596141434033
 30
0.0
 11
115.1206493757807
 21
122.1611264883299
 31
0.0
  0
LINE
  5
3B4
  8
0
 10
115.0004549406611
 20
122.1586751802582
 30
0.0
 11
115.060359516009
 21
122.1596141434033
 31
0.0
  0
LINE
  5
3B5
  8
0
 10
114.94120840059151
 20
122.1583526334483
 30
0.0
 11
115.0004549406611
 21
122.1586751802582
 31
0.0
  0
LINE
  5
3B6
  8
0
 10
115.94120840059151
 20
122.2088628909309
 30
0.0
 11
116.19120840059151
 21
122.2088628909309
 31
0.0
  0
LINE
  5
3B7
  8
0
 10
114.94120840059151
 20
120.0088628432471
 30
0.0
 11
111.69120840059151
 21
120.0088628432471
 31
0.0
  0
LINE
  5
3B8
  8
0
 10
114.94120840059151
 20
120.0088628432471
 30
0.0
 11
116.19120840059151
 21
120.0088628432471
 31
0.0
  0
LINE
  5
3B9
  8
0
 10
111.69120840059151
 20
116.00886308166569
 30
0.0
 11
103.69120840059151
 21
116.00886308166569
 31
0.0
  0
LINE
  5
3BA
  8
0
 10
103.69120840059151
 20
112.00886308166569
 30
0.0
 11
103.69120840059151
 21
116.00886308166569
 31
0.0
  0
LINE
  5
3BB
  8
0
 10
103.69120840059151
 20
119.7088628909309
 30
0.0
 11
103.69120840059151
 21
122.1583526334483
 31
0.0
  0
LINE
  5
3BC
  8
0
 10
103.69120840059151
 20
119.7088628909309
 30
0.0
 11
103.69120840059151
 21
116.00886308166569
 31
0.0
  0
LINE
  5
3BD
  8
0
 10
99.191208400591506
 20
120.0088628432471
 30
0.0
 11
100.44120840059151
 21
120.0088628432471
 31
0.0
  0
LINE
  5
3BE
  8
0
 10
99.191208400591506
 20
120.0088628432471
 30
0.0
 11
99.191208400591506
 21
122.2088628909309
 31
0.0
  0
LINE
  5
3BF
  8
0
 10
99.191208400591506
 20
122.2088628909309
 30
0.0
 11
99.441208400591506
 21
122.2088628909309
 31
0.0
  0
LINE
  5
3C0
  8
0
 10
100.3819690130793
 20
122.15867478165219
 30
0.0
 11
100.44120840059151
 21
122.1583526334483
 31
0.0
  0
LINE
  5
3C1
  8
0
 10
100.3220591925226
 20
122.15961283582639
 30
0.0
 11
100.3819690130793
 21
122.15867478165219
 31
0.0
  0
LINE
  5
3C2
  8
0
 10
100.2617540739618
 20
122.1611242345292
 30
0.0
 11
100.3220591925226
 21
122.15961283582639
 31
0.0
  0
LINE
  5
3C3
  8
0
 10
100.2013287924372
 20
122.16316639769271
 30
0.0
 11
100.2617540739618
 21
122.1611242345292
 31
0.0
  0
LINE
  5
3C4
  8
0
 10
100.1410584829889
 20
122.16569675269911
 30
0.0
 11
100.2013287924372
 21
122.16316639769271
 31
0.0
  0
LINE
  5
3C5
  8
0
 10
100.0812192343317
 20
122.1686727343817
 30
0.0
 11
100.1410584829889
 21
122.16569675269911
 31
0.0
  0
LINE
  5
3C6
  8
0
 10
100.0220852278315
 20
122.1720517663974
 30
0.0
 11
100.0812192343317
 21
122.1686727343817
 31
0.0
  0
LINE
  5
3C7
  8
0
 10
99.963932552202834
 20
122.175791276129
 30
0.0
 11
100.0220852278315
 21
122.1720517663974
 31
0.0
  0
LINE
  5
3C8
  8
0
 10
99.907018222674026
 20
122.1797987217773
 30
0.0
 11
99.963932552202834
 21
122.175791276129
 31
0.0
  0
LINE
  5
3C9
  8
0
 10
99.851540126665725
 20
122.18393256280019
 30
0.0
 11
99.907018222674026
 21
122.1797987217773
 31
0.0
  0
LINE
  5
3CA
  8
0
 10
99.797680892809524
 20
122.18808188426679
 30
0.0
 11
99.851540126665725
 21
122.18393256280019
 31
0.0
  0
LINE
  5
3CB
  8
0
 10
99.745625057085647
 20
122.19213578055989
 30
0.0
 11
99.797680892809524
 21
122.18808188426679
 31
0.0
  0
LINE
  5
3CC
  8
0
 10
99.695556201800017
 20
122.1959833525811
 30
0.0
 11
99.745625057085647
 21
122.19213578055989
 31
0.0
  0
LINE
  5
3CD
  8
0
 10
99.647658862932815
 20
122.1995136975069
 30
0.0
 11
99.695556201800017
 21
122.1959833525811
 31
0.0
  0
LINE
  5
3CE
  8
0
 10
99.602115192278518
 20
122.2026159139108
 30
0.0
 11
99.647658862932815
 21
122.1995136975069
 31
0.0
  0
LINE
  5
3CF
  8
0
 10
99.559111156328811
 20
122.20517910013351
 30
0.0
 11
99.602115192278518
 21
122.2026159139108
 31
0.0
  0
LINE
  5
3D0
  8
0
 10
99.518182315691604
 20
122.2071341088498
 30
0.0
 11
99.559111156328811
 21
122.20517910013351
 31
0.0
  0
LINE
  5
3D1
  8
0
 10
99.478799381121306
 20
122.20840542210991
 30
0.0
 11
99.518182315691604
 21
122.2071341088498
 31
0.0
  0
LINE
  5
3D2
  8
0
 10
99.441220798357634
 20
122.20886038606881
 30
0.0
 11
99.478799381121306
 21
122.20840542210991
 31
0.0
  0
LINE
  5
3D3
  8
0
 10
103.69120840059151
 20
120.0088628432471
 30
0.0
 11
100.44120840059151
 21
120.0088628432471
 31
0.0
  0
LINE
  5
3D4
  8
0
 10
100.44120840059151
 20
122.1583526334483
 30
0.0
 11
100.44120840059151
 21
120.0088628432471
 31
0.0
  0
LINE
  5
3D5
  8
0
 10
100.44120840059151
 20
122.1583526334483
 30
0.0
 11
103.69120840059151
 21
122.1583526334483
 31
0.0
  0
LINE
  5
3D6
  8
0
 10
111.69120840059151
 20
112.00886308166569
 30
0.0
 11
111.69120840059151
 21
116.00886308166569
 31
0.0
  0
LINE
  5
3D7
  8
0
 10
111.69120840059151
 20
116.00886308166569
 30
0.0
 11
111.69120840059151
 21
119.7088628909309
 31
0.0
  0
LINE
  5
3D8
  8
0
 10
111.69120840059151
 20
119.7088628909309
 30
0.0
 11
111.69120840059151
 21
122.1583526334483
 31
0.0
  0
TEXT
  5
479
  8
0
 62
     3
 10
0.0
 20
0.0
 30
0.0
 40
5.0
  1
SJT8-SUS
  7
STANDARD1
  0
ENDSEC
  0
EOF
