  0
SECTION
  2
HEADER
  9
$ACADVER
  1
AC1009
  9
$INSBASE
 10
0.0
 20
0.0
 30
0.0
  9
$EXTMIN
 10
0.0
 20
-1.4802182810368341
 30
0.0
  9
$EXTMAX
 10
115.1600287461042
 20
111.37844896337469
 30
0.0
  9
$LIMMIN
 10
0.0
 20
0.0
  9
$LIMMAX
 10
187.5
 20
135.0
  9
$ORTHOMODE
 70
     1
  9
$REGENMODE
 70
     1
  9
$FILLMODE
 70
     1
  9
$QTEXTMODE
 70
     0
  9
$MIRRTEXT
 70
     0
  9
$DRAGMODE
 70
     2
  9
$LTSCALE
 40
5.0
  9
$OSMODE
 70
    55
  9
$ATTMODE
 70
     1
  9
$TEXTSIZE
 40
0.2
  9
$TRACEWID
 40
0.05
  9
$TEXTSTYLE
  7
STANDARD
  9
$CLAYER
  8
0
  9
$CELTYPE
  6
BYLAYER
  9
$CECOLOR
 62
   256
  9
$DIMSCALE
 40
0.5
  9
$DIMASZ
 40
3.0
  9
$DIMEXO
 40
2.0
  9
$DIMDLI
 40
0.38
  9
$DIMRND
 40
0.0
  9
$DIMDLE
 40
0.0
  9
$DIMEXE
 40
2.0
  9
$DIMTP
 40
0.0
  9
$DIMTM
 40
0.0
  9
$DIMTXT
 40
3.2000000000000002
  9
$DIMCEN
 40
0.0
  9
$DIMTSZ
 40
0.0
  9
$DIMTOL
 70
     0
  9
$DIMLIM
 70
     0
  9
$DIMTIH
 70
     0
  9
$DIMTOH
 70
     0
  9
$DIMSE1
 70
     0
  9
$DIMSE2
 70
     0
  9
$DIMTAD
 70
     1
  9
$DIMZIN
 70
     0
  9
$DIMBLK
  1

  9
$DIMASO
 70
     0
  9
$DIMSHO
 70
     0
  9
$DIMPOST
  1

  9
$DIMAPOST
  1

  9
$DIMALT
 70
     0
  9
$DIMALTD
 70
     2
  9
$DIMALTF
 40
25.399999999999999
  9
$DIMLFAC
 40
1.0
  9
$DIMTOFL
 70
     1
  9
$DIMTVP
 40
1.6000000000000001
  9
$DIMTIX
 70
     1
  9
$DIMSOXD
 70
     0
  9
$DIMSAH
 70
     0
  9
$DIMBLK1
  1

  9
$DIMBLK2
  1

  9
$DIMSTYLE
  2
STANDARD
  9
$DIMCLRD
 70
     0
  9
$DIMCLRE
 70
     0
  9
$DIMCLRT
 70
     0
  9
$DIMTFAC
 40
1.0
  9
$DIMGAP
 40
0.09
  9
$LUNITS
 70
     2
  9
$LUPREC
 70
     2
  9
$SKETCHINC
 40
0.1
  9
$FILLETRAD
 40
0.0
  9
$AUNITS
 70
     0
  9
$AUPREC
 70
     4
  9
$MENU
  1
E:\r13\win\SUPPORT\ACAD
  9
$ELEVATION
 40
0.0
  9
$PELEVATION
 40
0.0
  9
$THICKNESS
 40
0.0
  9
$LIMCHECK
 70
     0
  9
$BLIPMODE
 70
     0
  9
$CHAMFERA
 40
0.0
  9
$CHAMFERB
 40
0.0
  9
$SKPOLY
 70
     0
  9
$TDCREATE
 40
2449839.7732986109
  9
$TDUPDATE
 40
2456598.501876655
  9
$TDINDWG
 40
0.0378188426
  9
$TDUSRTIMER
 40
0.0378188426
  9
$USRTIMER
 70
     1
  9
$ANGBASE
 50
0.0
  9
$ANGDIR
 70
     0
  9
$PDMODE
 70
     0
  9
$PDSIZE
 40
0.0
  9
$PLINEWID
 40
0.0
  9
$COORDS
 70
     1
  9
$SPLFRAME
 70
     0
  9
$SPLINETYPE
 70
     6
  9
$SPLINESEGS
 70
     8
  9
$ATTDIA
 70
     0
  9
$ATTREQ
 70
     1
  9
$HANDLING
 70
     1
  9
$HANDSEED
  5
19AE
  9
$SURFTAB1
 70
     6
  9
$SURFTAB2
 70
     6
  9
$SURFTYPE
 70
     6
  9
$SURFU
 70
     6
  9
$SURFV
 70
     6
  9
$UCSNAME
  2

  9
$UCSORG
 10
0.0
 20
0.0
 30
0.0
  9
$UCSXDIR
 10
1.0
 20
0.0
 30
0.0
  9
$UCSYDIR
 10
0.0
 20
1.0
 30
0.0
  9
$PUCSNAME
  2

  9
$PUCSORG
 10
0.0
 20
0.0
 30
0.0
  9
$PUCSXDIR
 10
1.0
 20
0.0
 30
0.0
  9
$PUCSYDIR
 10
0.0
 20
1.0
 30
0.0
  9
$USERI1
 70
     0
  9
$USERI2
 70
     1
  9
$USERI3
 70
     0
  9
$USERI4
 70
     0
  9
$USERI5
 70
     0
  9
$USERR1
 40
0.0
  9
$USERR2
 40
0.0
  9
$USERR3
 40
0.0
  9
$USERR4
 40
0.0
  9
$USERR5
 40
0.0
  9
$WORLDVIEW
 70
     1
  9
$SHADEDGE
 70
     3
  9
$SHADEDIF
 70
    70
  9
$TILEMODE
 70
     1
  9
$MAXACTVP
 70
    16
  9
$PLIMCHECK
 70
     0
  9
$PEXTMIN
 10
1.0000000000000000E+020
 20
1.0000000000000000E+020
 30
1.0000000000000000E+020
  9
$PEXTMAX
 10
-1.0000000000000000E+020
 20
-1.0000000000000000E+020
 30
-1.0000000000000000E+020
  9
$PLIMMIN
 10
0.0
 20
0.0
  9
$PLIMMAX
 10
12.0
 20
9.0
  9
$UNITMODE
 70
     0
  9
$VISRETAIN
 70
     0
  9
$PLINEGEN
 70
     0
  9
$PSLTSCALE
 70
     0
  0
ENDSEC
  0
SECTION
  2
TABLES
  0
TABLE
  2
VPORT
 70
     1
  0
VPORT
  2
*ACTIVE
 70
     0
 10
0.0
 20
0.0
 11
1.0
 21
1.0
 12
93.74713919532617
 22
87.458386271734256
 13
0.0
 23
0.0
 14
5.0
 24
5.0
 15
5.0
 25
5.0
 16
0.0
 26
0.0
 36
1.0
 17
0.0
 27
0.0
 37
0.0
 40
179.46013949787169
 41
1.7807262569832401
 42
50.0
 43
0.0
 44
0.0
 50
0.0
 51
0.0
 71
     0
 72
   500
 73
     1
 74
     0
 75
     0
 76
     0
 77
     0
 78
     2
  0
ENDTAB
  0
TABLE
  2
LTYPE
 70
     3
  0
LTYPE
  2
CONTINUOUS
 70
     0
  3
Solid Line
 72
    65
 73
     0
 40
0.0
  0
LTYPE
  2
CENTER
 70
     0
  3
____ _ ____ _ ____ _ ____ _ ____ _ ____ _ ____
 72
    65
 73
     4
 40
2.0
 49
1.25
 49
-0.25
 49
0.25
 49
-0.25
  0
LTYPE
  2
PHANTOM2
 70
     0
  3
___ _ _ ___ _ _ ___ _ _ ___ _ _
 72
    65
 73
     6
 40
1.25
 49
0.625
 49
-0.125
 49
0.125
 49
-0.125
 49
0.125
 49
-0.125
  0
ENDTAB
  0
TABLE
  2
LAYER
 70
     3
  0
LAYER
  2
0
 70
     0
 62
     7
  6
CONTINUOUS
  0
LAYER
  2
1
 70
     0
 62
     1
  6
CENTER
  0
LAYER
  2
3
 70
     0
 62
     3
  6
CONTINUOUS
  0
ENDTAB
  0
TABLE
  2
STYLE
 70
     2
  0
STYLE
  2
STANDARD
 70
     0
 40
0.0
 41
1.0
 50
0.0
 71
     0
 42
0.2
  3
TXT
  4
BIGFONT
  0
STYLE
  2
STANDARD1
 70
     0
 40
0.0
 41
1.0
 50
0.0
 71
     0
 42
3.0
  3
txt
  4

  0
ENDTAB
  0
TABLE
  2
VIEW
 70
     1
  0
VIEW
  2
ALL
 70
     0
 40
270.0
 10
220.99159663865549
 20
135.0
 41
0.0
 11
0.0
 21
0.0
 31
1.0
 12
0.0
 22
0.0
 32
0.0
 42
0.0
 43
0.0
 44
0.0
 50
0.0
 71
     0
  0
ENDTAB
  0
TABLE
  2
UCS
 70
     0
  0
ENDTAB
  0
TABLE
  2
APPID
 70
     3
  0
APPID
  2
ACAD
 70
     0
  0
APPID
  2
ACAD_MLEADERVER
 70
     0
  0
APPID
  2
ACAD_NAV_VCDISPLAY
 70
     0
  0
ENDTAB
  0
TABLE
  2
DIMSTYLE
 70
     1
  0
DIMSTYLE
  2
STANDARD
 70
     0
  3

  4

  5

  6

  7

 40
1.0
 41
0.18
 42
0.0625
 43
0.38
 44
0.18
 45
0.0
 46
0.0
 47
0.0
 48
0.0
140
0.18
141
0.09
142
0.0
143
25.399999999999999
144
1.0
145
0.0
146
1.0
147
0.09
 71
     0
 72
     0
 73
     1
 74
     1
 75
     0
 76
     0
 77
     0
 78
     0
170
     0
171
     2
172
     0
173
     0
174
     0
175
     0
176
     0
177
     0
178
     0
  0
ENDTAB
  0
ENDSEC
  0
SECTION
  2
BLOCKS
  0
BLOCK
  8
0
  2
$MODEL_SPACE
 70
     0
 10
0.0
 20
0.0
 30
0.0
  3
$MODEL_SPACE
  1

  0
ENDBLK
  5
1D4
  8
0
  0
BLOCK
 67
     1
  8
0
  2
$PAPER_SPACE
 70
     0
 10
0.0
 20
0.0
 30
0.0
  3
$PAPER_SPACE
  1

  0
ENDBLK
  5
1D2
 67
     1
  8
0
  0
ENDSEC
  0
SECTION
  2
ENTITIES
  0
LINE
  5
1750
  8
0
 10
113.6600287461045
 20
55.178448963375608
 30
0.0
 11
113.6600287461045
 21
55.110499770943527
 31
0.0
  0
LINE
  5
1751
  8
0
 10
99.660028746104047
 20
55.178448963374642
 30
0.0
 11
113.6600287461046
 21
55.178448963374642
 31
0.0
  0
LINE
  5
1752
  8
0
 10
103.5587847421464
 20
59.378448963374701
 30
0.0
 11
109.76127275006159
 21
59.378448963374701
 31
0.0
  0
ARC
  5
1753
  8
0
 10
107.8470749736902
 20
53.691987245141547
 30
0.0
 40
6.0
 50
14.344031298214601
 51
71.395547344838434
  0
ARC
  5
1754
  8
0
 10
105.4729825185188
 20
53.691987245141547
 30
0.0
 40
6.0
 50
108.6044526551615
 51
165.65596870178541
  0
LINE
  5
1755
  8
0
 10
99.660028746104516
 20
55.178448963375672
 30
0.0
 11
99.660028746104615
 21
55.110499770943527
 31
0.0
  0
LINE
  5
1756
  8
0
 10
110.56002874610429
 20
55.110499770943527
 30
0.0
 11
115.1600287461042
 21
55.110499770943527
 31
0.0
  0
LINE
  5
1757
  8
0
 10
98.160028746104615
 20
55.110499770943527
 30
0.0
 11
102.7600287461044
 21
55.110499770943527
 31
0.0
  0
LINE
  5
1758
  8
0
 10
72.160028746104373
 20
89.878448963374694
 30
0.0
 11
72.160028746104373
 21
93.47844896337466
 31
0.0
  0
LINE
  5
1759
  8
1
 10
77.034536612491991
 20
97.878448963374694
 30
0.0
 11
36.160028746104622
 21
97.878448963374694
 31
0.0
  0
LINE
  5
175A
  8
0
 10
71.660028746104373
 20
89.378448963374694
 30
0.0
 11
41.660028746104501
 21
89.378448963374694
 31
0.0
  0
LINE
  5
175B
  8
0
 10
71.660028746104373
 20
106.37844896337469
 30
0.0
 11
41.660028746104501
 21
106.37844896337469
 31
0.0
  0
LINE
  5
175C
  8
0
 10
41.160028746104501
 20
89.878448963374694
 30
0.0
 11
41.160028746104501
 21
93.47844896337466
 31
0.0
  0
LINE
  5
175D
  8
1
 10
56.660028746104501
 20
84.378448963374694
 30
0.0
 11
56.660028746104501
 21
111.37844896337469
 31
0.0
  0
LINE
  5
175E
  8
0
 10
48.231146136086579
 20
101.7784489633746
 30
0.0
 11
41.660028746104501
 21
101.7784489633746
 31
0.0
  0
LINE
  5
175F
  8
0
 10
48.231146136086579
 20
93.978448963374646
 30
0.0
 11
41.660028746104501
 21
93.978448963374646
 31
0.0
  0
LINE
  5
1760
  8
0
 10
41.160028746104501
 20
102.2784489633747
 30
0.0
 11
41.160028746104501
 21
105.87844896337469
 31
0.0
  0
LINE
  5
1761
  8
0
 10
72.160028746104373
 20
102.2784489633747
 30
0.0
 11
72.160028746104373
 21
105.87844896337469
 31
0.0
  0
LINE
  5
1762
  8
0
 10
69.892079553673341
 20
54.378448963374701
 30
0.0
 11
43.427977938535427
 21
54.378448963374701
 31
0.0
  0
LINE
  5
1763
  8
0
 10
42.892079553673227
 20
52.378448963374687
 30
0.0
 11
70.427977938535435
 21
52.378448963374687
 31
0.0
  0
LINE
  5
1764
  8
1
 10
56.660028746104501
 20
29.378448963374659
 30
0.0
 11
56.660028746104501
 21
64.378448963374694
 31
0.0
  0
LINE
  5
1765
  8
0
 10
65.088911356122424
 20
93.978448963374646
 30
0.0
 11
71.660028746104373
 21
93.978448963374646
 31
0.0
  0
LINE
  5
1766
  8
0
 10
65.088911356122424
 20
101.7784489633746
 30
0.0
 11
71.660028746104373
 21
101.7784489633746
 31
0.0
  0
LINE
  5
1767
  8
0
 10
41.160028746104501
 20
93.47844896337466
 30
0.0
 11
41.660028746104501
 21
93.978448963374646
 31
0.0
  0
LINE
  5
1768
  8
0
 10
41.660028746104501
 20
101.7784489633746
 30
0.0
 11
41.160028746104501
 21
102.2784489633747
 31
0.0
  0
LINE
  5
1769
  8
0
 10
71.660028746104373
 20
101.7784489633746
 30
0.0
 11
72.160028746104373
 21
102.2784489633747
 31
0.0
  0
LINE
  5
176A
  8
0
 10
71.660028746104373
 20
93.978448963374646
 30
0.0
 11
72.160028746104373
 21
93.47844896337466
 31
0.0
  0
LINE
  5
176B
  8
1
 10
106.6600287461045
 20
29.3784489633743
 30
0.0
 11
106.6600287461044
 21
64.378448963374694
 31
0.0
  0
LINE
  5
176C
  8
0
 10
115.1600287461042
 20
52.378448963374687
 30
0.0
 11
115.1600287461041
 21
55.110499770943527
 31
0.0
  0
LINE
  5
176D
  8
0
 10
98.160028746104501
 20
52.378448963374687
 30
0.0
 11
102.7600287461044
 21
52.378448963374687
 31
0.0
  0
LINE
  5
176E
  8
0
 10
98.160028746104501
 20
55.110499770943527
 30
0.0
 11
98.160028746104501
 21
52.378448963374687
 31
0.0
  0
LINE
  5
176F
  8
0
 10
110.56002874610429
 20
54.378448963374701
 30
0.0
 11
102.7600287461043
 21
54.378448963374687
 31
0.0
  0
LINE
  5
1770
  8
0
 10
102.7600287461044
 20
45.678448963374699
 30
0.0
 11
102.7600287461043
 21
55.110499770943527
 31
0.0
  0
LINE
  5
1771
  8
0
 10
104.2600287461044
 20
44.178448963374699
 30
0.0
 11
109.06002874610429
 21
44.178448963374699
 31
0.0
  0
LINE
  5
1772
  8
0
 10
110.56002874610429
 20
52.378448963374687
 30
0.0
 11
115.1600287461042
 21
52.378448963374687
 31
0.0
  0
LINE
  5
1773
  8
0
 10
110.56002874610429
 20
45.678448963374699
 30
0.0
 11
110.56002874610429
 21
55.110499770943527
 31
0.0
  0
LINE
  5
1774
  8
0
 10
66.760028746104524
 20
93.978448963374646
 30
0.0
 11
66.760028746104524
 21
101.7784489633746
 31
0.0
  0
LINE
  5
1775
  8
0
 10
46.560028746104479
 20
93.978448963374646
 30
0.0
 11
46.560028746104479
 21
101.7784489633746
 31
0.0
  0
LINE
  5
1776
  8
0
 10
72.160028746104373
 20
53.378448963374687
 30
0.0
 11
70.427977938535548
 21
52.378448963374687
 31
0.0
  0
LINE
  5
1777
  8
0
 10
71.160028746104388
 20
55.110499770943527
 30
0.0
 11
69.892079553673341
 21
54.378448963374701
 31
0.0
  0
LINE
  5
1778
  8
0
 10
72.160028746104373
 20
53.378448963374687
 30
0.0
 11
71.160028746104388
 21
55.110499770943527
 31
0.0
  0
LINE
  5
1779
  8
0
 10
41.160028746104388
 20
53.378448963374687
 30
0.0
 11
42.160028746104381
 21
55.110499770943527
 31
0.0
  0
LINE
  5
177A
  8
0
 10
42.160028746104381
 20
55.110499770943527
 30
0.0
 11
43.427977938535427
 21
54.378448963374701
 31
0.0
  0
LINE
  5
177B
  8
0
 10
41.160028746104388
 20
53.378448963374687
 30
0.0
 11
42.892079553673227
 21
52.378448963374687
 31
0.0
  0
LINE
  5
177C
  8
0
 10
41.160028746104501
 20
89.878448963374694
 30
0.0
 11
41.660028746104501
 21
89.378448963374694
 31
0.0
  0
LINE
  5
177D
  8
0
 10
41.160028746104501
 20
105.87844896337469
 30
0.0
 11
41.660028746104501
 21
106.37844896337469
 31
0.0
  0
LINE
  5
177E
  8
0
 10
72.160028746104373
 20
89.878448963374694
 30
0.0
 11
71.660028746104373
 21
89.378448963374694
 31
0.0
  0
LINE
  5
177F
  8
0
 10
72.160028746104373
 20
105.87844896337469
 30
0.0
 11
71.660028746104373
 21
106.37844896337469
 31
0.0
  0
LINE
  5
1780
  8
0
 10
69.892079553673454
 20
89.378448963374694
 30
0.0
 11
69.892079553673454
 21
93.978448963374646
 31
0.0
  0
LINE
  5
1781
  8
0
 10
43.427977938535662
 20
89.378448963374694
 30
0.0
 11
43.427977938535662
 21
93.978448963374646
 31
0.0
  0
LINE
  5
1782
  8
0
 10
43.427977938535662
 20
101.7784489633746
 30
0.0
 11
43.427977938535662
 21
106.37844896337469
 31
0.0
  0
LINE
  5
1783
  8
0
 10
69.892079553673454
 20
101.7784489633746
 30
0.0
 11
69.892079553673454
 21
106.37844896337469
 31
0.0
  0
LINE
  5
1784
  8
0
 10
109.06002874610429
 20
44.178448963374699
 30
0.0
 11
110.56002874610429
 21
45.678448963374699
 31
0.0
  0
LINE
  5
1785
  8
0
 10
104.2600287461044
 20
44.178448963374699
 30
0.0
 11
102.7600287461044
 21
45.678448963374699
 31
0.0
  0
LINE
  5
1786
  8
0
 10
49.660028746104381
 20
55.178448963375672
 30
0.0
 11
49.660028746104381
 21
54.378448963374701
 31
0.0
  0
ARC
  5
1787
  8
0
 10
55.47298251851867
 20
53.691987245141547
 30
0.0
 40
6.0
 50
108.6044526551615
 51
165.65596870178541
  0
ARC
  5
1788
  8
0
 10
57.847074973690098
 20
53.691987245141547
 30
0.0
 40
6.0
 50
14.344031298214601
 51
71.395547344838434
  0
LINE
  5
1789
  8
0
 10
53.558784742146308
 20
59.378448963374701
 30
0.0
 11
59.761272750061551
 21
59.378448963374701
 31
0.0
  0
LINE
  5
178A
  8
0
 10
49.660028746103933
 20
55.178448963374642
 30
0.0
 11
63.660028746104501
 21
55.178448963374642
 31
0.0
  0
LINE
  5
178B
  8
0
 10
63.660028746104388
 20
55.178448963375608
 30
0.0
 11
63.660028746104388
 21
54.378448963374701
 31
0.0
  0
LINE
  5
178C
  8
0
 10
60.660028746104388
 20
35.578448963374633
 30
0.0
 11
52.660028746104388
 21
35.57844896337474
 31
0.0
  0
LINE
  5
178D
  8
0
 10
53.860028746104319
 20
34.378448963374701
 30
0.0
 11
52.660028746104388
 21
35.57844896337474
 31
0.0
  0
LINE
  5
178E
  8
0
 10
60.660028746104388
 20
35.578448963374633
 30
0.0
 11
59.460028746104342
 21
34.378448963374638
 31
0.0
  0
LINE
  5
178F
  8
0
 10
60.660028746104388
 20
52.378448963374687
 30
0.0
 11
60.660028746104388
 21
35.578448963374633
 31
0.0
  0
LINE
  5
1790
  8
3
 10
59.983528746104582
 20
52.378448963374687
 30
0.0
 11
59.983528746104462
 21
34.901948963374757
 31
0.0
  0
LINE
  5
1791
  8
3
 10
53.336528746104307
 20
52.378448963374687
 30
0.0
 11
53.336528746104307
 21
34.901948963374821
 31
0.0
  0
LINE
  5
1792
  8
0
 10
52.660028746104388
 20
52.378448963374687
 30
0.0
 11
52.660028746104388
 21
35.57844896337474
 31
0.0
  0
LINE
  5
1793
  8
0
 10
59.460028746104342
 20
34.378448963374638
 30
0.0
 11
53.860028746104319
 21
34.378448963374701
 31
0.0
  0
LINE
  5
1794
  8
0
 10
49.660028746104381
 20
54.378448963374701
 30
0.0
 11
63.660028746104388
 21
54.378448963374701
 31
0.0
  0
CIRCLE
  5
1795
  8
0
 10
56.660028746104501
 20
97.878448963374694
 30
0.0
 40
3.1012440039571478
  0
CIRCLE
  5
1796
  8
0
 10
56.660028746104501
 20
97.878448963374694
 30
0.0
 40
7.0
  0
LINE
  5
1797
  8
0
 10
54.160028746104267
 20
99.321824636348538
 30
0.0
 11
54.160028746104842
 21
96.435073290400851
 31
0.0
  0
LINE
  5
1798
  8
0
 10
56.660028746104501
 20
100.76520030932291
 30
0.0
 11
54.160028746104267
 21
99.321824636348538
 31
0.0
  0
LINE
  5
1799
  8
0
 10
59.160028746104501
 20
99.32182463634939
 30
0.0
 11
56.660028746104501
 21
100.76520030932291
 31
0.0
  0
LINE
  5
179A
  8
0
 10
59.160028746104501
 20
96.435073290400851
 30
0.0
 11
59.160028746104501
 21
99.32182463634939
 31
0.0
  0
LINE
  5
179B
  8
0
 10
56.660028746104842
 20
94.991697617426723
 30
0.0
 11
59.160028746104501
 21
96.435073290400851
 31
0.0
  0
LINE
  5
179C
  8
0
 10
54.160028746104842
 20
96.435073290400851
 30
0.0
 11
56.660028746104842
 21
94.991697617426723
 31
0.0
  0
LINE
  5
179D
  8
0
 10
109.4600287461043
 20
34.378448963374638
 30
0.0
 11
103.86002874610431
 21
34.378448963374701
 31
0.0
  0
LINE
  5
179E
  8
0
 10
102.6600287461044
 20
52.378448963374687
 30
0.0
 11
102.6600287461044
 21
35.57844896337474
 31
0.0
  0
LINE
  5
179F
  8
3
 10
103.33652874610431
 20
45.101948963374753
 30
0.0
 11
103.33652874610431
 21
34.901948963374821
 31
0.0
  0
LINE
  5
17A0
  8
3
 10
109.9835287461044
 20
45.101948963374802
 30
0.0
 11
109.9835287461044
 21
34.901948963374757
 31
0.0
  0
LINE
  5
17A1
  8
0
 10
110.6600287461044
 20
52.378448963374687
 30
0.0
 11
110.6600287461044
 21
35.578448963374633
 31
0.0
  0
LINE
  5
17A2
  8
0
 10
110.6600287461044
 20
35.578448963374633
 30
0.0
 11
109.4600287461043
 21
34.378448963374638
 31
0.0
  0
LINE
  5
17A3
  8
0
 10
103.86002874610431
 20
34.378448963374701
 30
0.0
 11
102.6600287461044
 21
35.57844896337474
 31
0.0
  0
LINE
  5
17A4
  8
0
 10
110.6600287461044
 20
35.578448963374633
 30
0.0
 11
102.6600287461044
 21
35.57844896337474
 31
0.0
  0
LINE
  5
17A5
  8
0
 10
102.7600287461043
 20
54.378448963374687
 30
0.0
 11
110.56002874610429
 21
54.378448963374701
 31
0.0
  0
LINE
  5
17A6
  8
0
 10
48.76002874610441
 20
44.178448963374699
 30
0.0
 11
49.76002874610441
 21
52.378448963374687
 31
0.0
  0
LINE
  5
17A7
  8
0
 10
46.774736991003287
 20
44.420557713996793
 30
0.0
 11
47.745211533610423
 21
52.378448963374687
 31
0.0
  0
LINE
  5
17A8
  8
0
 10
46.774736991003287
 20
44.420557713996793
 30
0.0
 11
48.76002874610441
 21
44.178448963374699
 31
0.0
  0
LINE
  5
17A9
  8
0
 10
66.545320501205481
 20
44.420557713996793
 30
0.0
 11
64.560028746104365
 21
44.178448963374699
 31
0.0
  0
LINE
  5
17AA
  8
0
 10
66.545320501205481
 20
44.420557713996793
 30
0.0
 11
65.574845958598473
 21
52.378448963374687
 31
0.0
  0
LINE
  5
17AB
  8
0
 10
64.560028746104365
 20
44.178448963374699
 30
0.0
 11
63.560028746104358
 21
52.378448963374687
 31
0.0
  0
LINE
  5
186F
  8
0
 10
98.160028746104501
 20
53.378448963375021
 30
0.0
 11
102.7600287461043
 21
53.378448963375071
 31
0.0
  0
LINE
  5
1870
  8
0
 10
110.56002874610429
 20
53.378448963375028
 30
0.0
 11
115.1600287461042
 21
53.378448963375071
 31
0.0
  0
TEXT
  5
1917
  8
0
 62
     3
 10
0.0
 20
0.0
 30
0.0
 40
5.0
  1
SJM40-8
  7
STANDARD1
  0
ENDSEC
  0
EOF
