  0
SECTION
  2
HEADER
  9
$ACADVER
  1
AC1009
  9
$INSBASE
 10
0.0
 20
0.0
 30
0.0
  9
$EXTMIN
 10
0.0
 20
-2.960436562073669
 30
0.0
  9
$EXTMAX
 10
324.0
 20
114.0000000000001
 30
0.0
  9
$LIMMIN
 10
0.0
 20
0.0
  9
$LIMMAX
 10
750.0
 20
540.0
  9
$ORTHOMODE
 70
     1
  9
$REGENMODE
 70
     1
  9
$FILLMODE
 70
     1
  9
$QTEXTMODE
 70
     0
  9
$MIRRTEXT
 70
     0
  9
$DRAGMODE
 70
     2
  9
$LTSCALE
 40
20.0
  9
$OSMODE
 70
    37
  9
$ATTMODE
 70
     1
  9
$TEXTSIZE
 40
6.000000000000048
  9
$TRACEWID
 40
0.05
  9
$TEXTSTYLE
  7
07500
  9
$CLAYER
  8
0
  9
$CELTYPE
  6
BYLAYER
  9
$CECOLOR
 62
   256
  9
$DIMSCALE
 40
2.0
  9
$DIMASZ
 40
3.0
  9
$DIMEXO
 40
2.0
  9
$DIMDLI
 40
10.0
  9
$DIMRND
 40
0.0
  9
$DIMDLE
 40
0.0
  9
$DIMEXE
 40
2.0
  9
$DIMTP
 40
0.0
  9
$DIMTM
 40
0.0
  9
$DIMTXT
 40
3.2000000000000002
  9
$DIMCEN
 40
0.0
  9
$DIMTSZ
 40
0.0
  9
$DIMTOL
 70
     0
  9
$DIMLIM
 70
     0
  9
$DIMTIH
 70
     0
  9
$DIMTOH
 70
     0
  9
$DIMSE1
 70
     0
  9
$DIMSE2
 70
     0
  9
$DIMTAD
 70
     1
  9
$DIMZIN
 70
     0
  9
$DIMBLK
  1

  9
$DIMASO
 70
     0
  9
$DIMSHO
 70
     0
  9
$DIMPOST
  1

  9
$DIMAPOST
  1

  9
$DIMALT
 70
     0
  9
$DIMALTD
 70
     2
  9
$DIMALTF
 40
25.399999999999999
  9
$DIMLFAC
 40
1.0
  9
$DIMTOFL
 70
     1
  9
$DIMTVP
 40
1.6000000000000001
  9
$DIMTIX
 70
     1
  9
$DIMSOXD
 70
     0
  9
$DIMSAH
 70
     0
  9
$DIMBLK1
  1

  9
$DIMBLK2
  1

  9
$DIMSTYLE
  2
STANDARD
  9
$DIMCLRD
 70
     0
  9
$DIMCLRE
 70
     0
  9
$DIMCLRT
 70
     0
  9
$DIMTFAC
 40
1.0
  9
$DIMGAP
 40
0.09
  9
$LUNITS
 70
     2
  9
$LUPREC
 70
     4
  9
$SKETCHINC
 40
0.1
  9
$FILLETRAD
 40
0.0
  9
$AUNITS
 70
     0
  9
$AUPREC
 70
     4
  9
$MENU
  1
E:\r13\win\SUPPORT\ACAD
  9
$ELEVATION
 40
0.0
  9
$PELEVATION
 40
0.0
  9
$THICKNESS
 40
0.0
  9
$LIMCHECK
 70
     0
  9
$BLIPMODE
 70
     0
  9
$CHAMFERA
 40
0.0
  9
$CHAMFERB
 40
0.0
  9
$SKPOLY
 70
     0
  9
$TDCREATE
 40
2449839.7783564809
  9
$TDUPDATE
 40
2458416.5824865391
  9
$TDINDWG
 40
0.0250826042
  9
$TDUSRTIMER
 40
0.0250826042
  9
$USRTIMER
 70
     1
  9
$ANGBASE
 50
0.0
  9
$ANGDIR
 70
     0
  9
$PDMODE
 70
    35
  9
$PDSIZE
 40
0.0
  9
$PLINEWID
 40
0.0
  9
$COORDS
 70
     1
  9
$SPLFRAME
 70
     0
  9
$SPLINETYPE
 70
     6
  9
$SPLINESEGS
 70
     8
  9
$ATTDIA
 70
     0
  9
$ATTREQ
 70
     1
  9
$HANDLING
 70
     1
  9
$HANDSEED
  5
96E
  9
$SURFTAB1
 70
     6
  9
$SURFTAB2
 70
     6
  9
$SURFTYPE
 70
     6
  9
$SURFU
 70
     6
  9
$SURFV
 70
     6
  9
$UCSNAME
  2

  9
$UCSORG
 10
0.0
 20
0.0
 30
0.0
  9
$UCSXDIR
 10
1.0
 20
0.0
 30
0.0
  9
$UCSYDIR
 10
0.0
 20
1.0
 30
0.0
  9
$PUCSNAME
  2

  9
$PUCSORG
 10
0.0
 20
0.0
 30
0.0
  9
$PUCSXDIR
 10
1.0
 20
0.0
 30
0.0
  9
$PUCSYDIR
 10
0.0
 20
1.0
 30
0.0
  9
$USERI1
 70
     0
  9
$USERI2
 70
     1
  9
$USERI3
 70
     0
  9
$USERI4
 70
     0
  9
$USERI5
 70
     0
  9
$USERR1
 40
0.0
  9
$USERR2
 40
0.0
  9
$USERR3
 40
0.0
  9
$USERR4
 40
0.0
  9
$USERR5
 40
0.0
  9
$WORLDVIEW
 70
     1
  9
$SHADEDGE
 70
     3
  9
$SHADEDIF
 70
    70
  9
$TILEMODE
 70
     1
  9
$MAXACTVP
 70
    16
  9
$PLIMCHECK
 70
     0
  9
$PEXTMIN
 10
1.0000000000000000E+020
 20
1.0000000000000000E+020
 30
1.0000000000000000E+020
  9
$PEXTMAX
 10
-1.0000000000000000E+020
 20
-1.0000000000000000E+020
 30
-1.0000000000000000E+020
  9
$PLIMMIN
 10
0.0
 20
0.0
  9
$PLIMMAX
 10
12.0
 20
9.0
  9
$UNITMODE
 70
     0
  9
$VISRETAIN
 70
     0
  9
$PLINEGEN
 70
     0
  9
$PSLTSCALE
 70
     0
  0
ENDSEC
  0
SECTION
  2
TABLES
  0
TABLE
  2
VPORT
 70
     1
  0
VPORT
  2
*ACTIVE
 70
     0
 10
0.0
 20
0.0
 11
1.0
 21
1.0
 12
196.98179690217
 22
55.528616166461013
 13
0.0
 23
0.0
 14
20.0
 24
20.0
 15
20.0
 25
20.0
 16
0.0
 26
0.0
 36
1.0
 17
0.0
 27
0.0
 37
0.0
 40
188.74790442310189
 41
2.0984455958549222
 42
50.0
 43
0.0
 44
0.0
 50
0.0
 51
0.0
 71
     0
 72
   500
 73
     1
 74
     0
 75
     0
 76
     0
 77
     0
 78
     2
  0
ENDTAB
  0
TABLE
  2
LTYPE
 70
     5
  0
LTYPE
  2
CONTINUOUS
 70
     0
  3
Solid Line
 72
    65
 73
     0
 40
0.0
  0
LTYPE
  2
CENTER
 70
     0
  3
____ _ ____ _ ____ _ ____ _ ____ _ ____ _ ____
 72
    65
 73
     4
 40
2.0
 49
1.25
 49
-0.25
 49
0.25
 49
-0.25
  0
LTYPE
  2
PHANTOM
 70
     0
  3
_____ _ _ _____ _ _ _____ _ _ _____ _ _ ____
 72
    65
 73
     6
 40
2.5
 49
1.25
 49
-0.25
 49
0.25
 49
-0.25
 49
0.25
 49
-0.25
  0
LTYPE
  2
HIDDEN
 70
     0
  3
_ _ _ _ _ _ _ _ _ _ _ _ _ _ _ _ _ _ _ _ _ _ _
 72
    65
 73
     2
 40
0.375
 49
0.25
 49
-0.125
  0
LTYPE
  2
PHANTOM2
 70
     0
  3
___ _ _ ___ _ _ ___ _ _ ___ _ _
 72
    65
 73
     6
 40
1.25
 49
0.625
 49
-0.125
 49
0.125
 49
-0.125
 49
0.125
 49
-0.125
  0
ENDTAB
  0
TABLE
  2
LAYER
 70
     4
  0
LAYER
  2
0
 70
     0
 62
     7
  6
CONTINUOUS
  0
LAYER
  2
1
 70
     0
 62
     1
  6
CENTER
  0
LAYER
  2
5
 70
     0
 62
     3
  6
PHANTOM
  0
LAYER
  2
2
 70
     0
 62
     2
  6
HIDDEN
  0
ENDTAB
  0
TABLE
  2
STYLE
 70
     3
  0
STYLE
  2
STANDARD
 70
     0
 40
0.0
 41
1.0
 50
0.0
 71
     0
 42
4.000000000000048
  3
ROMANS
  4
BIGFONT
  0
STYLE
  2
07500
 70
     0
 40
0.0
 41
0.75
 50
0.0
 71
     0
 42
6.000000000000048
  3
ROMANS
  4
BIGFONT
  0
STYLE
  2
STANDARD1
 70
     0
 40
0.0
 41
1.0
 50
0.0
 71
     0
 42
3.0
  3
txt
  4

  0
ENDTAB
  0
TABLE
  2
VIEW
 70
     1
  0
VIEW
  2
ALL
 70
     0
 40
540.66666666666674
 10
442.5288515406163
 20
269.66666666666669
 41
0.0
 11
0.0
 21
0.0
 31
1.0
 12
0.0
 22
0.0
 32
0.0
 42
0.0
 43
0.0
 44
0.0
 50
0.0
 71
     0
  0
ENDTAB
  0
TABLE
  2
UCS
 70
     0
  0
ENDTAB
  0
TABLE
  2
APPID
 70
     4
  0
APPID
  2
ACAD
 70
     0
  0
APPID
  2
ACAD_MLEADERVER
 70
     0
  0
APPID
  2
ACAD_EXEMPT_FROM_CAD_STANDARDS
 70
     0
  0
APPID
  2
ACAD_NAV_VCDISPLAY
 70
     0
  0
ENDTAB
  0
TABLE
  2
DIMSTYLE
 70
     1
  0
DIMSTYLE
  2
STANDARD
 70
     0
  3

  4

  5

  6

  7

 40
1.0
 41
0.18
 42
0.0625
 43
0.38
 44
0.18
 45
0.0
 46
0.0
 47
0.0
 48
0.0
140
0.18
141
0.09
142
0.0
143
25.399999999999999
144
1.0
145
0.0
146
1.0
147
0.09
 71
     0
 72
     0
 73
     1
 74
     1
 75
     0
 76
     0
 77
     0
 78
     0
170
     0
171
     2
172
     0
173
     0
174
     0
175
     0
176
     0
177
     0
178
     0
  0
ENDTAB
  0
ENDSEC
  0
SECTION
  2
BLOCKS
  0
BLOCK
  8
0
  2
$MODEL_SPACE
 70
     0
 10
0.0
 20
0.0
 30
0.0
  3
$MODEL_SPACE
  1

  0
ENDBLK
  5
216
  8
0
  0
BLOCK
 67
     1
  8
0
  2
$PAPER_SPACE
 70
     0
 10
0.0
 20
0.0
 30
0.0
  3
$PAPER_SPACE
  1

  0
ENDBLK
  5
214
 67
     1
  8
0
  0
ENDSEC
  0
SECTION
  2
ENTITIES
  0
LINE
  5
37
  8
1
 10
146.4427898900795
 20
105.5800000000032
 30
0.0
 11
162.75721010992049
 21
105.5800000000032
 31
0.0
  0
LINE
  5
38
  8
1
 10
146.4427898900795
 20
28.42000000000311
 30
0.0
 11
162.75721010992049
 21
28.42000000000311
 31
0.0
  0
LINE
  5
39
  8
1
 10
162.0
 20
31.000000000000028
 30
0.0
 11
162.0
 21
103.0
 31
0.0
  0
LINE
  5
3A
  8
2
 10
159.5
 20
75.750000000000085
 30
0.0
 11
164.49999999999989
 21
75.750000000000085
 31
0.0
  0
CIRCLE
  5
3B
  8
2
 10
161.99999999999989
 20
79.500000000000085
 30
0.0
 40
2.4999999999999849
  0
LINE
  5
3C
  8
2
 10
159.5
 20
83.250000000000085
 30
0.0
 11
164.49999999999989
 21
83.250000000000085
 31
0.0
  0
LINE
  5
3D
  8
2
 10
159.5
 20
58.249999999999972
 30
0.0
 11
164.49999999999989
 21
58.249999999999972
 31
0.0
  0
LINE
  5
3E
  8
2
 10
159.5
 20
50.749999999999972
 30
0.0
 11
164.49999999999989
 21
50.749999999999972
 31
0.0
  0
CIRCLE
  5
3F
  8
2
 10
161.99999999999989
 20
54.499999999999972
 30
0.0
 40
2.4999999999999849
  0
ARC
  5
40
  8
0
 10
46.125000000000099
 20
67.0
 30
0.0
 40
15.875
 50
209.22835467108411
 51
150.7716453289155
  0
LINE
  5
41
  8
0
 10
31.633759289022681
 20
69.70948282940617
 30
0.0
 11
29.76586432228634
 21
70.038843109171353
 31
0.0
  0
CIRCLE
  5
42
  8
0
 10
31.98105656927412
 20
71.679098172342606
 30
0.0
 40
1.25
  0
ARC
  5
43
  8
0
 10
31.98105656927412
 20
71.679098172342606
 30
0.0
 40
2.0
 50
259.99997309429932
 51
35.000063299780713
  0
LINE
  5
44
  8
0
 10
33.619360657852077
 20
72.826251045044714
 30
0.0
 11
32.271196471269143
 21
74.751629040874263
 31
0.0
  0
LINE
  5
45
  8
0
 10
33.619360657852077
 20
61.173748954955272
 30
0.0
 11
32.271196471269143
 21
59.248370959125737
 31
0.0
  0
ARC
  5
46
  8
0
 10
31.98105656927412
 20
62.320901827657387
 30
0.0
 40
2.0
 50
324.99993670021928
 51
100.00002690570101
  0
CIRCLE
  5
47
  8
0
 10
31.98105656927412
 20
62.320901827657387
 30
0.0
 40
1.25
  0
LINE
  5
48
  8
0
 10
31.633759289022681
 20
64.29051717059383
 30
0.0
 11
29.76586432228634
 21
63.961156890828647
 31
0.0
  0
CIRCLE
  5
49
  8
0
 10
47.000000000000043
 20
67.0
 30
0.0
 40
18.077350269189541
  0
LINE
  5
4A
  8
0
 10
158.1999999999999
 20
31.297464072602761
 30
0.0
 11
158.1999999999999
 21
102.7025359274094
 31
0.0
  0
CIRCLE
  5
51
  8
0
 10
47.000000000000043
 20
67.0
 30
0.0
 40
17.499999999999741
  0
CIRCLE
  5
52
  8
0
 10
47.000000000000043
 20
67.0
 30
0.0
 40
7.5
  0
CIRCLE
  5
C4
  8
5
 10
47.000000000000007
 20
67.0
 30
0.0
 40
38.579999999999998
  0
LINE
  5
C5
  8
2
 10
172.0
 20
53.000000000000028
 30
0.0
 11
173.0
 21
52.000000000000021
 31
0.0
  0
LINE
  5
C6
  8
2
 10
172.0
 20
81.000000000000028
 30
0.0
 11
173.0
 21
82.000000000000014
 31
0.0
  0
LINE
  5
C7
  8
2
 10
172.0
 20
52.999999999999972
 30
0.0
 11
171.99999999999989
 21
81.000000000000028
 31
0.0
  0
LINE
  5
C8
  8
2
 10
152.0
 20
84.500000000000014
 30
0.0
 11
150.99999999999989
 21
85.077350269189679
 31
0.0
  0
LINE
  5
C9
  8
2
 10
151.9999999999996
 20
49.499999999999922
 30
0.0
 11
150.99999999999949
 21
48.922649730810257
 31
0.0
  0
LINE
  5
CA
  8
2
 10
151.99999999999989
 20
49.500000000000021
 30
0.0
 11
151.99999999999989
 21
84.500000000000014
 31
0.0
  0
LINE
  5
CB
  8
2
 10
154.74999999999989
 20
84.500000000000014
 30
0.0
 11
151.99999999999989
 21
84.500000000000014
 31
0.0
  0
LINE
  5
CC
  8
2
 10
154.74999999999989
 20
49.500000000000021
 30
0.0
 11
151.99999999999989
 21
49.500000000000021
 31
0.0
  0
LINE
  5
CD
  8
2
 10
154.74999999999989
 20
85.499999999999915
 30
0.0
 11
154.74999999999989
 21
48.499999999999972
 31
0.0
  0
LINE
  5
CE
  8
2
 10
156.49999999999989
 20
48.500000000000028
 30
0.0
 11
154.74999999999989
 21
48.499999999999972
 31
0.0
  0
LINE
  5
CF
  8
2
 10
156.49999999999989
 20
85.500000000000014
 30
0.0
 11
154.74999999999989
 21
85.500000000000014
 31
0.0
  0
LINE
  5
D0
  8
2
 10
171.99999999999989
 20
81.000000000000028
 30
0.0
 11
167.49999999999989
 21
81.000000000000028
 31
0.0
  0
LINE
  5
D1
  8
2
 10
172.0
 20
52.999999999999972
 30
0.0
 11
167.5
 21
53.000000000000028
 31
0.0
  0
LINE
  5
D2
  8
2
 10
167.5
 20
84.500000000000014
 30
0.0
 11
167.49999999999989
 21
49.500000000000021
 31
0.0
  0
LINE
  5
D3
  8
2
 10
156.49999999999989
 20
85.500000000000014
 30
0.0
 11
156.49999999999989
 21
48.500000000000028
 31
0.0
  0
LINE
  5
D4
  8
2
 10
167.49999999999989
 20
84.500000000000014
 30
0.0
 11
156.49999999999989
 21
84.500000000000014
 31
0.0
  0
LINE
  5
D5
  8
2
 10
167.49999999999989
 20
49.499999999999972
 30
0.0
 11
156.49999999999989
 21
49.500000000000021
 31
0.0
  0
LINE
  5
D6
  8
2
 10
167.49999999999989
 20
74.500000000000014
 30
0.0
 11
156.5
 21
74.500000000000014
 31
0.0
  0
LINE
  5
D7
  8
2
 10
167.49999999999989
 20
59.500000000000021
 30
0.0
 11
156.49999999999989
 21
59.500000000000021
 31
0.0
  0
LINE
  5
D8
  8
0
 10
159.1999999999999
 20
97.999999999999972
 30
0.0
 11
170.99999999999989
 21
98.000000000000014
 31
0.0
  0
LINE
  5
D9
  8
0
 10
159.1999999999999
 20
36.000000000000028
 30
0.0
 11
170.9999999999938
 21
36.000000000000028
 31
0.0
  0
LINE
  5
DA
  8
0
 10
172.99999999999989
 20
96.0
 30
0.0
 11
172.99999999999989
 21
38.000000000006068
 31
0.0
  0
LINE
  5
DB
  8
0
 10
150.99999999999989
 20
102.7025359274093
 30
0.0
 11
151.0
 21
31.297464072596739
 31
0.0
  0
CIRCLE
  5
DE
  8
5
 10
277.0
 20
67.0
 30
0.0
 40
38.579999999999998
  0
CIRCLE
  5
150
  8
0
 10
277.0
 20
67.0
 30
0.0
 40
7.5
  0
CIRCLE
  5
151
  8
0
 10
277.0
 20
67.0
 30
0.0
 40
13.99999999999994
  0
CIRCLE
  5
152
  8
0
 10
277.0
 20
67.0
 30
0.0
 40
14.999999999999909
  0
LINE
  5
15C
  8
1
 10
145.99999999999989
 20
67.000000000003041
 30
0.0
 11
177.99999999999989
 21
67.000000000003041
 31
0.0
  0
LINE
  5
15E
  8
1
 10
94.000000000000014
 20
67.0
 30
0.0
 11
0.0
 21
67.0
 31
0.0
  0
LINE
  5
15F
  8
1
 10
47.000000000000007
 20
114.0
 30
0.0
 11
47.000000000000007
 21
20.0
 31
0.0
  0
TEXT
  5
2C9
  8
0
 62
     3
 10
0.0
 20
0.0
 30
0.0
 40
10.0
  1
SIS419S
  7
STANDARD1
  0
CIRCLE
  5
398
  8
5
 10
277.0
 20
67.0
 30
0.0
 40
38.579999999999998
  0
LINE
  5
3F9
  8
1
 10
154.59999999999999
 20
114.0000000000001
 30
0.0
 11
154.60000000000011
 21
20.000000000000028
 31
0.0
  0
ARC
  5
3FA
  8
0
 10
144.71345298246459
 20
102.10000000000591
 30
0.0
 40
13.5
 50
2.558091683600455
 51
30.737868672099911
  0
ARC
  5
3FB
  8
0
 10
164.4865470175354
 20
102.10000000000591
 30
0.0
 40
13.5
 50
149.26213132790011
 51
177.44190831640611
  0
LINE
  5
3FC
  8
0
 10
152.88309925404371
 20
109.0000000000001
 30
0.0
 11
156.3169007459563
 21
109.0000000000001
 31
0.0
  0
LINE
  5
3FD
  8
0
 10
152.8830992540436
 20
25.0
 30
0.0
 11
156.31690074595639
 21
25.0
 31
0.0
  0
ARC
  5
3FE
  8
0
 10
164.4865470175354
 20
31.899999999994151
 30
0.0
 40
13.5
 50
182.5580916835938
 51
210.7378686720981
  0
ARC
  5
3FF
  8
0
 10
144.71345298246459
 20
31.899999999994151
 30
0.0
 40
13.5
 50
329.26213132790178
 51
357.44190831639958
  0
LINE
  5
529
  8
1
 10
324.0
 20
67.0
 30
0.0
 11
230.0
 21
67.0
 31
0.0
  0
LINE
  5
52A
  8
1
 10
277.0
 20
114.0
 30
0.0
 11
277.0
 21
20.0
 31
0.0
  0
ARC
  5
5CA
  8
0
 10
159.1999999999999
 20
98.999999999999986
 30
0.0
 40
1.0
 50
180.0
 51
270.0
  0
LINE
  5
5CC
  8
0
 10
170.99999999999989
 20
98.000000000000043
 30
0.0
 11
172.99999999999989
 21
96.000000000000028
 31
0.0
  0
ARC
  5
5CD
  8
0
 10
159.1999999999999
 20
35.000000000006111
 30
0.0
 40
1.0
 50
90.000000000000028
 51
180.0
  0
LINE
  5
5CE
  8
0
 10
170.99999999999989
 20
36.000000000006047
 30
0.0
 11
172.99999999999989
 21
38.000000000006061
 31
0.0
  0
CIRCLE
  5
5CF
  8
0
 10
276.99999999999989
 20
67.000000000003041
 30
0.0
 40
28.999999999996959
  0
CIRCLE
  5
5D0
  8
0
 10
277.0
 20
67.0
 30
0.0
 40
30.999999999999989
  0
LINE
  5
5D1
  8
0
 10
170.99999999999989
 20
98.000000000000043
 30
0.0
 11
170.9999999999938
 21
36.000000000000028
 31
0.0
  0
ARC
  5
7BB
  8
0
 10
47.000000000001528
 20
105.50569999999909
 30
0.0
 40
4.0278500000000212
 50
218.15773815798471
 51
321.84226197875262
  0
ARC
  5
7BC
  8
0
 10
51.994600000003643
 20
109.4301000000092
 30
0.0
 40
10.37977447374023
 50
199.82671322312291
 51
218.1577351322976
  0
ARC
  5
7BD
  8
0
 10
36.03560000000104
 20
103.6761000000071
 30
0.0
 40
6.584841554926796
 50
19.826713223131769
 51
47.067378414510713
  0
ARC
  5
7BE
  8
0
 10
46.99999999999924
 20
67.000000000007319
 30
0.0
 40
41.999999999991999
 50
98.87428890943994
 51
100.0730795105578
  0
ARC
  5
7BF
  8
0
 10
45.461608363105967
 20
105.2490225985206
 30
0.0
 40
6.5848415549260091
 50
151.8799900054959
 51
179.1206551968769
  0
ARC
  5
7C0
  8
0
 10
28.498990670339548
 20
105.5093761390165
 30
0.0
 40
10.379774059847019
 50
340.78963275797781
 51
359.12065538000519
  0
ARC
  5
7C1
  8
0
 10
34.497219636603191
 20
103.4193549596167
 30
0.0
 40
4.0278499999999902
 50
237.10510659798371
 51
340.78963041875249
  0
ARC
  5
7C2
  8
0
 10
37.946947833289897
 20
108.75286411298831
 30
0.0
 40
10.37977447374128
 50
218.77408166312429
 51
237.105103572297
  0
ARC
  5
7C3
  8
0
 10
24.720971222304161
 20
98.128752870827682
 30
0.0
 40
6.5848415549269381
 50
38.774081663133877
 51
66.014746854511415
  0
ARC
  5
7C4
  8
0
 10
46.999999999980169
 20
67.000000000036053
 30
0.0
 40
41.999999999957758
 50
117.8216573494383
 51
119.02044795055861
  0
ARC
  5
7C5
  8
0
 10
33.125525318201603
 20
102.6770700993611
 30
0.0
 40
6.5848415549259078
 50
170.82735844549811
 51
198.06802363687731
  0
ARC
  5
7C6
  8
0
 10
16.997451981568389
 20
97.415563903575375
 30
0.0
 40
10.37977447374125
 50
359.73700178076382
 51
18.068023636877019
  0
ARC
  5
7C7
  8
0
 10
23.349309539496929
 20
97.386407705277207
 30
0.0
 40
4.027849999999999
 50
256.05247501798323
 51
359.73699883875338
  0
ARC
  5
7C8
  8
0
 10
24.880334356119661
 20
103.5510575356404
 30
0.0
 40
10.37977447374108
 50
237.72145008312231
 51
256.05247199229461
  0
ARC
  5
7C9
  8
0
 10
15.82062091995617
 20
89.208122359926904
 30
0.0
 40
6.584841554926335
 50
57.721450083118548
 51
84.962115274497705
  0
ARC
  5
7CA
  8
0
 10
46.999999999997272
 20
66.999999999999076
 30
0.0
 40
41.999999999997208
 50
136.76902576943559
 51
137.9678163705548
  0
ARC
  5
7CB
  8
0
 10
22.292956902913321
 20
96.238953469117874
 30
0.0
 40
6.5848415549268591
 50
189.77472686549939
 51
217.015392056877
  0
ARC
  5
7CC
  8
0
 10
8.7471553345157531
 20
86.025753340379666
 30
0.0
 40
10.3797744737388
 50
18.684370200761322
 51
37.01539205687736
  0
ARC
  5
7CD
  8
0
 10
14.76431873177769
 20
88.060621682738244
 30
0.0
 40
4.0278499999999999
 50
274.99984343798349
 51
18.684367258752591
  0
ARC
  5
7CE
  8
0
 10
14.21072987317595
 20
94.388376726650392
 30
0.0
 40
10.37977447374206
 50
256.66881850312069
 51
274.99984041229237
  0
ARC
  5
7CF
  8
0
 10
10.29904013847344
 20
77.880897197068421
 30
0.0
 40
6.5848415549260997
 50
76.668818503119113
 51
103.90948369449769
  0
ARC
  5
7D0
  8
0
 10
47.000000000013749
 20
66.999999999995183
 30
0.0
 40
42.000000000012911
 50
155.7163941894417
 51
156.9151847905604
  0
ARC
  5
7D1
  8
0
 10
14.13777997617238
 20
86.632342541735994
 30
0.0
 40
6.5848415549266122
 50
208.722095285498
 51
235.9627604768761
  0
ARC
  5
7D2
  8
0
 10
4.6421479605512843
 20
72.57420718800104
 30
0.0
 40
10.3797744737379
 50
37.631738620760167
 51
55.962760476878003
  0
ARC
  5
7D3
  8
0
 10
9.6725641772169553
 20
76.452590511910316
 30
0.0
 40
4.0278500000000053
 50
293.94721185798352
 51
37.631735678751781
  0
ARC
  5
7D4
  8
0
 10
7.094351586030001
 20
82.257740325194575
 30
0.0
 40
10.37977447373464
 50
275.61618692312231
 51
293.94720883230451
  0
ARC
  5
7D5
  8
0
 10
8.7545778316168281
 20
65.374557988521104
 30
0.0
 40
6.5848415549262578
 50
95.616186923120623
 51
122.8568521145009
  0
ARC
  5
7D6
  8
0
 10
46.999999999984098
 20
66.999999999999943
 30
0.0
 40
41.999999999982563
 50
174.6637626094392
 51
175.86255321055819
  0
ARC
  5
7D7
  8
0
 10
9.5437344985024861
 20
74.898262673010379
 30
0.0
 40
6.5848415549267969
 50
227.66946370550329
 51
254.9101288968802
  0
ARC
  5
7D8
  8
0
 10
5.1272711043497594
 20
58.518609194136523
 30
0.0
 40
10.379774473733431
 50
56.579107040754103
 51
74.910128896878547
  0
ARC
  5
7D9
  8
0
 10
8.6258164884528838
 20
63.82022448717548
 30
0.0
 40
4.0278500000000017
 50
312.8945802779831
 51
56.57910409875312
  0
ARC
  5
7DA
  8
0
 10
4.3023695039930479
 20
68.473691011465704
 30
0.0
 40
10.379774473742151
 50
294.5635553431265
 51
312.89457725229681
  0
ARC
  5
7DB
  8
0
 10
11.35460045511822
 20
53.044360643229773
 30
0.0
 40
6.5848415549269124
 50
114.5635553431284
 51
141.8042205345065
  0
ARC
  5
7DC
  8
0
 10
47.000000000013522
 20
66.999999999999432
 30
0.0
 40
42.000000000011582
 50
193.6111310294371
 51
194.80992163055461
  0
ARC
  5
7DD
  8
0
 10
9.0086565813151651
 20
62.308283489584049
 30
0.0
 40
6.5848415549255286
 50
246.61683212549599
 51
273.85749731687753
  0
ARC
  5
7DE
  8
0
 10
10.149954145821759
 20
45.382101496317517
 30
0.0
 40
10.37977447373626
 50
75.52647546075795
 51
93.857497316880739
  0
ARC
  5
7DF
  8
0
 10
11.737507019514471
 20
51.532436478518079
 30
0.0
 40
4.0278499999999946
 50
331.84194869798381
 51
75.526472518752726
  0
ARC
  5
7E0
  8
0
 10
6.1373382076921521
 20
54.529944409981518
 30
0.0
 40
10.379774473739699
 50
313.51092376312181
 51
331.84194567229628
  0
ARC
  5
7E1
  8
0
 10
17.817355214240699
 20
42.226473366134101
 30
0.0
 40
6.584841554925819
 50
133.5109237631128
 51
160.7515889544913
  0
ARC
  5
7E2
  8
0
 10
46.999999999996191
 20
67.000000000002032
 30
0.0
 40
41.999999999996781
 50
212.5584994494468
 51
213.7572900505661
  0
ARC
  5
7E3
  8
0
 10
12.59053021952046
 20
50.226724589489912
 30
0.0
 40
6.5848415549266086
 50
265.56420054550199
 51
292.80486573687921
  0
ARC
  5
7E4
  8
0
 10
19.165911442528738
 20
34.588228537378122
 30
0.0
 40
10.379774473731571
 50
94.473843880752625
 51
112.8048657368811
  0
ARC
  5
7E5
  8
0
 10
18.670435818545009
 20
40.920798981204868
 30
0.0
 40
4.027849999999999
 50
350.78931711798339
 51
94.473840938752403
  0
ARC
  5
7E6
  8
0
 10
12.40041036562414
 20
41.93752182437759
 30
0.0
 40
10.3797744737406
 50
332.45829218312258
 51
350.78931409229529
  0
ARC
  5
7E7
  8
0
 10
27.44250235094367
 20
34.093182100393598
 30
0.0
 40
6.5848415549258714
 50
152.45829218311241
 51
179.69895737449181
  0
ARC
  5
7E8
  8
0
 10
46.999999999983423
 20
66.999999999970356
 30
0.0
 40
41.999999999965823
 50
231.5058678694339
 51
232.7046584705547
  0
ARC
  5
7E9
  8
0
 10
19.901203825965052
 20
39.962810344107282
 30
0.0
 40
6.5848415549268049
 50
284.51156896550208
 51
311.75223415687998
  0
ARC
  5
7EA
  8
0
 10
31.198124124491301
 20
27.306673936471089
 30
0.0
 40
10.379774473735569
 50
113.4212123007575
 51
131.75223415687961
  0
ARC
  5
7EB
  8
0
 10
28.673312474777902
 20
33.135247574464572
 30
0.0
 40
4.0278499999999919
 50
9.7366855379826305
 51
113.4212093587516
  0
ARC
  5
7EC
  8
0
 10
22.412884927981828
 20
32.061007633219603
 30
0.0
 40
10.3797744737362
 50
351.40566060312142
 51
9.7366825123014422
  0
ARC
  5
7ED
  8
0
 10
39.187007823531928
 20
29.525855155572241
 30
0.0
 40
6.5848415549259034
 50
171.4056606031163
 51
198.64632579449719
  0
ARC
  5
7EE
  8
0
 10
47.00000000000054
 20
66.999999999998934
 30
0.0
 40
41.999999999999041
 50
250.45323628944209
 51
251.65202689056079
  0
ARC
  5
7EF
  8
0
 10
30.148452478689968
 20
32.628795122840991
 30
0.0
 40
6.5848415549268111
 50
303.45893738549881
 51
330.69960257687762
  0
ARC
  5
7F0
  8
0
 10
44.942715248746218
 20
24.326507119488259
 30
0.0
 40
10.37977447373965
 50
132.36858072076251
 51
150.69960257687711
  0
ARC
  5
7F1
  8
0
 10
40.662170092006562
 20
29.019467558401558
 30
0.0
 40
4.0278500000000097
 50
28.684053957983071
 51
132.36857777875389
  0
ARC
  5
7F2
  8
0
 10
35.08975491649224
 20
25.97067539891157
 30
0.0
 40
10.379774473737831
 50
10.35302902312012
 51
28.68405093229871
  0
ARC
  5
7F3
  8
0
 10
51.778172229411283
 20
29.019433275464131
 30
0.0
 40
6.58484155492539
 50
190.3530290231067
 51
217.59369421448599
  0
ARC
  5
7F4
  8
0
 10
46.999999999997783
 20
67.000000000023704
 30
0.0
 40
42.000000000024073
 50
269.40060470944451
 51
270.59939531056369
  0
ARC
  5
7F5
  8
0
 10
42.221827783848973
 20
29.019433273797851
 30
0.0
 40
6.5848415549262533
 50
322.40630580550243
 51
349.64697099687902
  0
ARC
  5
7F6
  8
0
 10
58.910245097831726
 20
25.970675403068899
 30
0.0
 40
10.37977447373679
 50
151.31594914075831
 51
169.64697099687871
  0
ARC
  5
7F7
  8
0
 10
53.337829921254311
 20
29.019467560613631
 30
0.0
 40
4.0278499999999928
 50
47.631422377983753
 51
151.3159461987521
  0
ARC
  5
7F8
  8
0
 10
49.057284766153899
 20
24.326507120206781
 30
0.0
 40
10.37977447373841
 50
29.300397443123149
 51
47.631419352299517
  0
ARC
  5
7F9
  8
0
 10
63.851547533310622
 20
32.628795128722203
 30
0.0
 40
6.5848415549260277
 50
209.30039744311759
 51
236.5410626344966
  0
ARC
  5
7FA
  8
0
 10
47.00000000000216
 20
66.99999999998586
 30
0.0
 40
41.999999999986777
 50
288.34797312944551
 51
289.54676373056498
  0
ARC
  5
7FB
  8
0
 10
54.812992189550883
 20
29.525855158300018
 30
0.0
 40
6.584841554927122
 50
341.35367422550189
 51
8.5943394168779594
  0
ARC
  5
7FC
  8
0
 10
71.587115084219178
 20
32.06100764180232
 30
0.0
 40
10.37977447373804
 50
170.26331756076161
 51
188.5943394168778
  0
ARC
  5
7FD
  8
0
 10
65.326687537046226
 20
33.13524758086173
 30
0.0
 40
4.0278500000000026
 50
66.578790797982975
 51
170.2633146187523
  0
ARC
  5
7FE
  8
0
 10
62.801875889365888
 20
27.30667394198511
 30
0.0
 40
10.379774473737831
 50
48.247765863120812
 51
66.578787772298327
  0
ARC
  5
7FF
  8
0
 10
74.098796183475059
 20
39.962810353566191
 30
0.0
 40
6.5848415549261832
 50
228.24776586312501
 51
255.48843105450331
  0
ARC
  5
800
  8
0
 10
47.0
 20
67.0
 30
0.0
 40
42.000000000001279
 50
307.29534154944253
 51
308.49413215056097
  0
ARC
  5
801
  8
0
 10
66.557497660545465
 20
34.093182107221033
 30
0.0
 40
6.5848415549260606
 50
0.3010426455001246
 51
27.54170783688053
  0
ARC
  5
802
  8
0
 10
81.599589643119998
 20
41.937521836451857
 30
0.0
 40
10.37977447373261
 50
189.2106859807526
 51
207.54170783688051
  0
ARC
  5
803
  8
0
 10
75.329564190561555
 20
40.920798991093918
 30
0.0
 40
4.0278499999999973
 50
85.526159217984144
 51
189.21068303875239
  0
ARC
  5
804
  8
0
 10
74.834088568785887
 20
34.588228547089088
 30
0.0
 40
10.379774473736861
 50
67.195134283117753
 51
85.526156192297236
  0
ARC
  5
805
  8
0
 10
81.409469786337141
 20
50.22672460150126
 30
0.0
 40
6.5848415549267667
 50
247.19513428312661
 51
274.43579947450468
  0
ARC
  5
806
  8
0
 10
47.000000000006111
 20
66.999999999994813
 30
0.0
 40
41.999999999993577
 50
326.24270996944318
 51
327.4415005705618
  0
ARC
  5
807
  8
0
 10
76.182644794408759
 20
42.226473376321337
 30
0.0
 40
6.5848415549261752
 50
19.248411065495919
 51
46.48907625687572
  0
ARC
  5
808
  8
0
 10
87.862661796665634
 20
54.529944424246651
 30
0.0
 40
10.379774473742019
 50
208.15805440076559
 51
226.48907625687579
  0
ARC
  5
809
  8
0
 10
82.262492985887789
 20
51.532436490826953
 30
0.0
 40
4.0278499999999999
 50
104.4735276379827
 51
208.15805145875319
  0
ARC
  5
80A
  8
0
 10
83.850045861726528
 20
45.382101509184011
 30
0.0
 40
10.379774473732709
 50
86.14250270311625
 51
104.473524612302
  0
ARC
  5
80B
  8
0
 10
84.991343420326089
 20
62.308283502845683
 30
0.0
 40
6.5848415549259336
 50
266.14250270311459
 51
293.3831678944955
  0
ARC
  5
80C
  8
0
 10
46.999999999985327
 20
67.000000000000128
 30
0.0
 40
42.000000000015831
 50
345.19007838944498
 51
346.38886899056399
  0
ARC
  5
80D
  8
0
 10
82.645399549757784
 20
53.044360655672733
 30
0.0
 40
6.5848415549259656
 50
38.195779485502548
 51
65.436444676880342
  0
ARC
  5
80E
  8
0
 10
89.697630495494025
 20
68.473691026368002
 30
0.0
 40
10.379774473739671
 50
227.1054228207621
 51
245.43644467687841
  0
ARC
  5
80F
  8
0
 10
85.374183512660025
 20
63.820224500570617
 30
0.0
 40
4.0278500000000017
 50
123.420896057983
 51
227.10541987875339
  0
ARC
  5
810
  8
0
 10
88.872728898617922
 20
58.518609208742859
 30
0.0
 40
10.379774473744099
 50
105.08987112312791
 51
123.4208930322938
  0
ARC
  5
811
  8
0
 10
84.456265498743747
 20
74.898262686084465
 30
0.0
 40
6.5848415549261912
 50
285.08987112311951
 51
312.33053631450008
  0
ARC
  5
812
  8
0
 10
46.999999999977881
 20
66.999999999999986
 30
0.0
 40
42.000000000023597
 50
4.1374468094377841
 51
5.3362374105554551
  0
ARC
  5
813
  8
0
 10
85.245422168953567
 20
65.374558001871421
 30
0.0
 40
6.584841554926232
 50
57.143147905495731
 51
84.38381309687658
  0
ARC
  5
814
  8
0
 10
86.905648408648091
 20
82.257740339130464
 30
0.0
 40
10.379774473740779
 50
246.05279124076461
 51
264.38381309687662
  0
ARC
  5
815
  8
0
 10
84.327435819486496
 20
76.452590524939964
 30
0.0
 40
4.0278499999999982
 50
142.36826447798379
 51
246.0527882987528
  0
ARC
  5
816
  8
0
 10
89.357852037507158
 20
72.574207202785843
 30
0.0
 40
10.379774473739319
 50
124.0372395431248
 51
142.36826145230029
  0
ARC
  5
817
  8
0
 10
79.862220016978569
 20
86.632342553207167
 30
0.0
 40
6.5848415549261654
 50
304.0372395431171
 51
331.27790473449733
  0
ARC
  5
818
  8
0
 10
47.000000000017593
 20
67.000000000005869
 30
0.0
 40
41.999999999982798
 50
23.084815229440991
 51
24.283605830559939
  0
ARC
  5
819
  8
0
 10
83.700959857730837
 20
77.880897209878967
 30
0.0
 40
6.5848415549264052
 50
76.090516325494733
 51
103.33118151687469
  0
ARC
  5
81A
  8
0
 10
79.789270117266881
 20
94.388376738098117
 30
0.0
 40
10.37977447374413
 50
265.00015966076887
 51
283.33118151687472
  0
ARC
  5
81B
  8
0
 10
79.235681260873676
 20
88.060621693990669
 30
0.0
 40
4.027849999999999
 50
161.3156328979839
 51
265.00015671875298
  0
ARC
  5
81C
  8
0
 10
85.252844658844793
 20
86.025753353732725
 30
0.0
 40
10.379774473737649
 50
142.98460796311991
 51
161.3156298722985
  0
ARC
  5
81D
  8
0
 10
71.707043086884553
 20
96.238953477742456
 30
0.0
 40
6.5848415549260118
 50
322.9846079631152
 51
350.22527315449548
  0
ARC
  5
81E
  8
0
 10
47.000000000010402
 20
67.000000000012875
 30
0.0
 40
41.999999999984531
 50
42.03218364943497
 51
43.230974250554382
  0
ARC
  5
81F
  8
0
 10
78.179379072294296
 20
89.208122370810287
 30
0.0
 40
6.584841554926367
 50
95.03788474549539
 51
122.2785499368762
  0
ARC
  5
820
  8
0
 10
69.119665631123013
 20
103.5510575433651
 30
0.0
 40
10.379774473744961
 50
283.94752808077021
 51
302.2785499368747
  0
ARC
  5
821
  8
0
 10
70.650690449899244
 20
97.386407713532876
 30
0.0
 40
4.0278499999999919
 50
180.26300131798271
 51
283.94752513875238
  0
ARC
  5
822
  8
0
 10
77.002548007815221
 20
97.415563914048434
 30
0.0
 40
10.379774473738861
 50
161.93197638312131
 51
180.26299829229751
  0
ARC
  5
823
  8
0
 10
60.874474669346498
 20
102.6770701042032
 30
0.0
 40
6.5848415549268813
 50
341.93197638313251
 51
9.172641574512129
  0
ARC
  5
824
  8
0
 10
46.999999999989242
 20
66.999999999975415
 30
0.0
 40
42.000000000027107
 50
60.979552069443457
 51
62.178342670560021
  0
ARC
  5
825
  8
0
 10
69.279028766833065
 20
98.128752878606093
 30
0.0
 40
6.5848415549259798
 50
113.9852531654973
 51
141.2259183568784
  0
ARC
  5
826
  8
0
 10
56.053052152141873
 20
108.75286411614491
 30
0.0
 40
10.37977447373663
 50
302.8948965007578
 51
321.22591835687842
  0
ARC
  5
827
  8
0
 10
59.502780350687033
 20
103.41935496398089
 30
0.0
 40
4.027849999999999
 50
199.21036973798229
 51
302.89489355875202
  0
ARC
  5
828
  8
0
 10
65.501009742997638
 20
105.5093761785398
 30
0.0
 40
10.37977447373903
 50
180.87934480312131
 51
199.21036671229649
  0
ARC
  5
829
  8
0
 10
48.538391636897018
 20
105.24902259852099
 30
0.0
 40
6.5848415549260819
 50
0.879344803118419
 51
28.120009994498911
  0
ARC
  5
82A
  8
0
 10
46.999999999996902
 20
66.999999999972715
 30
0.0
 40
42.000000000027278
 50
79.926920489440519
 51
81.125711090558426
  0
ARC
  5
82B
  8
0
 10
57.964400000002144
 20
103.6761000000083
 30
0.0
 40
6.5848415549264452
 50
132.93262158549871
 51
160.17328677687809
  0
ARC
  5
82C
  8
0
 10
42.005400000001849
 20
109.430100000008
 30
0.0
 40
10.379774473737619
 50
321.84226492075987
 51
340.17328677687817
  0
ARC
  5
82D
  8
0
 10
277.00000000000159
 20
105.50569999999909
 30
0.0
 40
4.0278500000000212
 50
218.15773815798369
 51
321.84226197875159
  0
ARC
  5
82E
  8
0
 10
281.99460000000357
 20
109.4301000000092
 30
0.0
 40
10.37977447374023
 50
199.82671322312291
 51
218.15773513229661
  0
ARC
  5
82F
  8
0
 10
266.03560000000112
 20
103.6761000000071
 30
0.0
 40
6.584841554926796
 50
19.826713223131769
 51
47.067378414510713
  0
ARC
  5
830
  8
0
 10
276.9999999999992
 20
67.000000000007319
 30
0.0
 40
41.999999999991999
 50
98.87428890943994
 51
100.0730795105594
  0
ARC
  5
831
  8
0
 10
275.46160836310588
 20
105.2490225985206
 30
0.0
 40
6.5848415549260091
 50
151.87999000549661
 51
179.1206551968769
  0
ARC
  5
832
  8
0
 10
258.49899067033948
 20
105.5093761390165
 30
0.0
 40
10.379774059847019
 50
340.78963275797832
 51
359.12065538000519
  0
ARC
  5
833
  8
0
 10
264.49721963660318
 20
103.4193549596167
 30
0.0
 40
4.0278499999999902
 50
237.1051065979822
 51
340.78963041875249
  0
ARC
  5
834
  8
0
 10
267.94694783328993
 20
108.75286411298831
 30
0.0
 40
10.37977447374128
 50
218.77408166312429
 51
237.105103572297
  0
ARC
  5
835
  8
0
 10
254.7209712223042
 20
98.128752870827682
 30
0.0
 40
6.5848415549269381
 50
38.774081663133877
 51
66.014746854512893
  0
ARC
  5
836
  8
0
 10
276.9999999999801
 20
67.000000000036053
 30
0.0
 40
41.999999999957758
 50
117.8216573494383
 51
119.02044795055861
  0
ARC
  5
837
  8
0
 10
263.1255253182016
 20
102.6770700993611
 30
0.0
 40
6.5848415549259078
 50
170.82735844549791
 51
198.0680236368778
  0
ARC
  5
838
  8
0
 10
246.99745198156839
 20
97.415563903575375
 30
0.0
 40
10.37977447374125
 50
359.73700178076382
 51
18.06802363687753
  0
ARC
  5
839
  8
0
 10
253.34930953949689
 20
97.386407705277207
 30
0.0
 40
4.027849999999999
 50
256.05247501798323
 51
359.73699883875338
  0
ARC
  5
83A
  8
0
 10
254.88033435611959
 20
103.5510575356404
 30
0.0
 40
10.37977447374108
 50
237.72145008312091
 51
256.05247199229461
  0
ARC
  5
83B
  8
0
 10
245.82062091995621
 20
89.208122359926904
 30
0.0
 40
6.584841554926335
 50
57.721450083119933
 51
84.962115274497705
  0
ARC
  5
83C
  8
0
 10
276.99999999999733
 20
66.999999999999076
 30
0.0
 40
41.999999999997208
 50
136.76902576943559
 51
137.96781637055591
  0
ARC
  5
83D
  8
0
 10
252.29295690291329
 20
96.238953469117874
 30
0.0
 40
6.5848415549268591
 50
189.7747268654991
 51
217.015392056878
  0
ARC
  5
83E
  8
0
 10
238.7471553345157
 20
86.025753340379666
 30
0.0
 40
10.3797744737388
 50
18.684370200760799
 51
37.015392056878333
  0
ARC
  5
83F
  8
0
 10
244.76431873177771
 20
88.060621682738244
 30
0.0
 40
4.0278499999999999
 50
274.99984343798349
 51
18.684367258752591
  0
ARC
  5
840
  8
0
 10
244.21072987317589
 20
94.388376726650392
 30
0.0
 40
10.37977447374206
 50
256.66881850312069
 51
274.99984041229237
  0
ARC
  5
841
  8
0
 10
240.29904013847349
 20
77.880897197068421
 30
0.0
 40
6.5848415549260997
 50
76.66881850312069
 51
103.90948369449769
  0
ARC
  5
842
  8
0
 10
277.00000000001381
 20
66.999999999995183
 30
0.0
 40
42.000000000012911
 50
155.71639418944099
 51
156.9151847905604
  0
ARC
  5
843
  8
0
 10
244.1377799761724
 20
86.632342541735994
 30
0.0
 40
6.5848415549266122
 50
208.722095285498
 51
235.96276047687749
  0
ARC
  5
844
  8
0
 10
234.64214796055131
 20
72.57420718800104
 30
0.0
 40
10.3797744737379
 50
37.631738620761162
 51
55.962760476878003
  0
ARC
  5
845
  8
0
 10
239.672564177217
 20
76.452590511910316
 30
0.0
 40
4.0278500000000053
 50
293.94721185798352
 51
37.631735678752761
  0
ARC
  5
846
  8
0
 10
237.09435158603
 20
82.257740325194575
 30
0.0
 40
10.37977447373464
 50
275.61618692312231
 51
293.94720883230451
  0
ARC
  5
847
  8
0
 10
238.75457783161681
 20
65.374557988521104
 30
0.0
 40
6.5848415549262578
 50
95.616186923122243
 51
122.8568521145023
  0
ARC
  5
848
  8
0
 10
276.99999999998408
 20
66.999999999999943
 30
0.0
 40
41.999999999982563
 50
174.66376260943909
 51
175.86255321055819
  0
ARC
  5
849
  8
0
 10
239.54373449850249
 20
74.898262673010379
 30
0.0
 40
6.5848415549267969
 50
227.66946370550329
 51
254.91012889688179
  0
ARC
  5
84A
  8
0
 10
235.1272711043498
 20
58.518609194136523
 30
0.0
 40
10.379774473733431
 50
56.579107040754103
 51
74.910128896878547
  0
ARC
  5
84B
  8
0
 10
238.6258164884529
 20
63.82022448717548
 30
0.0
 40
4.0278500000000017
 50
312.8945802779831
 51
56.579104098751763
  0
ARC
  5
84C
  8
0
 10
234.30236950399311
 20
68.473691011465704
 30
0.0
 40
10.379774473742151
 50
294.5635553431265
 51
312.89457725229562
  0
ARC
  5
84D
  8
0
 10
241.3546004551182
 20
53.044360643229773
 30
0.0
 40
6.5848415549269124
 50
114.56355534312981
 51
141.8042205345065
  0
ARC
  5
84E
  8
0
 10
277.00000000001347
 20
66.999999999999432
 30
0.0
 40
42.000000000011582
 50
193.6111310294375
 51
194.80992163055501
  0
ARC
  5
84F
  8
0
 10
239.00865658131519
 20
62.308283489584049
 30
0.0
 40
6.5848415549255286
 50
246.6168321254975
 51
273.85749731687753
  0
ARC
  5
850
  8
0
 10
240.14995414582179
 20
45.382101496317517
 30
0.0
 40
10.37977447373626
 50
75.52647546075795
 51
93.857497316880739
  0
ARC
  5
851
  8
0
 10
241.73750701951451
 20
51.532436478518079
 30
0.0
 40
4.0278499999999946
 50
331.84194869798381
 51
75.526472518754304
  0
ARC
  5
852
  8
0
 10
236.13733820769221
 20
54.529944409981518
 30
0.0
 40
10.379774473739699
 50
313.51092376312181
 51
331.84194567229628
  0
ARC
  5
853
  8
0
 10
247.81735521424071
 20
42.226473366134101
 30
0.0
 40
6.584841554925819
 50
133.5109237631128
 51
160.75158895449181
  0
ARC
  5
854
  8
0
 10
276.99999999999619
 20
67.000000000002032
 30
0.0
 40
41.999999999996781
 50
212.558499449446
 51
213.75729005056701
  0
ARC
  5
855
  8
0
 10
242.5905302195205
 20
50.226724589489912
 30
0.0
 40
6.5848415549266086
 50
265.56420054550051
 51
292.80486573687921
  0
ARC
  5
856
  8
0
 10
249.16591144252871
 20
34.588228537378122
 30
0.0
 40
10.379774473731571
 50
94.473843880750977
 51
112.80486573687961
  0
ARC
  5
857
  8
0
 10
248.670435818545
 20
40.920798981204868
 30
0.0
 40
4.027849999999999
 50
350.78931711798379
 51
94.473840938750769
  0
ARC
  5
858
  8
0
 10
242.40041036562411
 20
41.93752182437759
 30
0.0
 40
10.3797744737406
 50
332.45829218312258
 51
350.78931409229529
  0
ARC
  5
859
  8
0
 10
257.44250235094358
 20
34.093182100393598
 30
0.0
 40
6.5848415549258714
 50
152.45829218311309
 51
179.69895737449181
  0
ARC
  5
85A
  8
0
 10
276.9999999999834
 20
66.999999999970356
 30
0.0
 40
41.999999999965823
 50
231.5058678694339
 51
232.7046584705547
  0
ARC
  5
85B
  8
0
 10
249.9012038259651
 20
39.962810344107282
 30
0.0
 40
6.5848415549268049
 50
284.51156896550361
 51
311.75223415687998
  0
ARC
  5
85C
  8
0
 10
261.1981241244913
 20
27.306673936471089
 30
0.0
 40
10.379774473735569
 50
113.4212123007559
 51
131.75223415687961
  0
ARC
  5
85D
  8
0
 10
258.6733124747779
 20
33.135247574464572
 30
0.0
 40
4.0278499999999919
 50
9.7366855379829058
 51
113.4212093587516
  0
ARC
  5
85E
  8
0
 10
252.41288492798191
 20
32.061007633219603
 30
0.0
 40
10.3797744737362
 50
351.40566060312142
 51
9.7366825123014422
  0
ARC
  5
85F
  8
0
 10
269.18700782353193
 20
29.525855155572241
 30
0.0
 40
6.5848415549259034
 50
171.4056606031163
 51
198.64632579449719
  0
ARC
  5
860
  8
0
 10
277.00000000000063
 20
66.999999999998934
 30
0.0
 40
41.999999999999041
 50
250.4532362894405
 51
251.65202689056079
  0
ARC
  5
861
  8
0
 10
260.14845247868999
 20
32.628795122840991
 30
0.0
 40
6.5848415549268111
 50
303.45893738550018
 51
330.69960257687842
  0
ARC
  5
862
  8
0
 10
274.9427152487462
 20
24.326507119488259
 30
0.0
 40
10.37977447373965
 50
132.36858072076251
 51
150.69960257687629
  0
ARC
  5
863
  8
0
 10
270.66217009200659
 20
29.019467558401558
 30
0.0
 40
4.0278500000000097
 50
28.684053957983071
 51
132.36857777875269
  0
ARC
  5
864
  8
0
 10
265.08975491649221
 20
25.97067539891157
 30
0.0
 40
10.379774473737831
 50
10.353029023119831
 51
28.68405093229871
  0
ARC
  5
865
  8
0
 10
281.77817222941121
 20
29.019433275464131
 30
0.0
 40
6.58484155492539
 50
190.35302902310701
 51
217.59369421448599
  0
ARC
  5
866
  8
0
 10
276.99999999999778
 20
67.000000000023704
 30
0.0
 40
42.000000000024073
 50
269.40060470944599
 51
270.5993953105654
  0
ARC
  5
867
  8
0
 10
272.22182778384899
 20
29.019433273797851
 30
0.0
 40
6.5848415549262533
 50
322.40630580550243
 51
349.64697099687902
  0
ARC
  5
868
  8
0
 10
288.91024509783182
 20
25.970675403068899
 30
0.0
 40
10.37977447373679
 50
151.3159491407591
 51
169.64697099687871
  0
ARC
  5
869
  8
0
 10
283.3378299212543
 20
29.019467560613631
 30
0.0
 40
4.0278499999999928
 50
47.631422377982553
 51
151.3159461987529
  0
ARC
  5
86A
  8
0
 10
279.05728476615388
 20
24.326507120206781
 30
0.0
 40
10.37977447373841
 50
29.300397443123149
 51
47.631419352299517
  0
ARC
  5
86B
  8
0
 10
293.85154753331062
 20
32.628795128722203
 30
0.0
 40
6.5848415549260277
 50
209.30039744311759
 51
236.5410626344952
  0
ARC
  5
86C
  8
0
 10
277.00000000000222
 20
66.99999999998586
 30
0.0
 40
41.999999999986777
 50
288.34797312944391
 51
289.54676373056338
  0
ARC
  5
86D
  8
0
 10
284.81299218955093
 20
29.525855158300018
 30
0.0
 40
6.584841554927122
 50
341.35367422550138
 51
8.5943394168777161
  0
ARC
  5
86E
  8
0
 10
301.58711508421919
 20
32.06100764180232
 30
0.0
 40
10.37977447373804
 50
170.26331756076161
 51
188.5943394168776
  0
ARC
  5
86F
  8
0
 10
295.32668753704621
 20
33.13524758086173
 30
0.0
 40
4.0278500000000026
 50
66.578790797982975
 51
170.2633146187523
  0
ARC
  5
870
  8
0
 10
292.80187588936587
 20
27.30667394198511
 30
0.0
 40
10.379774473737831
 50
48.247765863119596
 51
66.578787772299805
  0
ARC
  5
871
  8
0
 10
304.09879618347509
 20
39.962810353566191
 30
0.0
 40
6.5848415549261832
 50
228.24776586312379
 51
255.48843105450331
  0
ARC
  5
872
  8
0
 10
277.0
 20
67.0
 30
0.0
 40
42.000000000001279
 50
307.29534154944122
 51
308.49413215056097
  0
ARC
  5
873
  8
0
 10
296.55749766054538
 20
34.093182107221033
 30
0.0
 40
6.5848415549260606
 50
0.3010426455001161
 51
27.54170783688053
  0
ARC
  5
874
  8
0
 10
311.59958964312
 20
41.937521836451857
 30
0.0
 40
10.37977447373261
 50
189.2106859807526
 51
207.54170783688051
  0
ARC
  5
875
  8
0
 10
305.3295641905616
 20
40.920798991093918
 30
0.0
 40
4.0278499999999973
 50
85.526159217985764
 51
189.21068303875219
  0
ARC
  5
876
  8
0
 10
304.83408856878589
 20
34.588228547089088
 30
0.0
 40
10.379774473736861
 50
67.195134283117753
 51
85.526156192295616
  0
ARC
  5
877
  8
0
 10
311.40946978633713
 20
50.22672460150126
 30
0.0
 40
6.5848415549267667
 50
247.1951342831251
 51
274.43579947450468
  0
ARC
  5
878
  8
0
 10
277.00000000000608
 20
66.999999999994813
 30
0.0
 40
41.999999999993577
 50
326.24270996944227
 51
327.4415005705618
  0
ARC
  5
879
  8
0
 10
306.1826447944087
 20
42.226473376321337
 30
0.0
 40
6.5848415549261752
 50
19.248411065496452
 51
46.48907625687572
  0
ARC
  5
87A
  8
0
 10
317.86266179666558
 20
54.529944424246651
 30
0.0
 40
10.379774473742019
 50
208.15805440076559
 51
226.48907625687579
  0
ARC
  5
87B
  8
0
 10
312.26249298588777
 20
51.532436490826953
 30
0.0
 40
4.0278499999999999
 50
104.4735276379843
 51
208.1580514587524
  0
ARC
  5
87C
  8
0
 10
313.85004586172658
 20
45.382101509184011
 30
0.0
 40
10.379774473732709
 50
86.14250270311625
 51
104.47352461230039
  0
ARC
  5
87D
  8
0
 10
314.99134342032607
 20
62.308283502845683
 30
0.0
 40
6.5848415549259336
 50
266.14250270311629
 51
293.38316789449698
  0
ARC
  5
87E
  8
0
 10
276.99999999998528
 20
67.000000000000128
 30
0.0
 40
42.000000000015831
 50
345.19007838944498
 51
346.38886899056428
  0
ARC
  5
87F
  8
0
 10
312.64539954975783
 20
53.044360655672733
 30
0.0
 40
6.5848415549259656
 50
38.195779485502548
 51
65.436444676880342
  0
ARC
  5
880
  8
0
 10
319.69763049549402
 20
68.473691026368002
 30
0.0
 40
10.379774473739671
 50
227.10542282076329
 51
245.4364446768769
  0
ARC
  5
881
  8
0
 10
315.37418351266001
 20
63.820224500570617
 30
0.0
 40
4.0278500000000017
 50
123.42089605798439
 51
227.1054198787522
  0
ARC
  5
882
  8
0
 10
318.87272889861788
 20
58.518609208742859
 30
0.0
 40
10.379774473744099
 50
105.08987112312791
 51
123.4208930322938
  0
ARC
  5
883
  8
0
 10
314.45626549874368
 20
74.898262686084465
 30
0.0
 40
6.5848415549261912
 50
285.08987112311797
 51
312.33053631450127
  0
ARC
  5
884
  8
0
 10
276.99999999997789
 20
66.999999999999986
 30
0.0
 40
42.000000000023597
 50
4.1374468094377841
 51
5.336237410555607
  0
ARC
  5
885
  8
0
 10
315.24542216895361
 20
65.374558001871421
 30
0.0
 40
6.584841554926232
 50
57.143147905495731
 51
84.38381309687658
  0
ARC
  5
886
  8
0
 10
316.90564840864801
 20
82.257740339130464
 30
0.0
 40
10.379774473740779
 50
246.05279124076461
 51
264.38381309687662
  0
ARC
  5
887
  8
0
 10
314.32743581948648
 20
76.452590524939964
 30
0.0
 40
4.0278499999999982
 50
142.36826447798279
 51
246.0527882987528
  0
ARC
  5
888
  8
0
 10
319.3578520375072
 20
72.574207202785843
 30
0.0
 40
10.379774473739319
 50
124.03723954312341
 51
142.36826145229929
  0
ARC
  5
889
  8
0
 10
309.86222001697848
 20
86.632342553207167
 30
0.0
 40
6.5848415549261654
 50
304.03723954311852
 51
331.27790473449647
  0
ARC
  5
88A
  8
0
 10
277.00000000001762
 20
67.000000000005869
 30
0.0
 40
41.999999999982798
 50
23.084815229440991
 51
24.283605830559939
  0
ARC
  5
88B
  8
0
 10
313.70095985773082
 20
77.880897209878967
 30
0.0
 40
6.5848415549264052
 50
76.090516325493141
 51
103.33118151687469
  0
ARC
  5
88C
  8
0
 10
309.78927011726688
 20
94.388376738098117
 30
0.0
 40
10.37977447374413
 50
265.00015966076728
 51
283.33118151687472
  0
ARC
  5
88D
  8
0
 10
309.23568126087372
 20
88.060621693990669
 30
0.0
 40
4.027849999999999
 50
161.3156328979839
 51
265.00015671875462
  0
ARC
  5
88E
  8
0
 10
315.25284465884482
 20
86.025753353732725
 30
0.0
 40
10.379774473737649
 50
142.98460796311991
 51
161.3156298722985
  0
ARC
  5
88F
  8
0
 10
301.7070430868846
 20
96.238953477742456
 30
0.0
 40
6.5848415549260118
 50
322.9846079631152
 51
350.22527315449548
  0
ARC
  5
890
  8
0
 10
277.0000000000104
 20
67.000000000012875
 30
0.0
 40
41.999999999984531
 50
42.03218364943497
 51
43.230974250554382
  0
ARC
  5
891
  8
0
 10
308.1793790722943
 20
89.208122370810287
 30
0.0
 40
6.584841554926367
 50
95.03788474549539
 51
122.2785499368762
  0
ARC
  5
892
  8
0
 10
299.11966563112298
 20
103.5510575433651
 30
0.0
 40
10.379774473744961
 50
283.94752808076862
 51
302.27854993687612
  0
ARC
  5
893
  8
0
 10
300.65069044989917
 20
97.386407713532876
 30
0.0
 40
4.0278499999999919
 50
180.26300131798271
 51
283.94752513875397
  0
ARC
  5
894
  8
0
 10
307.00254800781522
 20
97.415563914048434
 30
0.0
 40
10.379774473738861
 50
161.93197638312131
 51
180.26299829229751
  0
ARC
  5
895
  8
0
 10
290.87447466934651
 20
102.6770701042032
 30
0.0
 40
6.5848415549268813
 50
341.93197638313251
 51
9.172641574512129
  0
ARC
  5
896
  8
0
 10
276.9999999999892
 20
66.999999999975415
 30
0.0
 40
42.000000000027107
 50
60.979552069442029
 51
62.178342670558578
  0
ARC
  5
897
  8
0
 10
299.27902876683311
 20
98.128752878606093
 30
0.0
 40
6.5848415549259798
 50
113.9852531654988
 51
141.2259183568784
  0
ARC
  5
898
  8
0
 10
286.05305215214179
 20
108.75286411614491
 30
0.0
 40
10.37977447373663
 50
302.89489650075922
 51
321.22591835687842
  0
ARC
  5
899
  8
0
 10
289.50278035068698
 20
103.41935496398089
 30
0.0
 40
4.027849999999999
 50
199.2103697379828
 51
302.89489355875202
  0
ARC
  5
89A
  8
0
 10
295.50100974299772
 20
105.5093761785398
 30
0.0
 40
10.37977447373903
 50
180.87934480312131
 51
199.21036671229649
  0
ARC
  5
89B
  8
0
 10
278.53839163689702
 20
105.24902259852099
 30
0.0
 40
6.5848415549260819
 50
0.879344803118394
 51
28.120009994499679
  0
ARC
  5
89C
  8
0
 10
276.99999999999687
 20
66.999999999972715
 30
0.0
 40
42.000000000027278
 50
79.926920489440519
 51
81.125711090560046
  0
ARC
  5
89D
  8
0
 10
287.96440000000212
 20
103.6761000000083
 30
0.0
 40
6.5848415549264452
 50
132.93262158549871
 51
160.17328677687809
  0
ARC
  5
89E
  8
0
 10
272.00540000000183
 20
109.430100000008
 30
0.0
 40
10.379774473737619
 50
321.84226492075891
 51
340.17328677687817
  0
ENDSEC
  0
EOF
