  0
SECTION
  2
HEADER
  9
$ACADVER
  1
AC1009
  9
$INSBASE
 10
0.0
 20
0.0
 30
0.0
  9
$EXTMIN
 10
0.0
 20
-2.960436562073669
 30
0.0
  9
$EXTMAX
 10
189.6568328135138
 20
92.208619171827692
 30
0.0
  9
$LIMMIN
 10
0.0
 20
0.0
  9
$LIMMAX
 10
385.0
 20
270.0
  9
$ORTHOMODE
 70
     1
  9
$REGENMODE
 70
     1
  9
$FILLMODE
 70
     1
  9
$QTEXTMODE
 70
     0
  9
$MIRRTEXT
 70
     0
  9
$DRAGMODE
 70
     2
  9
$LTSCALE
 40
10.0
  9
$OSMODE
 70
    55
  9
$ATTMODE
 70
     1
  9
$TEXTSIZE
 40
4.0
  9
$TRACEWID
 40
0.05
  9
$TEXTSTYLE
  7
STANDARD
  9
$CLAYER
  8
0
  9
$CELTYPE
  6
BYLAYER
  9
$CECOLOR
 62
   256
  9
$DIMSCALE
 40
1.0
  9
$DIMASZ
 40
3.0
  9
$DIMEXO
 40
1.0
  9
$DIMDLI
 40
6.0
  9
$DIMRND
 40
0.0
  9
$DIMDLE
 40
0.0
  9
$DIMEXE
 40
1.0
  9
$DIMTP
 40
495.0
  9
$DIMTM
 40
0.0
  9
$DIMTXT
 40
3.0
  9
$DIMCEN
 40
0.0
  9
$DIMTSZ
 40
0.0
  9
$DIMTOL
 70
     0
  9
$DIMLIM
 70
     0
  9
$DIMTIH
 70
     0
  9
$DIMTOH
 70
     0
  9
$DIMSE1
 70
     0
  9
$DIMSE2
 70
     0
  9
$DIMTAD
 70
     1
  9
$DIMZIN
 70
     0
  9
$DIMBLK
  1

  9
$DIMASO
 70
     0
  9
$DIMSHO
 70
     0
  9
$DIMPOST
  1

  9
$DIMAPOST
  1

  9
$DIMALT
 70
     0
  9
$DIMALTD
 70
     2
  9
$DIMALTF
 40
25.399999999999999
  9
$DIMLFAC
 40
1.0
  9
$DIMTOFL
 70
     1
  9
$DIMTVP
 40
0.0
  9
$DIMTIX
 70
     1
  9
$DIMSOXD
 70
     0
  9
$DIMSAH
 70
     0
  9
$DIMBLK1
  1

  9
$DIMBLK2
  1

  9
$DIMSTYLE
  2
STANDARD
  9
$DIMCLRD
 70
     0
  9
$DIMCLRE
 70
     0
  9
$DIMCLRT
 70
     0
  9
$DIMTFAC
 40
1.0
  9
$DIMGAP
 40
0.09
  9
$LUNITS
 70
     2
  9
$LUPREC
 70
     4
  9
$SKETCHINC
 40
0.1
  9
$FILLETRAD
 40
0.8
  9
$AUNITS
 70
     0
  9
$AUPREC
 70
     0
  9
$MENU
  1
E:\r13\win\SUPPORT\ACAD
  9
$ELEVATION
 40
0.0
  9
$PELEVATION
 40
0.0
  9
$THICKNESS
 40
0.0
  9
$LIMCHECK
 70
     0
  9
$BLIPMODE
 70
     0
  9
$CHAMFERA
 40
0.5
  9
$CHAMFERB
 40
0.5
  9
$SKPOLY
 70
     0
  9
$TDCREATE
 40
2449920.4263670142
  9
$TDUPDATE
 40
2456598.5004468281
  9
$TDINDWG
 40
0.0235138773
  9
$TDUSRTIMER
 40
0.0235138773
  9
$USRTIMER
 70
     1
  9
$ANGBASE
 50
0.0
  9
$ANGDIR
 70
     0
  9
$PDMODE
 70
     0
  9
$PDSIZE
 40
0.0
  9
$PLINEWID
 40
0.0
  9
$COORDS
 70
     1
  9
$SPLFRAME
 70
     0
  9
$SPLINETYPE
 70
     6
  9
$SPLINESEGS
 70
     8
  9
$ATTDIA
 70
     0
  9
$ATTREQ
 70
     1
  9
$HANDLING
 70
     1
  9
$HANDSEED
  5
4C3
  9
$SURFTAB1
 70
     6
  9
$SURFTAB2
 70
     6
  9
$SURFTYPE
 70
     6
  9
$SURFU
 70
     6
  9
$SURFV
 70
     6
  9
$UCSNAME
  2

  9
$UCSORG
 10
0.0
 20
0.0
 30
0.0
  9
$UCSXDIR
 10
1.0
 20
0.0
 30
0.0
  9
$UCSYDIR
 10
0.0
 20
1.0
 30
0.0
  9
$PUCSNAME
  2

  9
$PUCSORG
 10
0.0
 20
0.0
 30
0.0
  9
$PUCSXDIR
 10
1.0
 20
0.0
 30
0.0
  9
$PUCSYDIR
 10
0.0
 20
1.0
 30
0.0
  9
$USERI1
 70
     3
  9
$USERI2
 70
     1
  9
$USERI3
 70
     0
  9
$USERI4
 70
     0
  9
$USERI5
 70
     0
  9
$USERR1
 40
1.0
  9
$USERR2
 40
3.0
  9
$USERR3
 40
3.0
  9
$USERR4
 40
3.0
  9
$USERR5
 40
10.0
  9
$WORLDVIEW
 70
     1
  9
$SHADEDGE
 70
     3
  9
$SHADEDIF
 70
    70
  9
$TILEMODE
 70
     1
  9
$MAXACTVP
 70
    16
  9
$PLIMCHECK
 70
     0
  9
$PEXTMIN
 10
1.0000000000000000E+020
 20
1.0000000000000000E+020
 30
1.0000000000000000E+020
  9
$PEXTMAX
 10
-1.0000000000000000E+020
 20
-1.0000000000000000E+020
 30
-1.0000000000000000E+020
  9
$PLIMMIN
 10
0.0
 20
0.0
  9
$PLIMMAX
 10
12.0
 20
9.0
  9
$UNITMODE
 70
     0
  9
$VISRETAIN
 70
     0
  9
$PLINEGEN
 70
     0
  9
$PSLTSCALE
 70
     0
  0
ENDSEC
  0
SECTION
  2
TABLES
  0
TABLE
  2
VPORT
 70
     1
  0
VPORT
  2
*ACTIVE
 70
     0
 10
0.0
 20
0.0
 11
1.0
 21
1.0
 12
192.49412581440311
 22
174.91677254346851
 13
0.0
 23
0.0
 14
10.0
 24
10.0
 15
10.0
 25
10.0
 16
0.0
 26
0.0
 36
1.0
 17
0.0
 27
0.0
 37
0.0
 40
358.92027899574339
 41
1.7807262569832401
 42
50.0
 43
0.0
 44
0.0
 50
0.0
 51
0.0
 71
     0
 72
   100
 73
     1
 74
     0
 75
     0
 76
     0
 77
     0
 78
     0
  0
ENDTAB
  0
TABLE
  2
LTYPE
 70
     5
  0
LTYPE
  2
CONTINUOUS
 70
     0
  3
Solid Line
 72
    65
 73
     0
 40
0.0
  0
LTYPE
  2
CENTER
 70
     0
  3
____ _ ____ _ ____ _ ____ _ ____ _ ____ _ ____
 72
    65
 73
     4
 40
2.0
 49
1.25
 49
-0.25
 49
0.25
 49
-0.25
  0
LTYPE
  2
HIDDEN
 70
     0
  3
_ _ _ _ _ _ _ _ _ _ _ _ _ _ _ _ _ _ _ _ _ _ _
 72
    65
 73
     2
 40
0.375
 49
0.25
 49
-0.125
  0
LTYPE
  2
PHANTOM
 70
     0
  3
_____ _ _ _____ _ _ _____ _ _ _____ _ _ ____
 72
    65
 73
     6
 40
2.5
 49
1.25
 49
-0.25
 49
0.25
 49
-0.25
 49
0.25
 49
-0.25
  0
LTYPE
  2
PHANTOM2
 70
     0
  3
___ _ _ ___ _ _ ___ _ _ ___ _ _
 72
    65
 73
     6
 40
1.25
 49
0.625
 49
-0.125
 49
0.125
 49
-0.125
 49
0.125
 49
-0.125
  0
ENDTAB
  0
TABLE
  2
LAYER
 70
     4
  0
LAYER
  2
0
 70
     0
 62
     7
  6
CONTINUOUS
  0
LAYER
  2
1
 70
     0
 62
     1
  6
CENTER
  0
LAYER
  2
2
 70
     0
 62
     2
  6
HIDDEN
  0
LAYER
  2
5
 70
     0
 62
     3
  6
PHANTOM
  0
ENDTAB
  0
TABLE
  2
STYLE
 70
     2
  0
STYLE
  2
STANDARD
 70
     0
 40
0.0
 41
1.0
 50
0.0
 71
     0
 42
4.0
  3
simplex
  4
bigfont
  0
STYLE
  2
STANDARD1
 70
     0
 40
0.0
 41
1.0
 50
0.0
 71
     0
 42
3.0
  3
txt
  4

  0
ENDTAB
  0
TABLE
  2
VIEW
 70
     0
  0
ENDTAB
  0
TABLE
  2
UCS
 70
     0
  0
ENDTAB
  0
TABLE
  2
APPID
 70
     4
  0
APPID
  2
ACAD
 70
     0
  0
APPID
  2
ACAD_EXEMPT_FROM_CAD_STANDARDS
 70
     0
  0
APPID
  2
ACAD_MLEADERVER
 70
     0
  0
APPID
  2
ACAD_NAV_VCDISPLAY
 70
     0
  0
ENDTAB
  0
TABLE
  2
DIMSTYLE
 70
     1
  0
DIMSTYLE
  2
STANDARD
 70
     0
  3

  4

  5

  6

  7

 40
1.0
 41
0.18
 42
0.0625
 43
0.38
 44
0.18
 45
0.0
 46
0.0
 47
0.0
 48
0.0
140
0.18
141
0.09
142
0.0
143
25.399999999999999
144
1.0
145
0.0
146
1.0
147
0.09
 71
     0
 72
     0
 73
     1
 74
     1
 75
     0
 76
     0
 77
     0
 78
     0
170
     0
171
     2
172
     0
173
     0
174
     0
175
     0
176
     0
177
     0
178
     0
  0
ENDTAB
  0
ENDSEC
  0
SECTION
  2
BLOCKS
  0
BLOCK
  8
0
  2
$MODEL_SPACE
 70
     0
 10
0.0
 20
0.0
 30
0.0
  3
$MODEL_SPACE
  1

  0
ENDBLK
  5
314
  8
0
  0
BLOCK
 67
     1
  8
0
  2
$PAPER_SPACE
 70
     0
 10
0.0
 20
0.0
 30
0.0
  3
$PAPER_SPACE
  1

  0
ENDBLK
  5
312
 67
     1
  8
0
  0
ENDSEC
  0
SECTION
  2
ENTITIES
  0
LINE
  5
216
  8
1
 10
189.6568328135138
 20
57.208619171827692
 30
0.0
 11
158.6568328135138
 21
57.208619171827692
 31
0.0
  0
LINE
  5
217
  8
1
 10
174.1568328135138
 20
22.208619171827689
 30
0.0
 11
174.1568328135138
 21
92.208619171827692
 31
0.0
1001
ACAD
1000
ASC_BOUNDS
1002
{
1070
    19
1002
}
  0
LINE
  5
218
  8
0
 10
173.1703261882985
 20
87.208619171827749
 30
0.0
 11
175.1433394387291
 21
87.208619171827749
 31
0.0
  0
LINE
  5
219
  8
0
 10
175.04333943872911
 20
27.208619171827639
 30
0.0
 11
173.1703261882985
 21
27.208619171827639
 31
0.0
  0
LINE
  5
21A
  8
0
 10
171.95683281351441
 20
32.008619171827647
 30
0.0
 11
171.9568328135145
 21
82.408619171827738
 31
0.0
  0
ARC
  5
21B
  8
0
 10
166.2568328135136
 20
82.408619171827738
 30
0.0
 40
10.1
 50
0.0
 51
28.375467561771789
  0
ARC
  5
21C
  8
0
 10
182.05683281351421
 20
82.408619171827738
 30
0.0
 40
10.1
 50
151.62453243822819
 51
180.0
  0
ARC
  5
21D
  8
0
 10
182.05683281351421
 20
32.008619171827647
 30
0.0
 40
10.1
 50
180.0
 51
208.37546756177181
  0
ARC
  5
21E
  8
0
 10
166.2568328135136
 20
32.008619171827647
 30
0.0
 40
10.1
 50
331.62453243822819
 51
0.0
  0
LINE
  5
21F
  8
0
 10
173.1703261882985
 20
27.208619171827639
 30
0.0
 11
175.1433394387291
 21
27.208619171827639
 31
0.0
  0
LINE
  5
220
  8
0
 10
176.3568328135143
 20
82.408619171827738
 30
0.0
 11
176.35683281351439
 21
32.008619171827647
 31
0.0
  0
LINE
  5
221
  8
1
 10
180.3401474280746
 20
84.633619171827704
 30
0.0
 11
167.9735181989532
 21
84.633619171827704
 31
0.0
  0
LINE
  5
222
  8
1
 10
180.3401474280746
 20
29.78361917182772
 30
0.0
 11
167.97351819895309
 21
29.78361917182772
 31
0.0
  0
CIRCLE
  5
223
  8
5
 10
58.127831907163397
 20
57.208619171827721
 30
0.0
 40
27.425000000000001
  0
ARC
  5
224
  8
0
 10
60.477579636164023
 20
84.216966059596629
 30
0.0
 40
4.1900000000000004
 50
134.5519491259017
 51
161.56291342943811
  0
ARC
  5
225
  8
0
 10
58.127831907163397
 20
57.208619171827749
 30
0.0
 40
30.0
 50
68.873548708714011
 51
71.126451291285662
  0
LINE
  5
226
  8
0
 10
55.791283656823339
 20
83.408286893291731
 30
0.0
 11
56.502646056611631
 21
85.542108707822464
 31
0.0
  0
LINE
  5
227
  8
0
 10
60.464380157503463
 20
83.408286893291674
 30
0.0
 11
59.753017757715099
 21
85.542108707822521
 31
0.0
  0
ARC
  5
228
  8
0
 10
55.778084178162771
 20
84.216966059596587
 30
0.0
 40
4.1900000000000004
 50
18.437086570561899
 51
45.448050874098278
  0
ARC
  5
229
  8
0
 10
53.365530634647833
 20
84.216971798187487
 30
0.0
 40
2.5569999999999991
 50
218.43708657056169
 51
341.56291342943831
  0
ARC
  5
22A
  8
0
 10
62.890133179678912
 20
84.216971798187544
 30
0.0
 40
2.5569999999999991
 50
198.43708657056169
 51
321.56291342943831
  0
ARC
  5
22B
  8
0
 10
44.415331907163363
 20
80.95936587061594
 30
0.0
 40
2.5569999999999991
 50
238.43708657056169
 51
1.5629134294382481
  0
ARC
  5
22C
  8
0
 10
53.365530634647762
 20
84.216971798187544
 30
0.0
 40
2.5569999999999991
 50
218.43708657056169
 51
341.56291342943831
  0
ARC
  5
22D
  8
0
 10
46.682392631968973
 20
81.784502386838241
 30
0.0
 40
4.1900000000000004
 50
38.437086570561881
 51
65.448050874098243
  0
LINE
  5
22E
  8
0
 10
46.97138064902861
 20
81.029107029261496
 30
0.0
 11
46.910032603976951
 21
83.277543912380224
 31
0.0
  0
ARC
  5
22F
  8
0
 10
51.098473835269601
 20
83.391824496942135
 30
0.0
 40
4.1900000000000004
 50
154.5519491259017
 51
181.56291342943811
  0
LINE
  5
230
  8
0
 10
51.362654946938157
 20
82.627400164198804
 30
0.0
 11
49.964382906315279
 21
84.389236507453333
 31
0.0
  0
ARC
  5
231
  8
0
 10
37.119063054625371
 20
74.837069367481021
 30
0.0
 40
2.5569999999999991
 50
258.4370865705618
 51
21.562913429438289
  0
ARC
  5
232
  8
0
 10
44.415331907163363
 20
80.95936587061594
 30
0.0
 40
2.5569999999999991
 50
238.43708657056169
 51
1.5629134294382481
  0
ARC
  5
233
  8
0
 10
38.967189979057203
 20
76.387824496942116
 30
0.0
 40
4.1900000000000004
 50
58.437086570561902
 51
85.448050874098271
  0
LINE
  5
234
  8
0
 10
39.497110314649611
 20
75.776824776665464
 30
0.0
 11
38.670451304391982
 21
77.868682056873681
 31
0.0
  0
ARC
  5
235
  8
0
 10
42.56721236012185
 20
79.408601949123494
 30
0.0
 40
4.1900000000000004
 50
174.5519491259017
 51
201.56291342943811
  0
LINE
  5
236
  8
0
 10
43.076909921154311
 20
78.780633306172192
 30
0.0
 11
41.16038048409348
 21
79.95798071321876
 31
0.0
  0
ARC
  5
237
  8
0
 10
32.356761782109857
 20
66.588521602534158
 30
0.0
 40
2.5569999999999991
 50
278.43708657056169
 51
41.562913429438296
  0
ARC
  5
238
  8
0
 10
37.119063054625428
 20
74.837069367481021
 30
0.0
 40
2.5569999999999991
 50
258.4370865705618
 51
21.562913429438289
  0
ARC
  5
239
  8
0
 10
33.563043523632871
 20
68.677851389912846
 30
0.0
 40
4.1900000000000004
 50
78.437086570561888
 51
105.4480508740982
  0
LINE
  5
23A
  8
0
 10
34.269979964494389
 20
68.284942890597122
 30
0.0
 11
32.777717265855472
 21
69.967911707376246
 31
0.0
  0
ARC
  5
23B
  8
0
 10
35.91279125263344
 20
72.747733841511476
 30
0.0
 40
4.1900000000000004
 50
194.5519491259017
 51
221.56291342943811
  0
LINE
  5
23C
  8
0
 10
36.606528214834441
 20
72.331963174522272
 30
0.0
 11
34.402903116407181
 21
72.78281617227394
 31
0.0
  0
ARC
  5
23D
  8
0
 10
30.70283190716339
 20
57.208619171827692
 30
0.0
 40
2.5569999999999991
 50
298.4370865705618
 51
61.562913429438311
  0
ARC
  5
23E
  8
0
 10
32.356761782109857
 20
66.588521602534158
 30
0.0
 40
2.5569999999999991
 50
278.43708657056169
 51
41.562913429438296
  0
ARC
  5
23F
  8
0
 10
31.121773084927501
 20
59.584519609542419
 30
0.0
 40
4.1900000000000004
 50
98.437086570561917
 51
125.4480508740983
  0
LINE
  5
240
  8
0
 10
31.920458663019591
 20
59.457092894917011
 30
0.0
 11
29.942581180907101
 21
60.528182370989107
 31
0.0
  0
ARC
  5
241
  8
0
 10
31.9378319071634
 20
64.212619171827683
 30
0.0
 40
4.1900000000000004
 50
214.55194912590181
 51
241.56291342943811
  0
LINE
  5
242
  8
0
 10
32.73193335442437
 20
64.059194559360989
 30
0.0
 11
30.50700230354386
 21
63.729173622407338
 31
0.0
  0
ARC
  5
243
  8
0
 10
32.356761782109857
 20
47.82871674112122
 30
0.0
 40
2.5569999999999991
 50
318.43708657056169
 51
81.562913429438311
  0
ARC
  5
244
  8
0
 10
30.70283190716339
 20
57.208619171827692
 30
0.0
 40
2.5569999999999991
 50
298.43708657056169
 51
61.562913429438311
  0
ARC
  5
245
  8
0
 10
31.9378319071634
 20
50.204619171827702
 30
0.0
 40
4.1900000000000004
 50
118.4370865705619
 51
145.44805087409819
  0
LINE
  5
246
  8
0
 10
32.73193335442437
 20
50.358043784294388
 30
0.0
 11
30.50700230354386
 21
50.68806472124804
 31
0.0
  0
ARC
  5
247
  8
0
 10
31.12177308492744
 20
54.832718734112959
 30
0.0
 40
4.1900000000000004
 50
234.5519491259017
 51
261.56291342943808
  0
LINE
  5
248
  8
0
 10
31.920458663019531
 20
54.960145448738373
 30
0.0
 11
29.942581180907041
 21
53.88905597266627
 31
0.0
  0
ARC
  5
249
  8
0
 10
37.119063054625428
 20
39.58016897617437
 30
0.0
 40
2.5569999999999991
 50
338.43708657056169
 51
101.5629134294382
  0
ARC
  5
24A
  8
0
 10
32.356761782109857
 20
47.82871674112122
 30
0.0
 40
2.5569999999999991
 50
318.43708657056169
 51
81.562913429438311
  0
ARC
  5
24B
  8
0
 10
35.91279125263344
 20
41.66950450214393
 30
0.0
 40
4.1900000000000004
 50
138.43708657056189
 51
165.4480508740983
  0
LINE
  5
24C
  8
0
 10
36.606528214834441
 20
42.085275169133112
 30
0.0
 11
34.402903116407231
 21
41.634422171381473
 31
0.0
  0
ARC
  5
24D
  8
0
 10
33.563043523632807
 20
45.739386953742539
 30
0.0
 40
4.1900000000000004
 50
254.5519491259017
 51
281.56291342943808
  0
LINE
  5
24E
  8
0
 10
34.269979964494389
 20
46.13229545305829
 30
0.0
 11
32.777717265855408
 21
44.44932663627911
 31
0.0
  0
ARC
  5
24F
  8
0
 10
44.41533190716342
 20
33.457872473039437
 30
0.0
 40
2.5569999999999991
 50
358.43708657056169
 51
121.5629134294382
  0
ARC
  5
250
  8
0
 10
37.119063054625428
 20
39.580168976174313
 30
0.0
 40
2.5569999999999991
 50
338.43708657056169
 51
101.5629134294382
  0
ARC
  5
251
  8
0
 10
42.567212360121907
 20
35.008636394531912
 30
0.0
 40
4.1900000000000004
 50
158.43708657056189
 51
185.44805087409819
  0
LINE
  5
252
  8
0
 10
43.07690992115436
 20
35.636605037483193
 30
0.0
 11
41.16038048409348
 21
34.459257630436632
 31
0.0
  0
ARC
  5
253
  8
0
 10
38.967189979057203
 20
38.029413846713268
 30
0.0
 40
4.1900000000000004
 50
274.55194912590167
 51
301.56291342943808
  0
LINE
  5
254
  8
0
 10
39.497110314649611
 20
38.640413566989892
 30
0.0
 11
38.670451304391982
 21
36.548556286781697
 31
0.0
  0
ARC
  5
255
  8
0
 10
53.365530634647882
 20
30.200266545467901
 30
0.0
 40
2.5569999999999991
 50
18.437086570561789
 51
141.56291342943831
  0
ARC
  5
256
  8
0
 10
44.41533190716342
 20
33.457872473039437
 30
0.0
 40
2.5569999999999991
 50
358.43708657056169
 51
121.5629134294382
  0
ARC
  5
257
  8
0
 10
51.098473835269651
 20
31.025413846713249
 30
0.0
 40
4.1900000000000004
 50
178.43708657056189
 51
205.44805087409819
  0
LINE
  5
258
  8
0
 10
51.362654946938157
 20
31.78983817945657
 30
0.0
 11
49.964382906315279
 21
30.028001836202112
 31
0.0
  0
ARC
  5
259
  8
0
 10
46.682392631968973
 20
32.632735956817143
 30
0.0
 40
4.1900000000000004
 50
294.55194912590179
 51
321.5629134294382
  0
LINE
  5
25A
  8
0
 10
46.97138064902861
 20
33.388131314393867
 30
0.0
 11
46.910032603976951
 21
31.139694431275181
 31
0.0
  0
ARC
  5
25B
  8
0
 10
62.890133179678969
 20
30.200266545467901
 30
0.0
 40
2.5569999999999991
 50
38.43708657056181
 51
161.56291342943831
  0
ARC
  5
25C
  8
0
 10
53.365530634647833
 20
30.200266545467901
 30
0.0
 40
2.5569999999999991
 50
18.437086570561721
 51
141.5629134294382
  0
ARC
  5
25D
  8
0
 10
60.477579636163973
 20
30.200272284058819
 30
0.0
 40
4.1900000000000004
 50
198.43708657056189
 51
225.4480508740983
  0
LINE
  5
25E
  8
0
 10
60.464380157503463
 20
31.00895145036371
 30
0.0
 11
59.753017757715163
 21
28.87512963583292
 31
0.0
  0
ARC
  5
25F
  8
0
 10
55.778084178162771
 20
30.200272284058819
 30
0.0
 40
4.1900000000000004
 50
314.55194912590167
 51
341.56291342943808
  0
LINE
  5
260
  8
0
 10
55.791283656823339
 20
31.00895145036371
 30
0.0
 11
56.502646056611631
 21
28.875129635832891
 31
0.0
  0
ARC
  5
261
  8
0
 10
71.840331907163431
 20
33.457872473039501
 30
0.0
 40
2.5569999999999991
 50
58.437086570561732
 51
181.56291342943831
  0
ARC
  5
262
  8
0
 10
62.890133179679033
 20
30.200266545467901
 30
0.0
 40
2.5569999999999991
 50
38.437086570561711
 51
161.5629134294382
  0
ARC
  5
263
  8
0
 10
69.573271182357871
 20
32.6327359568172
 30
0.0
 40
4.1900000000000004
 50
218.43708657056189
 51
245.4480508740983
  0
LINE
  5
264
  8
0
 10
69.284283165298163
 20
33.388131314393867
 30
0.0
 11
69.345631210349836
 21
31.139694431275199
 31
0.0
  0
ARC
  5
265
  8
0
 10
65.15718997905725
 20
31.025413846713281
 30
0.0
 40
4.1900000000000004
 50
334.55194912590167
 51
1.562913429438088
  0
LINE
  5
266
  8
0
 10
64.89300886738863
 20
31.78983817945657
 30
0.0
 11
66.291280908011515
 21
30.028001836202051
 31
0.0
  0
ARC
  5
267
  8
0
 10
79.136600759701366
 20
39.58016897617437
 30
0.0
 40
2.5569999999999991
 50
78.437086570561746
 51
201.56291342943831
  0
ARC
  5
268
  8
0
 10
71.840331907163431
 20
33.45787247303948
 30
0.0
 40
2.5569999999999991
 50
58.437086570561732
 51
181.56291342943831
  0
ARC
  5
269
  8
0
 10
77.288473835269599
 20
38.029413846713268
 30
0.0
 40
4.1900000000000004
 50
238.43708657056189
 51
265.44805087409833
  0
LINE
  5
26A
  8
0
 10
76.758553499677134
 20
38.640413566989949
 30
0.0
 11
77.585212509934806
 21
36.548556286781761
 31
0.0
  0
ARC
  5
26B
  8
0
 10
73.688451454204923
 20
35.008636394531933
 30
0.0
 40
4.1900000000000004
 50
354.55194912590167
 51
21.562913429438151
  0
LINE
  5
26C
  8
0
 10
73.178753893172427
 20
35.63660503748325
 30
0.0
 11
75.095283330233315
 21
34.459257630436632
 31
0.0
  0
ARC
  5
26D
  8
0
 10
83.898902032216867
 20
47.82871674112122
 30
0.0
 40
2.5569999999999991
 50
98.43708657056176
 51
221.56291342943831
  0
ARC
  5
26E
  8
0
 10
79.136600759701366
 20
39.58016897617437
 30
0.0
 40
2.5569999999999991
 50
78.437086570561704
 51
201.5629134294382
  0
ARC
  5
26F
  8
0
 10
82.692620290693924
 20
45.739386953742539
 30
0.0
 40
4.1900000000000004
 50
258.43708657056192
 51
285.44805087409821
  0
LINE
  5
270
  8
0
 10
81.985683849832355
 20
46.132295453058227
 30
0.0
 11
83.477946548471337
 21
44.44932663627911
 31
0.0
  0
ARC
  5
271
  8
0
 10
80.342872561693298
 20
41.669504502143909
 30
0.0
 40
4.1900000000000004
 50
14.551949125901739
 51
41.562913429438119
  0
LINE
  5
272
  8
0
 10
79.649135599492354
 20
42.085275169133112
 30
0.0
 11
81.852760697919564
 21
41.634422171381438
 31
0.0
  0
ARC
  5
273
  8
0
 10
85.552831907163409
 20
57.208619171827628
 30
0.0
 40
2.5569999999999991
 50
118.4370865705617
 51
241.56291342943831
  0
ARC
  5
274
  8
0
 10
83.898902032216867
 20
47.828716741121191
 30
0.0
 40
2.5569999999999991
 50
98.437086570561647
 51
221.5629134294382
  0
ARC
  5
275
  8
0
 10
85.133890729399283
 20
54.832718734112902
 30
0.0
 40
4.1900000000000004
 50
278.43708657056192
 51
305.44805087409821
  0
LINE
  5
276
  8
0
 10
84.335205151307207
 20
54.960145448738373
 30
0.0
 11
86.313082633419697
 21
53.889055972666242
 31
0.0
  0
ARC
  5
277
  8
0
 10
84.317831907163395
 20
50.204619171827638
 30
0.0
 40
4.1900000000000004
 50
34.551949125901722
 51
61.562913429438098
  0
LINE
  5
278
  8
0
 10
83.523730459902424
 20
50.358043784294338
 30
0.0
 11
85.748661510782938
 21
50.688064721248011
 31
0.0
  0
ARC
  5
279
  8
0
 10
83.898902032216938
 20
66.588521602534158
 30
0.0
 40
2.5569999999999991
 50
138.43708657056169
 51
261.5629134294382
  0
ARC
  5
27A
  8
0
 10
85.552831907163409
 20
57.208619171827692
 30
0.0
 40
2.5569999999999991
 50
118.4370865705616
 51
241.5629134294382
  0
ARC
  5
27B
  8
0
 10
84.317831907163395
 20
64.212619171827683
 30
0.0
 40
4.1900000000000004
 50
298.43708657056192
 51
325.44805087409821
  0
LINE
  5
27C
  8
0
 10
83.523730459902424
 20
64.059194559360989
 30
0.0
 11
85.748661510782938
 21
63.729173622407309
 31
0.0
  0
ARC
  5
27D
  8
0
 10
85.133890729399283
 20
59.584519609542419
 30
0.0
 40
4.1900000000000004
 50
54.551949125901707
 51
81.562913429438069
  0
LINE
  5
27E
  8
0
 10
84.335205151307207
 20
59.457092894917011
 30
0.0
 11
86.313082633419754
 21
60.528182370989107
 31
0.0
  0
ARC
  5
27F
  8
0
 10
79.136600759701366
 20
74.837069367481021
 30
0.0
 40
2.5569999999999991
 50
158.4370865705616
 51
281.5629134294382
  0
ARC
  5
280
  8
0
 10
83.898902032216938
 20
66.588521602534158
 30
0.0
 40
2.5569999999999991
 50
138.4370865705616
 51
261.5629134294382
  0
ARC
  5
281
  8
0
 10
80.342872561693355
 20
72.747733841511447
 30
0.0
 40
4.1900000000000004
 50
318.4370865705618
 51
345.44805087409821
  0
LINE
  5
282
  8
0
 10
79.649135599492354
 20
72.331963174522215
 30
0.0
 11
81.852760697919564
 21
72.782816172273883
 31
0.0
  0
ARC
  5
283
  8
0
 10
82.692620290693981
 20
68.677851389912817
 30
0.0
 40
4.1900000000000004
 50
74.551949125901643
 51
101.562913429438
  0
LINE
  5
284
  8
0
 10
81.985683849832355
 20
68.284942890597094
 30
0.0
 11
83.477946548471337
 21
69.967911707376217
 31
0.0
  0
ARC
  5
285
  8
0
 10
71.840331907163474
 20
80.95936587061594
 30
0.0
 40
2.5569999999999991
 50
178.4370865705616
 51
301.5629134294382
  0
ARC
  5
286
  8
0
 10
79.136600759701366
 20
74.837069367480964
 30
0.0
 40
2.5569999999999991
 50
158.4370865705616
 51
281.5629134294382
  0
ARC
  5
287
  8
0
 10
73.688451454204994
 20
79.408601949123451
 30
0.0
 40
4.1900000000000004
 50
338.4370865705618
 51
5.4480508740981097
  0
LINE
  5
288
  8
0
 10
73.178753893172484
 20
78.780633306172135
 30
0.0
 11
75.095283330233372
 21
79.957980713218703
 31
0.0
  0
ARC
  5
289
  8
0
 10
77.288473835269656
 20
76.387824496942116
 30
0.0
 40
4.1900000000000004
 50
94.551949125901629
 51
121.562913429438
  0
LINE
  5
28A
  8
0
 10
76.758553499677248
 20
75.776824776665464
 30
0.0
 11
77.585212509934877
 21
77.868682056873624
 31
0.0
  0
ARC
  5
28B
  8
0
 10
62.890133179679033
 20
84.216971798187544
 30
0.0
 40
2.5569999999999991
 50
198.4370865705616
 51
321.5629134294382
  0
ARC
  5
28C
  8
0
 10
71.840331907163431
 20
80.95936587061594
 30
0.0
 40
2.5569999999999991
 50
178.4370865705616
 51
301.56291342943808
  0
ARC
  5
28D
  8
0
 10
65.15718997905725
 20
83.391824496942135
 30
0.0
 40
4.1900000000000004
 50
358.4370865705618
 51
25.448050874098168
  0
LINE
  5
28E
  8
0
 10
64.893008867388687
 20
82.627400164198804
 30
0.0
 11
66.291280908011515
 21
84.389236507453276
 31
0.0
  0
ARC
  5
28F
  8
0
 10
69.573271182357871
 20
81.784502386838241
 30
0.0
 40
4.1900000000000004
 50
114.5519491259016
 51
141.562913429438
  0
LINE
  5
290
  8
0
 10
69.284283165298234
 20
81.029107029261496
 30
0.0
 11
69.345631210349836
 21
83.277543912380139
 31
0.0
  0
ARC
  5
291
  8
0
 10
58.127831907163397
 20
57.208619171827749
 30
0.0
 40
30.0
 50
88.873548708714168
 51
91.126451291285804
  0
ARC
  5
292
  8
0
 10
58.127831907163397
 20
57.208619171827749
 30
0.0
 40
30.0
 50
108.8735487087141
 51
111.1264512912857
  0
ARC
  5
293
  8
0
 10
58.127831907163397
 20
57.208619171827749
 30
0.0
 40
30.0
 50
128.8735487087142
 51
131.1264512912858
  0
ARC
  5
294
  8
0
 10
58.127831907163397
 20
57.208619171827749
 30
0.0
 40
30.0
 50
148.87354870871411
 51
151.12645129128569
  0
ARC
  5
295
  8
0
 10
58.127831907163397
 20
57.208619171827749
 30
0.0
 40
30.0
 50
168.8735487087144
 51
171.1264512912858
  0
ARC
  5
296
  8
0
 10
58.127831907163397
 20
57.208619171827749
 30
0.0
 40
30.0
 50
188.87354870871411
 51
191.1264512912858
  0
ARC
  5
297
  8
0
 10
58.127831907163397
 20
57.208619171827749
 30
0.0
 40
30.0
 50
208.8735487087142
 51
211.1264512912858
  0
ARC
  5
298
  8
0
 10
58.127831907163397
 20
57.208619171827749
 30
0.0
 40
30.0
 50
228.8735487087142
 51
231.126451291286
  0
ARC
  5
299
  8
0
 10
58.127831907163397
 20
57.208619171827749
 30
0.0
 40
30.0
 50
248.87354870871431
 51
251.126451291286
  0
ARC
  5
29A
  8
0
 10
58.127831907163397
 20
57.208619171827749
 30
0.0
 40
30.0
 50
268.87354870871422
 51
271.12645129128589
  0
ARC
  5
29B
  8
0
 10
58.127831907163397
 20
57.208619171827749
 30
0.0
 40
30.0
 50
288.87354870871428
 51
291.126451291286
  0
ARC
  5
29C
  8
0
 10
58.127831907163397
 20
57.208619171827749
 30
0.0
 40
30.0
 50
308.87354870871411
 51
311.12645129128589
  0
ARC
  5
29D
  8
0
 10
58.127831907163397
 20
57.208619171827749
 30
0.0
 40
30.0
 50
328.87354870871411
 51
331.12645129128572
  0
ARC
  5
29E
  8
0
 10
58.127831907163397
 20
57.208619171827749
 30
0.0
 40
30.0
 50
348.87354870871411
 51
351.12645129128578
  0
ARC
  5
29F
  8
0
 10
58.127831907163397
 20
57.208619171827749
 30
0.0
 40
30.0
 50
8.8735487087140985
 51
11.126451291285809
  0
ARC
  5
2A0
  8
0
 10
58.127831907163397
 20
57.208619171827749
 30
0.0
 40
30.0
 50
28.873548708714079
 51
31.126451291285711
  0
ARC
  5
2A1
  8
0
 10
58.127831907163397
 20
57.208619171827749
 30
0.0
 40
30.0
 50
48.873548708713983
 51
51.126451291285669
  0
LINE
  5
2A2
  8
1
 10
58.127831907163397
 20
92.208619171827692
 30
0.0
 11
58.127831907163397
 21
22.208619171827689
 31
0.0
  0
LINE
  5
2A3
  8
1
 10
93.127831907163397
 20
57.208619171827692
 30
0.0
 11
23.127831907163401
 21
57.208619171827692
 31
0.0
  0
CIRCLE
  5
2A8
  8
0
 10
58.127831907163397
 20
57.208619171827692
 30
0.0
 40
6.0
  0
LINE
  5
2B5
  8
0
 10
179.1568328135138
 20
72.608619171827755
 30
0.0
 11
179.1568328135142
 21
41.808619171827758
 31
0.0
1001
ACAD
1000
ASC_BOUNDS
1002
{
1070
    19
1002
}
  0
LINE
  5
2B6
  8
0
 10
169.1568328135138
 20
72.608619171827755
 30
0.0
 11
169.1568328135138
 21
41.808619171827758
 31
0.0
1001
ACAD
1000
ASC_BOUNDS
1002
{
1070
    19
1002
}
  0
LINE
  5
2B7
  8
0
 10
178.55683281351381
 20
41.208619171827742
 30
0.0
 11
176.35683281351439
 21
41.208619171827721
 31
0.0
1001
ACAD
1000
ASC_BOUNDS
1002
{
1070
    19
1002
}
  0
ARC
  5
2B8
  8
0
 10
178.55683281351381
 20
41.808619171827758
 30
0.0
 40
0.6
 50
270.0
 51
0.0
1001
ACAD
1000
ASC_BOUNDS
1002
{
1070
    19
1002
}
  0
ARC
  5
2B9
  8
0
 10
169.7568328135136
 20
41.808619171827758
 30
0.0
 40
0.6
 50
180.0
 51
270.0
1001
ACAD
1000
ASC_BOUNDS
1002
{
1070
    19
1002
}
  0
LINE
  5
2BA
  8
1
 10
178.65683281351409
 20
46.208619171827742
 30
0.0
 11
169.656832813514
 21
46.208619171827742
 31
0.0
  0
LINE
  5
2BB
  8
1
 10
178.65683281351409
 20
68.208619171827635
 30
0.0
 11
169.656832813514
 21
68.208619171827635
 31
0.0
  0
LINE
  5
2BC
  8
0
 10
178.55683281351381
 20
73.208619171827806
 30
0.0
 11
176.3568328135143
 21
73.208619171827777
 31
0.0
1001
ACAD
1000
ASC_BOUNDS
1002
{
1070
    19
1002
}
  0
ARC
  5
2BD
  8
2
 10
169.7568328135136
 20
63.808619171827658
 30
0.0
 40
0.6
 50
180.0
 51
270.00000000000023
1001
ACAD
1000
ASC_BOUNDS
1002
{
1070
    19
1002
}
  0
ARC
  5
2BE
  8
2
 10
178.55683281351381
 20
63.808619171827658
 30
0.0
 40
0.6
 50
270.00000000000023
 51
0.0
1001
ACAD
1000
ASC_BOUNDS
1002
{
1070
    19
1002
}
  0
ARC
  5
2BF
  8
0
 10
178.55683281351381
 20
72.608619171827755
 30
0.0
 40
0.6
 50
0.0
 51
90.0
1001
ACAD
1000
ASC_BOUNDS
1002
{
1070
    19
1002
}
  0
ARC
  5
2C0
  8
0
 10
169.7568328135136
 20
72.608619171827755
 30
0.0
 40
0.6
 50
90.0
 51
180.0
1001
ACAD
1000
ASC_BOUNDS
1002
{
1070
    19
1002
}
  0
LINE
  5
2C1
  8
2
 10
169.7568328135136
 20
63.208619171827642
 30
0.0
 11
178.55683281351381
 21
63.208619171827642
 31
0.0
1001
ACAD
1000
ASC_BOUNDS
1002
{
1070
    19
1002
}
  0
LINE
  5
2C2
  8
2
 10
169.7568328135136
 20
51.208619171827749
 30
0.0
 11
178.55683281351381
 21
51.208619171827749
 31
0.0
1001
ACAD
1000
ASC_BOUNDS
1002
{
1070
    19
1002
}
  0
ARC
  5
2C3
  8
2
 10
178.55683281351381
 20
50.608619171827733
 30
0.0
 40
0.6
 50
0.0
 51
89.999999999999844
1001
ACAD
1000
ASC_BOUNDS
1002
{
1070
    19
1002
}
  0
ARC
  5
2C4
  8
2
 10
169.7568328135136
 20
50.608619171827733
 30
0.0
 40
0.6
 50
89.999999999999801
 51
180.0
1001
ACAD
1000
ASC_BOUNDS
1002
{
1070
    19
1002
}
  0
LINE
  5
2C5
  8
0
 10
171.9568328135145
 20
73.208619171827834
 30
0.0
 11
169.7568328135136
 21
73.208619171827806
 31
0.0
1001
ACAD
1000
ASC_BOUNDS
1002
{
1070
    19
1002
}
  0
LINE
  5
2C6
  8
0
 10
171.95683281351441
 20
41.208619171827721
 30
0.0
 11
169.7568328135136
 21
41.208619171827742
 31
0.0
1001
ACAD
1000
ASC_BOUNDS
1002
{
1070
    19
1002
}
  0
CIRCLE
  5
332
  8
0
 10
58.127831907163397
 20
57.208619171827692
 30
0.0
 40
16.0
  0
TEXT
  5
460
  8
0
 62
     3
 10
0.0
 20
0.0
 30
0.0
 40
10.0
  1
SIS318
  7
STANDARD1
  0
ENDSEC
  0
EOF
