  0
SECTION
  2
HEADER
  9
$ACADVER
  1
AC1009
  9
$INSBASE
 10
0.0
 20
0.0
 30
0.0
  9
$EXTMIN
 10
0.0
 20
-2.960436562073669
 30
0.0
  9
$EXTMAX
 10
598.0
 20
380.0
 30
0.0
  9
$LIMMIN
 10
0.0
 20
0.0
  9
$LIMMAX
 10
270.0
 20
175.0
  9
$ORTHOMODE
 70
     1
  9
$REGENMODE
 70
     1
  9
$FILLMODE
 70
     1
  9
$QTEXTMODE
 70
     0
  9
$MIRRTEXT
 70
     0
  9
$DRAGMODE
 70
     2
  9
$LTSCALE
 40
10.0
  9
$OSMODE
 70
    55
  9
$ATTMODE
 70
     1
  9
$TEXTSIZE
 40
0.2
  9
$TRACEWID
 40
0.05
  9
$TEXTSTYLE
  7
STANDARD
  9
$CLAYER
  8
0
  9
$CELTYPE
  6
BYLAYER
  9
$CECOLOR
 62
   256
  9
$DIMSCALE
 40
1.0
  9
$DIMASZ
 40
3.0
  9
$DIMEXO
 40
2.0
  9
$DIMDLI
 40
0.38
  9
$DIMRND
 40
0.0
  9
$DIMDLE
 40
0.0
  9
$DIMEXE
 40
2.0
  9
$DIMTP
 40
0.0
  9
$DIMTM
 40
0.0
  9
$DIMTXT
 40
3.0
  9
$DIMCEN
 40
0.0
  9
$DIMTSZ
 40
0.0
  9
$DIMTOL
 70
     0
  9
$DIMLIM
 70
     0
  9
$DIMTIH
 70
     0
  9
$DIMTOH
 70
     0
  9
$DIMSE1
 70
     0
  9
$DIMSE2
 70
     0
  9
$DIMTAD
 70
     1
  9
$DIMZIN
 70
     8
  9
$DIMBLK
  1

  9
$DIMASO
 70
     0
  9
$DIMSHO
 70
     0
  9
$DIMPOST
  1

  9
$DIMAPOST
  1

  9
$DIMALT
 70
     0
  9
$DIMALTD
 70
     2
  9
$DIMALTF
 40
25.399999999999999
  9
$DIMLFAC
 40
1.0
  9
$DIMTOFL
 70
     1
  9
$DIMTVP
 40
1.6000000000000001
  9
$DIMTIX
 70
     0
  9
$DIMSOXD
 70
     0
  9
$DIMSAH
 70
     0
  9
$DIMBLK1
  1

  9
$DIMBLK2
  1

  9
$DIMSTYLE
  2
STANDARD
  9
$DIMCLRD
 70
     0
  9
$DIMCLRE
 70
     0
  9
$DIMCLRT
 70
     0
  9
$DIMTFAC
 40
1.0
  9
$DIMGAP
 40
0.5
  9
$LUNITS
 70
     2
  9
$LUPREC
 70
     1
  9
$SKETCHINC
 40
0.1
  9
$FILLETRAD
 40
1.6000000000000001
  9
$AUNITS
 70
     0
  9
$AUPREC
 70
     1
  9
$MENU
  1
E:\r13\win\SUPPORT\ACAD
  9
$ELEVATION
 40
0.0
  9
$PELEVATION
 40
0.0
  9
$THICKNESS
 40
0.0
  9
$LIMCHECK
 70
     0
  9
$BLIPMODE
 70
     0
  9
$CHAMFERA
 40
0.0
  9
$CHAMFERB
 40
0.0
  9
$SKPOLY
 70
     0
  9
$TDCREATE
 40
2449839.7803587969
  9
$TDUPDATE
 40
2456598.4980654749
  9
$TDINDWG
 40
0.3075924769
  9
$TDUSRTIMER
 40
0.3075924769
  9
$USRTIMER
 70
     1
  9
$ANGBASE
 50
0.0
  9
$ANGDIR
 70
     0
  9
$PDMODE
 70
     0
  9
$PDSIZE
 40
0.0
  9
$PLINEWID
 40
0.0
  9
$COORDS
 70
     1
  9
$SPLFRAME
 70
     0
  9
$SPLINETYPE
 70
     6
  9
$SPLINESEGS
 70
     8
  9
$ATTDIA
 70
     0
  9
$ATTREQ
 70
     1
  9
$HANDLING
 70
     1
  9
$HANDSEED
  5
1318
  9
$SURFTAB1
 70
     6
  9
$SURFTAB2
 70
     6
  9
$SURFTYPE
 70
     6
  9
$SURFU
 70
     6
  9
$SURFV
 70
     6
  9
$UCSNAME
  2

  9
$UCSORG
 10
0.0
 20
0.0
 30
0.0
  9
$UCSXDIR
 10
1.0
 20
0.0
 30
0.0
  9
$UCSYDIR
 10
0.0
 20
1.0
 30
0.0
  9
$PUCSNAME
  2

  9
$PUCSORG
 10
0.0
 20
0.0
 30
0.0
  9
$PUCSXDIR
 10
1.0
 20
0.0
 30
0.0
  9
$PUCSYDIR
 10
0.0
 20
1.0
 30
0.0
  9
$USERI1
 70
     0
  9
$USERI2
 70
     1
  9
$USERI3
 70
     1
  9
$USERI4
 70
     0
  9
$USERI5
 70
     0
  9
$USERR1
 40
0.0
  9
$USERR2
 40
0.0
  9
$USERR3
 40
0.0
  9
$USERR4
 40
0.0
  9
$USERR5
 40
0.0
  9
$WORLDVIEW
 70
     1
  9
$SHADEDGE
 70
     3
  9
$SHADEDIF
 70
    70
  9
$TILEMODE
 70
     1
  9
$MAXACTVP
 70
    16
  9
$PLIMCHECK
 70
     0
  9
$PEXTMIN
 10
1.0000000000000000E+020
 20
1.0000000000000000E+020
 30
1.0000000000000000E+020
  9
$PEXTMAX
 10
-1.0000000000000000E+020
 20
-1.0000000000000000E+020
 30
-1.0000000000000000E+020
  9
$PLIMMIN
 10
0.0
 20
0.0
  9
$PLIMMAX
 10
12.0
 20
9.0
  9
$UNITMODE
 70
     0
  9
$VISRETAIN
 70
     0
  9
$PLINEGEN
 70
     0
  9
$PSLTSCALE
 70
     0
  0
ENDSEC
  0
SECTION
  2
TABLES
  0
TABLE
  2
VPORT
 70
     1
  0
VPORT
  2
*ACTIVE
 70
     0
 10
0.0
 20
0.0
 11
1.0
 21
1.0
 12
299.00000139232719
 22
246.6108548215114
 13
0.0
 23
0.0
 14
10.0
 24
10.0
 15
10.0
 25
10.0
 16
0.0
 26
0.0
 36
1.0
 17
0.0
 27
0.0
 37
0.0
 40
503.56128083080318
 41
1.7807262569832401
 42
50.0
 43
0.0
 44
0.0
 50
0.0
 51
0.0
 71
     0
 72
   500
 73
     1
 74
     0
 75
     0
 76
     0
 77
     0
 78
     2
  0
ENDTAB
  0
TABLE
  2
LTYPE
 70
     5
  0
LTYPE
  2
CONTINUOUS
 70
     0
  3
Solid Line
 72
    65
 73
     0
 40
0.0
  0
LTYPE
  2
CENTER
 70
     0
  3
____ _ ____ _ ____ _ ____ _ ____ _ ____ _ ____
 72
    65
 73
     4
 40
2.0
 49
1.25
 49
-0.25
 49
0.25
 49
-0.25
  0
LTYPE
  2
HIDDEN
 70
     0
  3
__ __ __ __ __ __ __ __ __ __ __ __ __ __ __ __
 72
    65
 73
     2
 40
0.375
 49
0.25
 49
-0.125
  0
LTYPE
  2
PHANTOM
 70
     0
  3
_____ _ _ _____ _ _ _____ _ _ _____ _ _ ____
 72
    65
 73
     6
 40
2.5
 49
1.25
 49
-0.25
 49
0.25
 49
-0.25
 49
0.25
 49
-0.25
  0
LTYPE
  2
PHANTOM2
 70
     0
  3
___ _ _ ___ _ _ ___ _ _ ___ _ _
 72
    65
 73
     6
 40
1.25
 49
0.625
 49
-0.125
 49
0.125
 49
-0.125
 49
0.125
 49
-0.125
  0
ENDTAB
  0
TABLE
  2
LAYER
 70
     4
  0
LAYER
  2
0
 70
     0
 62
     7
  6
CONTINUOUS
  0
LAYER
  2
1
 70
     0
 62
     1
  6
CENTER
  0
LAYER
  2
2
 70
     0
 62
     2
  6
HIDDEN
  0
LAYER
  2
5
 70
     0
 62
     3
  6
PHANTOM
  0
ENDTAB
  0
TABLE
  2
STYLE
 70
     2
  0
STYLE
  2
STANDARD
 70
     0
 40
0.0
 41
1.0
 50
0.0
 71
     0
 42
0.2
  3
TXT
  4
BIGFONT
  0
STYLE
  2
STANDARD1
 70
     0
 40
0.0
 41
1.0
 50
0.0
 71
     0
 42
3.0
  3
txt
  4

  0
ENDTAB
  0
TABLE
  2
VIEW
 70
     1
  0
VIEW
  2
ALL
 70
     0
 40
179.5384664489153
 10
135.0
 20
89.769233224457665
 41
0.0
 11
0.0
 21
0.0
 31
1.0
 12
0.0
 22
0.0
 32
0.0
 42
0.0
 43
0.0
 44
0.0
 50
0.0
 71
     0
  0
ENDTAB
  0
TABLE
  2
UCS
 70
     0
  0
ENDTAB
  0
TABLE
  2
APPID
 70
    13
  0
APPID
  2
ACAD
 70
     0
  0
APPID
  2
GENIUS_GENODEF_13
 70
     0
  0
APPID
  2
GENIUS_GENOBJ-N-FIL_13
 70
     0
  0
APPID
  2
GENIUS_GENOREF_13
 70
     0
  0
APPID
  2
ACAD_EXEMPT_FROM_CAD_STANDARDS
 70
     0
  0
APPID
  2
ACAD_DSTYLE_DIMJAG
 70
     0
  0
APPID
  2
ACAD_DSTYLE_DIMTALN
 70
     0
  0
APPID
  2
_FTCNV
 70
     0
  0
APPID
  2
GENIUS_GENFIL_13
 70
     0
  0
APPID
  2
GENIUS_GENOBJ-N-CHA_13
 70
     0
  0
APPID
  2
ACAD_PSEXT
 70
     0
  0
APPID
  2
ACAD_MLEADERVER
 70
     0
  0
APPID
  2
ACAD_NAV_VCDISPLAY
 70
     0
  0
ENDTAB
  0
TABLE
  2
DIMSTYLE
 70
     1
  0
DIMSTYLE
  2
STANDARD
 70
     0
  3

  4

  5

  6

  7

 40
1.0
 41
0.18
 42
0.0625
 43
0.38
 44
0.18
 45
0.0
 46
0.0
 47
0.0
 48
0.0
140
0.18
141
0.09
142
0.0
143
25.399999999999999
144
1.0
145
0.0
146
1.0
147
0.09
 71
     0
 72
     0
 73
     1
 74
     1
 75
     0
 76
     0
 77
     0
 78
     0
170
     0
171
     2
172
     0
173
     0
174
     0
175
     0
176
     0
177
     0
178
     0
  0
ENDTAB
  0
ENDSEC
  0
SECTION
  2
BLOCKS
  0
BLOCK
  8
0
  2
$MODEL_SPACE
 70
     0
 10
0.0
 20
0.0
 30
0.0
  3
$MODEL_SPACE
  1

  0
ENDBLK
  5
522
  8
0
  0
BLOCK
 67
     1
  8
0
  2
$PAPER_SPACE
 70
     0
 10
0.0
 20
0.0
 30
0.0
  3
$PAPER_SPACE
  1

  0
ENDBLK
  5
520
 67
     1
  8
0
  0
ENDSEC
  0
SECTION
  2
ENTITIES
  0
LINE
  5
E31
  8
0
 10
540.0
 20
163.0
 30
0.0
 11
540.0
 21
356.99999999999977
 31
0.0
  0
LINE
  5
E34
  8
0
 10
510.0
 20
348.125
 30
0.0
 11
510.0
 21
171.875
 31
0.0
  0
CIRCLE
  5
E35
  8
0
 10
220.0
 20
260.0
 30
0.0
 40
100.0
  0
ARC
  5
E37
  8
0
 10
536.24999999999989
 20
221.50960825580009
 30
0.0
 40
61.509608255800003
 50
247.72628140499879
 51
270.0
  0
ARC
  5
E38
  8
0
 10
537.0
 20
163.0
 30
0.0
 40
3.0
 50
270.0
 51
0.0
  0
LINE
  5
E39
  8
0
 10
536.24999999999989
 20
159.9999999999998
 30
0.0
 11
537.0
 21
159.9999999999998
 31
0.0
  0
ARC
  5
E68
  8
0
 10
535.0
 20
348.125
 30
0.0
 40
25.0
 50
170.8092844899007
 51
180.0
  0
ARC
  5
EA0
  8
0
 10
536.24999999999989
 20
298.49039174429998
 30
0.0
 40
61.509608255800003
 50
90.0
 51
112.2737185950011
  0
ARC
  5
EA1
  8
0
 10
537.0
 20
356.99999999999977
 30
0.0
 40
3.0
 50
0.0
 51
90.0
  0
LINE
  5
EA2
  8
0
 10
536.24999999999989
 20
359.99999999999977
 30
0.0
 11
537.0
 21
359.99999999999977
 31
0.0
  0
ARC
  5
EA3
  8
0
 10
514.56574328700003
 20
351.43122936119988
 30
0.0
 40
4.299999999999998
 50
112.2737185950011
 51
170.8092844899007
  0
LINE
  5
EA4
  8
1
 10
220.00000000000011
 20
140.0
 30
0.0
 11
220.00000000000011
 21
380.0
 31
0.0
1001
GENIUS_GENOREF_13
1005
0
  0
LINE
  5
EA5
  8
1
 10
100.0
 20
260.0
 30
0.0
 11
340.0
 21
260.0
 31
0.0
1001
GENIUS_GENOREF_13
1005
0
  0
CIRCLE
  5
EA6
  8
2
 10
220.0
 20
260.0
 30
0.0
 40
10.0
  0
LINE
  5
EB0
  8
1
 10
598.0
 20
260.0
 30
0.0
 11
490.0
 21
260.0
 31
0.0
  0
ARC
  5
EB3
  8
0
 10
220.0
 20
260.0
 30
0.0
 40
33.0
 50
112.0919657776038
 51
67.908034222395784
  0
ARC
  5
EB4
  8
0
 10
220.0
 20
260.0
 30
0.0
 40
55.0
 50
100.3166710726959
 51
79.683328927319366
  0
ARC
  5
EB5
  8
0
 10
220.0
 20
260.0
 30
0.0
 40
81.5
 50
104.9184321903351
 51
75.081567809664776
  0
LINE
  5
EB6
  8
1
 10
520.0
 20
338.0
 30
0.0
 11
409.99999999999989
 21
338.0
 31
0.0
  0
LINE
  5
EB7
  8
5
 10
420.0
 20
339.27117846386858
 30
0.0
 11
420.00000000000011
 21
336.72882153627472
 31
0.0
  0
LINE
  5
EB8
  8
5
 10
432.8109418478
 20
325.24999999999989
 30
0.0
 11
432.81094184779988
 21
350.75
 31
0.0
  0
ARC
  5
EB9
  8
5
 10
432.7005182309
 20
338.0150000000001
 30
0.0
 40
12.765477600700001
 50
185.78261575370351
 51
270.4956247083004
  0
ARC
  5
EBA
  8
5
 10
432.70051823088539
 20
337.98500000000013
 30
0.0
 40
12.765477600700001
 50
89.504375291699603
 51
174.21738424630291
  0
ARC
  5
EBB
  8
5
 10
474.94881449180002
 20
343.9002431875
 30
0.0
 40
6.5
 50
39.104135349899117
 51
89.504375291699603
  0
LINE
  5
EBC
  8
5
 10
475.00504063020003
 20
325.5999999999998
 30
0.0
 11
475.00504063020003
 21
350.39999999999992
 31
0.0
  0
LINE
  5
EBD
  8
5
 10
479.99282024899998
 20
327.99999999999977
 30
0.0
 11
479.99282024899998
 21
347.99999999999977
 31
0.0
  0
ARC
  5
EBE
  8
5
 10
474.94881449180002
 20
332.0997568125
 30
0.0
 40
6.5
 50
270.4956247083004
 51
320.89586465010092
  0
LINE
  5
EBF
  8
5
 10
475.00504063020003
 20
350.39999999999992
 30
0.0
 11
432.81094184778539
 21
350.75000000000011
 31
0.0
  0
LINE
  5
EC0
  8
5
 10
475.0050406301761
 20
325.60000000002123
 30
0.0
 11
432.8109418478
 21
325.25
 31
0.0
  0
ARC
  5
EC1
  8
0
 10
509.44838612069998
 20
325.39999999999992
 30
0.0
 40
0.2
 50
90.0
 51
179.52002198150009
  0
LINE
  5
EC2
  8
0
 10
509.44838612069998
 20
325.59999999999991
 30
0.0
 11
510.0
 21
325.59999999999991
 31
0.0
  0
LINE
  5
EC3
  8
5
 10
508.54317069313061
 20
328.24832452145222
 30
0.0
 11
479.99282024899998
 21
327.99999999999977
 31
0.0
  0
LINE
  5
EC4
  8
5
 10
479.99282024899998
 20
347.9999999999626
 30
0.0
 11
508.5448461128862
 21
347.75166144289841
 31
0.0
  0
ARC
  5
EC5
  8
5
 10
508.54317069313049
 20
347.55166846060001
 30
0.0
 40
0.2
 50
0.0
 51
89.520021981500165
  0
ARC
  5
EC6
  8
5
 10
508.54317069313049
 20
328.44833153939987
 30
0.0
 40
0.2
 50
270.47997801849982
 51
0.0
  0
LINE
  5
EC7
  8
5
 10
508.74317069313048
 20
347.55166846060001
 30
0.0
 11
508.74317069313048
 21
328.44833153939987
 31
0.0
  0
LINE
  5
EC8
  8
5
 10
510.0
 20
344.67445831815019
 30
0.0
 11
508.74317069313048
 21
345.19091844689092
 31
0.0
  0
LINE
  5
EC9
  8
5
 10
510.0
 20
331.32554168184959
 30
0.0
 11
508.74317069313048
 21
330.80908155310902
 31
0.0
  0
LINE
  5
ECA
  8
0
 10
509.00005458133728
 20
296.84964955586941
 30
0.0
 11
509.24839313840152
 21
325.40167541975558
 31
0.0
  0
LINE
  5
ECB
  8
0
 10
510.0
 20
296.84964955586941
 30
0.0
 11
509.00005458129999
 21
296.84964955586941
 31
0.0
  0
LINE
  5
ECC
  8
0
 10
510.00000000000011
 20
291.8618699370694
 30
0.0
 11
506.6000545812999
 21
291.8618699370694
 31
0.0
  0
ARC
  5
ECD
  8
0
 10
513.09981139380011
 20
291.80564379866939
 30
0.0
 40
6.5
 50
129.10413534989911
 51
179.5043752916996
  0
LINE
  5
ECE
  8
0
 10
510.00000000000011
 20
249.66777115466951
 30
0.0
 11
506.25005458129999
 21
249.6677711546694
 31
0.0
  0
ARC
  5
ECF
  8
0
 10
519.01505458125291
 20
249.55734753774411
 30
0.0
 40
12.765477600700001
 50
179.5043752916996
 51
225.16796953433831
  0
LINE
  5
ED0
  8
0
 10
506.6000545812999
 20
291.8618699370694
 30
0.0
 11
506.25005458125293
 21
249.6677711546441
 31
0.0
  0
ARC
  5
ED3
  8
0
 10
240.56974886203091
 20
337.20683539527431
 30
0.0
 40
1.6000000000000001
 50
75.081567809664989
 51
159.6448868144868
  0
ARC
  5
ED4
  8
0
 10
199.43025113796929
 20
337.20683539527431
 30
0.0
 40
1.6000000000000001
 50
20.35511318551314
 51
104.9184321903351
  0
ARC
  5
ED6
  8
0
 10
222.35000000000011
 20
341.5
 30
0.0
 40
2.0
 50
0.0
 51
90.0
  0
ARC
  5
ED7
  8
0
 10
229.55166846060021
 20
325.39999999999992
 30
0.0
 40
0.2
 50
0.4799780184965857
 51
90.0
  0
LINE
  5
ED9
  8
0
 10
228.33032748624851
 20
327.99999999999989
 30
0.0
 11
228.33195243230011
 21
327.97943420680002
 31
0.0
  0
LINE
  5
EDA
  8
0
 10
226.0814262191258
 20
328.0
 30
0.0
 11
227.190918446891
 21
325.59999999999991
 31
0.0
  0
ARC
  5
EDB
  8
0
 10
227.93029329400019
 20
334.10000000000002
 30
0.0
 40
6.6865467124000002
 50
278.38026311219909
 51
302.1197875340996
  0
LINE
  5
EDC
  8
0
 10
224.35000000000011
 20
328.0
 30
0.0
 11
224.35000000000011
 21
341.5
 31
0.0
  0
ARC
  5
EDD
  8
0
 10
217.6500000000002
 20
341.5
 30
0.0
 40
2.0
 50
89.999999999999204
 51
180.0
  0
LINE
  5
EDE
  8
0
 10
212.80908155310931
 20
325.59999999999991
 30
0.0
 11
213.9185737808744
 21
328.0
 31
0.0
  0
ARC
  5
EDF
  8
0
 10
212.06970670600009
 20
334.10000000000002
 30
0.0
 40
6.6865467124000002
 50
237.8802124659002
 51
261.61973688780068
  0
LINE
  5
EE1
  8
0
 10
211.66967251375181
 20
327.99999999999989
 30
0.0
 11
211.66804756770011
 21
327.97943420680002
 31
0.0
  0
ARC
  5
EE2
  8
0
 10
210.44833153940019
 20
325.39999999999992
 30
0.0
 40
0.2
 50
89.999999999999204
 51
179.52002198150339
  0
LINE
  5
EE3
  8
0
 10
215.6500000000002
 20
328.0
 30
0.0
 11
215.6500000000002
 21
341.5
 31
0.0
  0
ARC
  5
EE4
  8
0
 10
220.00000000000011
 20
338.0
 30
0.0
 40
7.0499999999999989
 50
308.09893710550119
 51
231.90106289449869
  0
LINE
  5
EE5
  8
0
 10
211.66967251375181
 20
327.99999999999989
 30
0.0
 11
228.33032748624839
 21
327.99999999999989
 31
0.0
  0
LINE
  5
EE6
  8
0
 10
217.6500000000002
 20
343.5
 30
0.0
 11
222.35000000000011
 21
343.5
 31
0.0
  0
LINE
  5
EE7
  8
0
 10
229.55166846060021
 20
325.59999999999991
 30
0.0
 11
210.44833153940019
 21
325.59999999999991
 31
0.0
  0
ARC
  5
EE8
  8
0
 10
221.5500000000001
 20
344.2632601798
 30
0.0
 40
18.686546712399998
 50
302.1197875340996
 51
339.64488681448597
  0
ARC
  5
EE9
  8
0
 10
218.4500000000001
 20
344.2632601798
 30
0.0
 40
18.686546712399998
 50
200.35511318551389
 51
237.8802124659002
  0
LINE
  5
EEA
  8
1
 10
242.998043395037
 20
338.0
 30
0.0
 11
197.0019566049632
 21
338.0
 31
0.0
  0
ARC
  5
EEB
  8
0
 10
220.00000000000011
 20
337.7000000000001
 30
0.0
 40
13.0
 50
310.1451984141633
 51
229.85480158583661
  0
ARC
  5
EEC
  8
0
 10
225.90024318750019
 20
291.80564379866928
 30
0.0
 40
6.5
 50
0.495624708300398
 51
50.895864650098432
  0
LINE
  5
EED
  8
0
 10
210.0000000000002
 20
296.84964955586929
 30
0.0
 11
230.00000000000011
 21
296.84964955586929
 31
0.0
  0
LINE
  5
EEE
  8
0
 10
210.2483385571017
 20
325.40167541975558
 30
0.0
 11
210.0000000000002
 21
296.84964955586929
 31
0.0
  0
LINE
  5
EEF
  8
0
 10
229.75166144289861
 20
325.40167541975558
 30
0.0
 11
229.99999999996271
 21
296.84964955586929
 31
0.0
  0
ARC
  5
EF0
  8
0
 10
214.0997568125002
 20
291.80564379866928
 30
0.0
 40
6.5
 50
129.1041353499011
 51
179.5043752916996
  0
LINE
  5
EF1
  8
0
 10
207.60000000000011
 20
291.86186993706929
 30
0.0
 11
232.4000000000002
 21
291.86186993706929
 31
0.0
  0
LINE
  5
EF2
  8
0
 10
232.4000000000002
 20
291.86186993706929
 30
0.0
 11
232.75000000000011
 21
249.6677711546694
 31
0.0
  0
LINE
  5
EF3
  8
0
 10
207.60000000000011
 20
291.86186993706929
 30
0.0
 11
207.25000000000011
 21
249.6677711546694
 31
0.0
  0
LINE
  5
EF4
  8
0
 10
207.2500000000002
 20
249.6677711546694
 30
0.0
 11
232.75000000000011
 21
249.6677711546694
 31
0.0
  0
LINE
  5
EF5
  8
0
 10
221.27117846372499
 20
236.8568293068694
 30
0.0
 11
218.7288215362756
 21
236.8568293068694
 31
0.0
  0
ARC
  5
EF6
  8
0
 10
219.9850000000001
 20
249.5573475377694
 30
0.0
 40
12.765477600700001
 50
275.7826157536997
 51
0.495624708300398
  0
ARC
  5
EF7
  8
0
 10
220.0150000000001
 20
249.5573475377694
 30
0.0
 40
12.765477600700001
 50
179.5043752916996
 51
264.2173842462995
  0
ARC
  5
FA4
  8
0
 10
511.73428607863548
 20
308.03299203055212
 30
0.0
 40
34.261559101297081
 50
7.2085589643336334
 51
18.093012509025179
  0
ARC
  5
FA5
  8
0
 10
545.46199607568803
 20
312.36330669769359
 30
0.0
 40
0.2648796832500393
 50
215.17487575534611
 51
353.25179680823021
  0
ARC
  5
FA6
  8
0
 10
591.41346313092367
 20
344.77151355924087
 30
0.0
 40
56.495024577479782
 50
204.48733172993681
 51
215.19427262784549
  0
ARC
  5
FA7
  8
0
 10
520.08633229740974
 20
301.8448571523902
 30
0.0
 40
25.702447620198178
 50
358.64827025681848
 51
39.215172388024747
  0
ARC
  5
FA8
  8
0
 10
532.08698602792686
 20
299.7827333569262
 30
0.0
 40
13.75262929356631
 50
349.60196121423348
 51
354.73660160052731
  0
ARC
  5
FA9
  8
0
 10
555.00040859212356
 20
309.42236317551237
 30
0.0
 40
17.10777698123082
 50
208.73911652181459
 51
228.83351675720689
  0
ARC
  5
FAA
  8
0
 10
544.4423092084171
 20
297.5020494729734
 30
0.0
 40
1.188653353646862
 50
233.73691160338859
 51
350.24177688012043
  0
LINE
  5
FAB
  8
0
 10
545.78162740192704
 20
298.52114304157732
 30
0.0
 11
545.78162740192704
 21
302.45117650785039
 31
0.0
  0
ARC
  5
FAC
  8
0
 10
530.42490443126098
 20
283.26699165021301
 30
0.0
 40
15.47599884034878
 50
7.1180970990970192
 51
51.778288297397083
  0
ARC
  5
FAD
  8
0
 10
532.31584485764631
 20
276.15366854326589
 30
0.0
 40
13.54379031001228
 50
341.65854100328499
 51
353.84759227079968
  0
ARC
  5
FAE
  8
0
 10
542.51308117242422
 20
273.0460237069575
 30
0.0
 40
2.8982857704224632
 50
209.8775199055103
 51
336.52979088806222
  0
LINE
  5
FAF
  8
0
 10
545.78162740192693
 20
274.70213265609999
 30
0.0
 11
545.78162740192693
 21
285.18469853832192
 31
0.0
  0
ARC
  5
FB0
  8
0
 10
532.59684807861186
 20
257.03837421143311
 30
0.0
 40
13.29151373537071
 50
7.2659715490556342
 51
28.982815373496539
  0
ARC
  5
FB1
  8
0
 10
541.53911284044136
 20
261.97950406517919
 30
0.0
 40
3.0749401617239669
 50
28.66574937955442
 51
120.0353514089737
  0
ARC
  5
FB2
  8
0
 10
530.56247964162901
 20
249.5153174576235
 30
0.0
 40
15.3332618466575
 50
325.61279710261579
 51
353.00545134671819
  0
ARC
  5
FB3
  8
0
 10
539.75042208249636
 20
244.07260918897791
 30
0.0
 40
4.7288061286380252
 50
273.02537427773888
 51
317.12884375666482
  0
LINE
  5
FB4
  8
0
 10
545.7816274019267
 20
247.64811090547531
 30
0.0
 11
545.7816274019267
 21
258.71942494625301
 31
0.0
  0
ARC
  5
FB5
  8
0
 10
539.82990857594541
 20
232.44907160845941
 30
0.0
 40
5.9619698133194623
 50
3.3603757272132322
 51
23.614813040807999
  0
ARC
  5
FB6
  8
0
 10
551.93597933622186
 20
223.2005091717142
 30
0.0
 40
15.41799010929374
 50
126.88550367460979
 51
140.72886744580401
  0
ARC
  5
FB7
  8
0
 10
543.70090324848275
 20
234.10934366524009
 30
0.0
 40
1.750301104269486
 50
24.5781285098784
 51
125.60751903682259
  0
ARC
  5
FB8
  8
0
 10
525.76704520100202
 20
225.94958379860219
 30
0.0
 40
20.04957844790194
 50
315.22580202721059
 51
356.61421844134861
  0
LINE
  5
FB9
  8
0
 10
545.7816274019267
 20
212.273506511775
 30
0.0
 11
545.7816274019267
 21
209.66667436373979
 31
0.0
  0
ARC
  5
FBA
  8
0
 10
536.49169649111718
 20
212.40541596581309
 30
0.0
 40
9.2908673670266992
 50
359.18650125626391
 51
8.7078970854253903
  0
ARC
  5
FBB
  8
0
 10
548.92873288206454
 20
208.3201525278883
 30
0.0
 40
7.0913230010204229
 50
126.1446092651171
 51
131.42143624044351
  0
ARC
  5
FBC
  8
0
 10
545.13748153463109
 20
213.63893273603799
 30
0.0
 40
0.5651469170090675
 50
17.835195242282079
 51
133.83196728889681
  0
ARC
  5
FBD
  8
0
 10
566.63049640432428
 20
194.32737754341619
 30
0.0
 40
29.569391005017732
 50
139.22802104739321
 51
154.23839718713219
  0
ARC
  5
FBE
  8
0
 10
501.14936286293897
 20
219.3480627441981
 30
0.0
 40
45.670212599148797
 50
328.28547010564313
 51
347.76131120797749
  0
LINE
  5
FBF
  8
0
 10
545.7816274019267
 20
224.7654827636384
 30
0.0
 11
545.7816274019267
 21
232.79853844721811
 31
0.0
  0
ARC
  5
FC0
  8
0
 10
462.0
 20
283.50420132810012
 30
0.0
 40
89.501059221200023
 50
5.0033248018909982
 51
29.366806176797049
  0
ARC
  5
FC1
  8
0
 10
462.0
 20
236.49579867189991
 30
0.0
 40
89.501059221200023
 50
330.63319382320287
 51
354.99667519810902
  0
LINE
  5
FC2
  8
2
 10
542.83712161291953
 20
234.0
 30
0.0
 11
542.83712161291953
 21
285.99999999999989
 31
0.0
  0
LINE
  5
FC3
  8
2
 10
551.0
 20
241.0
 30
0.0
 11
551.0
 21
240.0
 31
0.0
  0
LINE
  5
FC4
  8
2
 10
558.0
 20
241.0
 30
0.0
 11
558.0
 21
240.0
 31
0.0
  0
LINE
  5
FC5
  8
2
 10
560.0
 20
241.0
 30
0.0
 11
560.0
 21
240.0
 31
0.0
  0
LINE
  5
FC6
  8
2
 10
568.0
 20
241.0
 30
0.0
 11
568.0
 21
240.0
 31
0.0
  0
LINE
  5
FC7
  8
2
 10
570.0
 20
241.0
 30
0.0
 11
570.0
 21
240.0
 31
0.0
  0
LINE
  5
FC8
  8
2
 10
536.59999999999945
 20
285.99999999999989
 30
0.0
 11
542.83712161291953
 21
286.0
 31
0.0
  0
LINE
  5
FC9
  8
0
 10
577.79999999999995
 20
283.97311971340008
 30
0.0
 11
576.27311971339998
 21
285.5
 31
0.0
  0
LINE
  5
FCA
  8
0
 10
576.27311971339998
 20
285.5
 30
0.0
 11
557.03245125926901
 21
285.83410161064461
 31
0.0
  0
LINE
  5
FCB
  8
2
 10
560.0
 20
279.0
 30
0.0
 11
558.0
 21
279.0
 31
0.0
  0
LINE
  5
FCC
  8
2
 10
558.0
 20
280.0
 30
0.0
 11
551.0
 21
280.0
 31
0.0
  0
LINE
  5
FCD
  8
2
 10
551.0
 20
279.0
 30
0.0
 11
546.99999999999977
 21
279.0
 31
0.0
  0
LINE
  5
FCE
  8
2
 10
570.0
 20
279.0
 30
0.0
 11
568.0
 21
279.0
 31
0.0
  0
LINE
  5
FCF
  8
0
 10
578.0
 20
280.0
 30
0.0
 11
577.79999999999995
 21
279.99999999999989
 31
0.0
  0
LINE
  5
FD0
  8
2
 10
577.80000000000018
 20
280.0
 30
0.0
 11
570.0
 21
280.0
 31
0.0
  0
LINE
  5
FD1
  8
2
 10
547.0
 20
270.00000000000011
 30
0.0
 11
578.0
 21
270.0
 31
0.0
  0
LINE
  5
FD2
  8
2
 10
568.0
 20
280.0
 30
0.0
 11
560.0
 21
280.0
 31
0.0
  0
LINE
  5
FD3
  8
2
 10
560.0
 20
241.0
 30
0.0
 11
558.0
 21
241.0
 31
0.0
  0
LINE
  5
FD4
  8
2
 10
558.0
 20
240.0
 30
0.0
 11
551.0
 21
240.0
 31
0.0
  0
LINE
  5
FD5
  8
2
 10
551.0
 20
241.0
 30
0.0
 11
547.0
 21
241.0
 31
0.0
  0
LINE
  5
FD6
  8
2
 10
570.0
 20
241.0
 30
0.0
 11
568.0
 21
241.0
 31
0.0
  0
LINE
  5
FD7
  8
0
 10
578.0
 20
240.0
 30
0.0
 11
577.79999999999984
 21
239.99999999999989
 31
0.0
  0
LINE
  5
FD8
  8
2
 10
577.79999999999995
 20
240.0
 30
0.0
 11
570.0
 21
240.0
 31
0.0
  0
LINE
  5
FD9
  8
2
 10
547.0
 20
250.0
 30
0.0
 11
578.0
 21
250.0
 31
0.0
  0
LINE
  5
FDA
  8
2
 10
568.0
 20
240.0
 30
0.0
 11
560.0
 21
240.0
 31
0.0
  0
LINE
  5
FDB
  8
2
 10
536.59999999999945
 20
233.99999999999989
 30
0.0
 11
542.83712161291953
 21
234.0
 31
0.0
  0
LINE
  5
FDC
  8
2
 10
536.59999999999957
 20
234.0
 30
0.0
 11
536.59999999999957
 21
285.99999999999989
 31
0.0
  0
LINE
  5
FDD
  8
2
 10
537.99999999999955
 20
235.40000000000001
 30
0.0
 11
537.99999999999989
 21
284.60000000000002
 31
0.0
  0
LINE
  5
FDE
  8
2
 10
544.37470803019983
 20
235.0
 30
0.0
 11
544.37470803019983
 21
285.0
 31
0.0
  0
LINE
  5
FDF
  8
2
 10
546.99999999999966
 20
235.0
 30
0.0
 11
546.99999999999977
 21
285.00000000000011
 31
0.0
  0
LINE
  5
FE0
  8
2
 10
551.0
 20
280.0
 30
0.0
 11
551.0
 21
279.0
 31
0.0
  0
LINE
  5
FE1
  8
2
 10
558.0
 20
280.0
 30
0.0
 11
558.0
 21
279.0
 31
0.0
  0
LINE
  5
FE2
  8
2
 10
560.0
 20
280.0
 30
0.0
 11
560.0
 21
279.0
 31
0.0
  0
LINE
  5
FE3
  8
2
 10
568.0
 20
280.0
 30
0.0
 11
568.0
 21
279.0
 31
0.0
  0
LINE
  5
FE4
  8
2
 10
570.0
 20
280.0
 30
0.0
 11
570.0
 21
279.0
 31
0.0
  0
LINE
  5
FE5
  8
0
 10
576.27311971339998
 20
285.49999999999989
 30
0.0
 11
576.27311971340021
 21
234.5000000000002
 31
0.0
  0
LINE
  5
FE6
  8
0
 10
577.80000000000018
 20
283.97311971340019
 30
0.0
 11
577.79999999999995
 21
236.0268802866
 31
0.0
  0
LINE
  5
FE7
  8
0
 10
578.0
 20
280.0
 30
0.0
 11
578.0
 21
240.0
 31
0.0
  0
LINE
  5
FE8
  8
2
 10
542.83712161291953
 20
286.0
 30
0.0
 11
544.37470803019983
 21
285.0
 31
0.0
  0
LINE
  5
FE9
  8
2
 10
544.37470803019983
 20
285.0
 30
0.0
 11
546.99999999999966
 21
285.0
 31
0.0
  0
LINE
  5
FEA
  8
2
 10
537.99999999999989
 20
284.60000000000002
 30
0.0
 11
542.83712161291953
 21
284.60000000000002
 31
0.0
  0
LINE
  5
FEB
  8
2
 10
537.99999999999989
 20
235.40000000000001
 30
0.0
 11
542.83712161291953
 21
235.40000000000001
 31
0.0
  0
LINE
  5
FEC
  8
2
 10
542.83712161291953
 20
234.0
 30
0.0
 11
544.37470803019983
 21
235.0
 31
0.0
  0
LINE
  5
FED
  8
2
 10
544.37470803019983
 20
235.0
 30
0.0
 11
546.99999999999966
 21
235.0
 31
0.0
  0
ARC
  5
FEE
  8
0
 10
557.13716569789528
 20
291.83318778158292
 30
0.0
 40
6.0
 50
185.00332480189101
 51
268.99999999997209
  0
LINE
  5
FEF
  8
0
 10
557.03245125926901
 20
285.83410161064461
 30
0.0
 11
557.03245125926912
 21
234.16589838935539
 31
0.0
  0
LINE
  5
FF0
  8
0
 10
551.16002786463605
 20
291.30990647843902
 30
0.0
 11
551.16002786463605
 21
228.69009352156061
 31
0.0
  0
LINE
  5
FF1
  8
0
 10
576.27311971339998
 20
234.50000000000011
 30
0.0
 11
557.03245125926901
 21
234.16589838935539
 31
0.0
  0
ARC
  5
FF2
  8
0
 10
557.13716569789528
 20
228.16681221841711
 30
0.0
 40
6.0
 50
91.000000000027839
 51
174.99667519810899
  0
LINE
  5
FF3
  8
0
 10
577.79999999999995
 20
236.02688028659989
 30
0.0
 11
576.27311971339998
 21
234.50000000000011
 31
0.0
  0
ARC
  5
10E0
  8
0
 10
535.0
 20
171.875
 30
0.0
 40
25.0
 50
180.0
 51
189.1907155100991
  0
ARC
  5
10E1
  8
0
 10
514.56574328700003
 20
168.5687706388
 30
0.0
 40
4.299999999999998
 50
189.1907155100991
 51
247.7262814049987
  0
ARC
  5
10F4
  8
0
 10
220.00000000000011
 20
260.0
 30
0.0
 40
26.000000000000121
 50
118.6811417283061
 51
61.318858271693877
  0
ARC
  5
1236
  8
0
 10
211.16802527332311
 20
327.97953801896688
 30
0.0
 40
0.5000223051535943
 50
261.62477489524298
 51
359.9881045325161
  0
ARC
  5
123D
  8
0
 10
228.83197472667709
 20
327.97953801896688
 30
0.0
 40
0.5000223051535943
 50
180.0118954674839
 51
278.37522510475702
  0
TEXT
  5
12B3
  8
0
 62
     3
 10
0.0
 20
0.0
 30
0.0
 40
10.0
  1
SH200F
  7
STANDARD1
  0
ENDSEC
  0
EOF
