  0
SECTION
  2
HEADER
  9
$ACADVER
  1
AC1009
  9
$INSBASE
 10
0.0
 20
0.0
 30
0.0
  9
$EXTMIN
 10
0.0
 20
-2.960436562073669
 30
-266.6380216304903
  9
$EXTMAX
 10
420.48649949580317
 20
262.92729341029212
 30
0.0000000000005684
  9
$LIMMIN
 10
0.0
 20
0.0
  9
$LIMMAX
 10
270.0
 20
175.0
  9
$ORTHOMODE
 70
     0
  9
$REGENMODE
 70
     1
  9
$FILLMODE
 70
     1
  9
$QTEXTMODE
 70
     0
  9
$MIRRTEXT
 70
     0
  9
$DRAGMODE
 70
     2
  9
$LTSCALE
 40
10.0
  9
$OSMODE
 70
    55
  9
$ATTMODE
 70
     1
  9
$TEXTSIZE
 40
0.2
  9
$TRACEWID
 40
0.05
  9
$TEXTSTYLE
  7
STANDARD
  9
$CLAYER
  8
0
  9
$CELTYPE
  6
BYLAYER
  9
$CECOLOR
 62
   256
  9
$DIMSCALE
 40
1.0
  9
$DIMASZ
 40
3.0
  9
$DIMEXO
 40
2.0
  9
$DIMDLI
 40
0.38
  9
$DIMRND
 40
0.0
  9
$DIMDLE
 40
0.0
  9
$DIMEXE
 40
2.0
  9
$DIMTP
 40
0.0
  9
$DIMTM
 40
0.0
  9
$DIMTXT
 40
3.0
  9
$DIMCEN
 40
0.0
  9
$DIMTSZ
 40
0.0
  9
$DIMTOL
 70
     0
  9
$DIMLIM
 70
     0
  9
$DIMTIH
 70
     0
  9
$DIMTOH
 70
     0
  9
$DIMSE1
 70
     0
  9
$DIMSE2
 70
     0
  9
$DIMTAD
 70
     1
  9
$DIMZIN
 70
     0
  9
$DIMBLK
  1

  9
$DIMASO
 70
     0
  9
$DIMSHO
 70
     0
  9
$DIMPOST
  1

  9
$DIMAPOST
  1

  9
$DIMALT
 70
     0
  9
$DIMALTD
 70
     2
  9
$DIMALTF
 40
25.399999999999999
  9
$DIMLFAC
 40
1.0
  9
$DIMTOFL
 70
     1
  9
$DIMTVP
 40
1.6000000000000001
  9
$DIMTIX
 70
     1
  9
$DIMSOXD
 70
     0
  9
$DIMSAH
 70
     0
  9
$DIMBLK1
  1

  9
$DIMBLK2
  1

  9
$DIMSTYLE
  2
STANDARD
  9
$DIMCLRD
 70
     0
  9
$DIMCLRE
 70
     0
  9
$DIMCLRT
 70
     0
  9
$DIMTFAC
 40
1.0
  9
$DIMGAP
 40
0.09
  9
$LUNITS
 70
     2
  9
$LUPREC
 70
     4
  9
$SKETCHINC
 40
0.1
  9
$FILLETRAD
 40
0.5
  9
$AUNITS
 70
     1
  9
$AUPREC
 70
     4
  9
$MENU
  1
E:\r13\win\SUPPORT\ACAD
  9
$ELEVATION
 40
0.0
  9
$PELEVATION
 40
0.0
  9
$THICKNESS
 40
0.0
  9
$LIMCHECK
 70
     0
  9
$BLIPMODE
 70
     0
  9
$CHAMFERA
 40
0.0
  9
$CHAMFERB
 40
0.0
  9
$SKPOLY
 70
     0
  9
$TDCREATE
 40
2449839.7803587969
  9
$TDUPDATE
 40
2456598.4979495602
  9
$TDINDWG
 40
0.1191115972
  9
$TDUSRTIMER
 40
0.1191115972
  9
$USRTIMER
 70
     1
  9
$ANGBASE
 50
0.0
  9
$ANGDIR
 70
     0
  9
$PDMODE
 70
     0
  9
$PDSIZE
 40
0.0
  9
$PLINEWID
 40
0.0
  9
$COORDS
 70
     1
  9
$SPLFRAME
 70
     0
  9
$SPLINETYPE
 70
     6
  9
$SPLINESEGS
 70
     8
  9
$ATTDIA
 70
     0
  9
$ATTREQ
 70
     1
  9
$HANDLING
 70
     1
  9
$HANDSEED
  5
D84
  9
$SURFTAB1
 70
     6
  9
$SURFTAB2
 70
     6
  9
$SURFTYPE
 70
     6
  9
$SURFU
 70
     6
  9
$SURFV
 70
     6
  9
$UCSNAME
  2

  9
$UCSORG
 10
0.0
 20
0.0
 30
0.0
  9
$UCSXDIR
 10
1.0
 20
0.0
 30
0.0
  9
$UCSYDIR
 10
0.0
 20
1.0
 30
0.0
  9
$PUCSNAME
  2

  9
$PUCSORG
 10
0.0
 20
0.0
 30
0.0
  9
$PUCSXDIR
 10
1.0
 20
0.0
 30
0.0
  9
$PUCSYDIR
 10
0.0
 20
1.0
 30
0.0
  9
$USERI1
 70
     0
  9
$USERI2
 70
     1
  9
$USERI3
 70
     1
  9
$USERI4
 70
     0
  9
$USERI5
 70
     0
  9
$USERR1
 40
0.0
  9
$USERR2
 40
0.0
  9
$USERR3
 40
0.0
  9
$USERR4
 40
0.0
  9
$USERR5
 40
0.0
  9
$WORLDVIEW
 70
     1
  9
$SHADEDGE
 70
     3
  9
$SHADEDIF
 70
    70
  9
$TILEMODE
 70
     1
  9
$MAXACTVP
 70
    16
  9
$PLIMCHECK
 70
     0
  9
$PEXTMIN
 10
1.0000000000000000E+020
 20
1.0000000000000000E+020
 30
1.0000000000000000E+020
  9
$PEXTMAX
 10
-1.0000000000000000E+020
 20
-1.0000000000000000E+020
 30
-1.0000000000000000E+020
  9
$PLIMMIN
 10
0.0
 20
0.0
  9
$PLIMMAX
 10
12.0
 20
9.0
  9
$UNITMODE
 70
     0
  9
$VISRETAIN
 70
     0
  9
$PLINEGEN
 70
     0
  9
$PSLTSCALE
 70
     0
  0
ENDSEC
  0
SECTION
  2
TABLES
  0
TABLE
  2
VPORT
 70
     1
  0
VPORT
  2
*ACTIVE
 70
     0
 10
0.0
 20
0.0
 11
1.0
 21
1.0
 12
210.24325072692309
 22
170.31207134225971
 13
0.0
 23
0.0
 14
10.0
 24
10.0
 15
10.0
 25
10.0
 16
0.0
 26
0.0
 36
1.0
 17
0.0
 27
0.0
 37
0.0
 40
349.6343403022891
 41
1.7807262569832401
 42
50.0
 43
0.0
 44
0.0
 50
0.0
 51
0.0
 71
     0
 72
   500
 73
     1
 74
     0
 75
     0
 76
     0
 77
     0
 78
     2
  0
ENDTAB
  0
TABLE
  2
LTYPE
 70
     4
  0
LTYPE
  2
CONTINUOUS
 70
     0
  3
Solid Line
 72
    65
 73
     0
 40
0.0
  0
LTYPE
  2
CENTER
 70
     0
  3
____ _ ____ _ ____ _ ____ _ ____ _ ____ _ ____
 72
    65
 73
     4
 40
2.0
 49
1.25
 49
-0.25
 49
0.25
 49
-0.25
  0
LTYPE
  2
HIDDEN
 70
     0
  3
__ __ __ __ __ __ __ __ __ __ __ __ __ __ __ __
 72
    65
 73
     2
 40
0.375
 49
0.25
 49
-0.125
  0
LTYPE
  2
PHANTOM2
 70
     0
  3
___ _ _ ___ _ _ ___ _ _ ___ _ _ ___ _ _ ___ _ _
 72
    65
 73
     6
 40
1.25
 49
0.625
 49
-0.125
 49
0.125
 49
-0.125
 49
0.125
 49
-0.125
  0
ENDTAB
  0
TABLE
  2
LAYER
 70
     4
  0
LAYER
  2
0
 70
     0
 62
     7
  6
CONTINUOUS
  0
LAYER
  2
1
 70
     0
 62
     1
  6
CENTER
  0
LAYER
  2
2
 70
     0
 62
     2
  6
HIDDEN
  0
LAYER
  2
5
 70
     0
 62
     3
  6
PHANTOM2
  0
ENDTAB
  0
TABLE
  2
STYLE
 70
     2
  0
STYLE
  2
STANDARD
 70
     0
 40
0.0
 41
1.0
 50
0.0
 71
     0
 42
0.2
  3
TXT
  4
BIGFONT
  0
STYLE
  2
STANDARD1
 70
     0
 40
0.0
 41
1.0
 50
0.0
 71
     0
 42
3.0
  3
txt
  4

  0
ENDTAB
  0
TABLE
  2
VIEW
 70
     1
  0
VIEW
  2
ALL
 70
     0
 40
179.5384664489153
 10
135.0
 20
89.769233224457665
 41
0.0
 11
0.0
 21
0.0
 31
1.0
 12
0.0
 22
0.0
 32
0.0
 42
0.0
 43
0.0
 44
0.0
 50
0.0
 71
     0
  0
ENDTAB
  0
TABLE
  2
UCS
 70
     0
  0
ENDTAB
  0
TABLE
  2
APPID
 70
     5
  0
APPID
  2
ACAD
 70
     0
  0
APPID
  2
GENIUS_GENODEF_13
 70
     0
  0
APPID
  2
GENIUS_GENOBJ-N-FIL_13
 70
     0
  0
APPID
  2
ACAD_MLEADERVER
 70
     0
  0
APPID
  2
ACAD_NAV_VCDISPLAY
 70
     0
  0
ENDTAB
  0
TABLE
  2
DIMSTYLE
 70
     1
  0
DIMSTYLE
  2
STANDARD
 70
     0
  3

  4

  5

  6

  7

 40
1.0
 41
0.18
 42
0.0625
 43
0.38
 44
0.18
 45
0.0
 46
0.0
 47
0.0
 48
0.0
140
0.18
141
0.09
142
0.0
143
25.399999999999999
144
1.0
145
0.0
146
1.0
147
0.09
 71
     0
 72
     0
 73
     1
 74
     1
 75
     0
 76
     0
 77
     0
 78
     0
170
     0
171
     2
172
     0
173
     0
174
     0
175
     0
176
     0
177
     0
178
     0
  0
ENDTAB
  0
ENDSEC
  0
SECTION
  2
BLOCKS
  0
BLOCK
  8
0
  2
$MODEL_SPACE
 70
     0
 10
0.0
 20
0.0
 30
0.0
  3
$MODEL_SPACE
  1

  0
ENDBLK
  5
522
  8
0
  0
BLOCK
 67
     1
  8
0
  2
$PAPER_SPACE
 70
     0
 10
0.0
 20
0.0
 30
0.0
  3
$PAPER_SPACE
  1

  0
ENDBLK
  5
520
 67
     1
  8
0
  0
ENDSEC
  0
SECTION
  2
ENTITIES
  0
LINE
  5
A64
  8
1
 10
90.472624313195752
 20
190.42649875257601
 30
0.0000000000000796
 11
235.47421362862781
 21
190.42649875257601
 31
0.0000000000000796
  0
ARC
  5
A65
  8
0
 10
162.97341897091161
 20
190.42649875257601
 30
0.0000000000001933
 40
49.600000000000001
 50
105.9381905705762
 51
74.061809429423803
  0
ARC
  5
A66
  8
0
 10
162.97341897091161
 20
190.42649875257601
 30
0.0000000000001933
 40
35.0
 50
99.538601153408933
 51
80.461398846590967
  0
ARC
  5
A67
  8
0
 10
162.97341897091161
 20
190.42649875257601
 30
0.0000000000000796
 40
15.5
 50
125.5808856769372
 51
180.0
  0
ARC
  5
A68
  8
0
 10
162.97341897091161
 20
190.42649875257601
 30
0.0000000000000796
 40
21.75
 50
114.3153184900271
 51
239.0813632976018
  0
ARC
  5
A69
  8
0
 10
162.97341897091161
 20
190.42649875257601
 30
0.0000000000000796
 40
15.5
 50
180.0
 51
224.2378659680397
  0
LINE
  5
A6A
  8
1
 10
162.97341897091161
 20
117.92570409486
 30
0.0000000000001933
 11
162.97341897091161
 21
262.92729341029212
 31
0.0000000000001933
  0
ARC
  5
A6B
  8
0
 10
162.97341897091161
 20
190.42649875257601
 30
0.0000000000000796
 40
21.75
 50
300.9186367023982
 51
65.684789037835756
  0
ARC
  5
A6C
  8
0
 10
162.97341897091161
 20
190.42649875257601
 30
0.0000000000000796
 40
15.5
 50
315.76213403196073
 51
0.0
  0
ARC
  5
A6D
  8
0
 10
162.97341897091161
 20
190.42649875257601
 30
0.0000000000000796
 40
15.5
 50
0.0
 51
54.419384689921273
  0
CIRCLE
  5
A6E
  8
2
 10
162.97341897091161
 20
190.42649875257601
 30
0.0000000000001933
 40
6.0
  0
LINE
  5
A73
  8
0
 10
353.48635549250031
 20
244.5657235234608
 30
0.0000000000004547
 11
353.48635549250071
 21
136.28727398169099
 31
0.0000000000004547
1001
ACAD
1000
ASC_BOUNDS
1002
{
1070
    19
1002
}
  0
ARC
  5
A75
  8
0
 10
374.42859351798478
 20
189.3305977091014
 30
0.0000000000000796
 40
61.40409923677705
 50
252.31508020638589
 51
270.36549588870321
  0
ARC
  5
A77
  8
0
 10
374.90065549250068
 20
130.51219874438769
 30
0.0000000000004547
 40
2.5856999999999992
 50
269.995440168252
 51
0.0
  0
ARC
  5
AAA
  8
0
 10
356.68646130291103
 20
133.68659037567741
 30
0.0000000000000796
 40
3.0
 50
188.79974213039421
 51
252.31508020638671
1001
GENIUS_GENODEF_13
1002
{
1000
HIER
1070
     0
1002
}
1002
{
1000
MANEDIT
1070
     0
1002
}
1002
{
1000
NOSEL
1070
     0
1002
}
1002
{
1000
BEHIND
1070
     0
1002
}
1002
{
1000
REACTOR
1002
}
1001
GENIUS_GENOBJ-N-FIL_13
1002
{
1000
OWNER
1000
GEN
1002
}
  0
ARC
  5
AAB
  8
0
 10
373.48635549250071
 20
136.2872739816911
 30
0.0000000000000796
 40
20.0
 50
180.0
 51
188.79974213039421
  0
LINE
  5
AAC
  8
1
 10
343.48635549250042
 20
190.42649875257601
 30
0.0000000000001751
 11
420.48649949580317
 21
190.4264987525759
 31
0.0000000000000557
  0
ARC
  5
AAD
  8
0
 10
374.42859351798478
 20
191.52239979605051
 30
0.0000000000000796
 40
61.40409923677705
 50
89.634504111295968
 51
107.6849197936141
  0
LINE
  5
AAF
  8
0
 10
377.48635549250031
 20
250.34079876076419
 30
0.0000000000004547
 11
377.48635549250031
 21
130.51219874438769
 31
0.0000000000004547
  0
ARC
  5
B3B
  8
0
 10
374.90065549250028
 20
250.34079876076419
 30
0.0000000000001949
 40
2.5856999999999992
 50
0.0
 51
90.004559831747983
  0
ARC
  5
B3C
  8
0
 10
373.48635549250071
 20
244.56572352346089
 30
0.0000000000000796
 40
20.0
 50
171.20025786960579
 51
180.0
  0
ARC
  5
B3D
  8
0
 10
356.68646130291103
 20
247.16640712947461
 30
0.0000000000000796
 40
3.0
 50
107.6849197936133
 51
171.20025786960579
1001
GENIUS_GENODEF_13
1002
{
1000
HIER
1070
     0
1002
}
1002
{
1000
MANEDIT
1070
     0
1002
}
1002
{
1000
NOSEL
1070
     0
1002
}
1002
{
1000
BEHIND
1070
     0
1002
}
1002
{
1000
REACTOR
1002
}
1001
GENIUS_GENOBJ-N-FIL_13
1002
{
1000
OWNER
1000
GEN
1002
}
  0
CIRCLE
  5
B3E
  8
0
 10
162.97341897091169
 20
190.42649875257601
 30
0.0000000000000796
 40
62.5
  0
LINE
  5
B45
  8
1
 10
283.48635549250031
 20
237.42649875257609
 30
0.0000000000002682
 11
358.48635549250042
 21
237.42649875257601
 31
0.0000000000001518
  0
LINE
  5
B46
  8
5
 10
352.41287836975238
 20
245.78084314727849
 30
0.0000000000001596
 11
352.41287836975238
 21
229.07215435787359
 31
0.0000000000001596
  0
LINE
  5
B47
  8
5
 10
331.40327138604289
 20
246.4597825722079
 30
0.0000000000001596
 11
331.40327138604289
 21
228.39321493294409
 31
0.0000000000001596
  0
LINE
  5
B48
  8
5
 10
327.51633739939211
 20
248.37076092128601
 30
0.0000000000001596
 11
327.51633739939211
 21
226.51626026916341
 31
0.0000000000001596
  0
ARC
  5
B49
  8
5
 10
303.64635549250028
 20
237.4264987525759
 30
0.0000000000001596
 40
15.16
 50
180.0
 51
217.82872979162951
  0
LINE
  5
B4A
  8
5
 10
295.66513672262431
 20
248.65746871310421
 30
0.0000000000001596
 11
295.66513672262431
 21
226.19552879204781
 31
0.0000000000001596
  0
LINE
  5
B4B
  8
5
 10
352.42408674440878
 20
229.9264987525759
 30
0.0000000000001596
 11
353.48635549250042
 21
229.9264987525759
 31
0.0000000000001596
  0
LINE
  5
B4C
  8
5
 10
331.41063288758761
 20
228.39321493294409
 30
0.0000000000001596
 11
331.403271386043
 21
228.39321493294409
 31
0.0000000000001596
  0
LINE
  5
B4D
  8
5
 10
351.9172416375016
 20
228.5721733963415
 30
0.0000000000001596
 11
331.41063288758761
 21
228.39321493294409
 31
0.0000000000001596
  0
ARC
  5
B4E
  8
5
 10
327.49855817416659
 20
231.51622865897849
 30
0.0000000000001596
 40
5.0
 50
270.0
 51
321.34696405500199
  0
ARC
  5
B4F
  8
5
 10
295.62150404513238
 20
231.19533840736881
 30
0.0000000000001596
 40
5.0
 50
217.82872979162951
 51
270.49999999999801
  0
LINE
  5
B50
  8
5
 10
295.66513672262408
 20
248.65746871310421
 30
0.0000000000001596
 11
327.51645931583749
 21
248.37075982534461
 31
0.0000000000001596
  0
LINE
  5
B51
  8
5
 10
327.51633739939211
 20
226.51626026916341
 30
0.0000000000001596
 11
295.66513672262431
 21
226.19552879204781
 31
0.0000000000001596
  0
LINE
  5
B52
  8
5
 10
331.41063288758761
 20
246.4597825722079
 30
0.0000000000001596
 11
331.403271386043
 21
246.4597825722079
 31
0.0000000000001596
  0
ARC
  5
B53
  8
5
 10
327.47145376353899
 20
243.3709623794212
 30
0.0000000000001596
 40
5.0
 50
38.153035944997121
 51
89.499999999998664
  0
ARC
  5
B54
  8
5
 10
295.62150404513238
 20
243.6576590977833
 30
0.0000000000001596
 40
5.0
 50
89.500000000001918
 51
142.17127020837049
  0
ARC
  5
B55
  8
5
 10
303.64635549250028
 20
237.4264987525759
 30
0.0000000000001596
 40
15.16
 50
142.17127020837049
 51
180.0
  0
LINE
  5
B56
  8
5
 10
351.91724163750149
 20
246.28082410881061
 30
0.0000000000001596
 11
331.41063288758761
 21
246.4597825722079
 31
0.0000000000001596
  0
LINE
  5
B57
  8
5
 10
352.42408674440878
 20
244.92649875257609
 30
0.0000000000001596
 11
353.48635549250042
 21
244.92649875257609
 31
0.0000000000001596
  0
LINE
  5
B59
  8
0
 10
353.06668857793721
 20
221.8670056351184
 30
0.0000000000001596
 11
352.88773011453981
 21
201.36039688520449
 31
0.0000000000001596
  0
LINE
  5
B5A
  8
0
 10
352.88773011453981
 20
201.36039688520449
 30
0.0000000000001596
 11
352.88773011453981
 21
201.35303538365989
 31
0.0000000000001596
  0
LINE
  5
B5B
  8
0
 10
352.88773011453981
 20
201.3530353836598
 30
0.0000000000001596
 11
353.48635549250042
 21
201.3530353836598
 31
0.0000000000001596
  0
ARC
  5
B5C
  8
0
 10
355.97655030732648
 20
197.4212177611559
 30
0.0000000000001596
 40
5.0
 50
128.1530359449971
 51
179.49999999999869
  0
LINE
  5
B5D
  8
0
 10
350.9767517654617
 20
197.46610139700911
 30
0.0000000000001596
 11
353.48635549250048
 21
197.46610139700911
 31
0.0000000000001596
  0
ARC
  5
B5E
  8
0
 10
361.9210139341717
 20
173.59611949011719
 30
0.0000000000001596
 40
15.16
 50
232.17127020837049
 51
236.19446518291971
  0
ARC
  5
B5F
  8
0
 10
355.68985358896441
 20
165.57126804274941
 30
0.0000000000001596
 40
5.0
 50
179.5000000000019
 51
232.1712702083706
  0
LINE
  5
B60
  8
0
 10
350.69004397364353
 20
165.6149007202412
 30
0.0000000000001596
 11
353.48635549250059
 21
165.61490072024111
 31
0.0000000000001596
  0
LINE
  5
B61
  8
0
 10
350.69004397364353
 20
165.61490072024111
 30
0.0000000000001596
 11
350.97675286140299
 21
197.46622331345441
 31
0.0000000000001596
  0
ARC
  5
B64
  8
5
 10
351.91287836975238
 20
245.78084314727849
 30
0.0000000000001596
 40
0.5
 50
0.0
 51
89.499999999999986
  0
ARC
  5
B65
  8
5
 10
351.91287836975238
 20
229.07215435787359
 30
0.0000000000001596
 40
0.5
 50
270.5
 51
359.99999999999977
  0
ARC
  5
B66
  8
0
 10
353.56666953946927
 20
221.86264236736929
 30
0.0000000000001596
 40
0.5
 50
99.243354908246573
 51
179.4999999999998
  0
ARC
  5
B68
  8
0
 10
176.45628916456141
 20
237.6390205168409
 30
0.0000000000001933
 40
0.5
 50
74.061809429423775
 51
160.99722717211799
  0
ARC
  5
B69
  8
0
 10
149.49054877726189
 20
237.6390205168409
 30
0.0000000000001933
 40
0.5
 50
19.00277282788198
 51
105.93819057057379
  0
ARC
  5
B6A
  8
0
 10
162.97341897091161
 20
242.28227490801851
 30
0.000000000000307
 40
13.76
 50
199.00277282788269
 51
237.67033320291159
  0
ARC
  5
B6B
  8
0
 10
162.97341897091161
 20
242.28227490801851
 30
0.000000000000307
 40
13.76
 50
302.32966679708841
 51
340.99722717211722
  0
LINE
  5
B6C
  8
0
 10
165.97341897091161
 20
241.7349207374796
 30
0.000000000000307
 11
165.97341897091161
 21
228.42649875257609
 31
0.000000000000307
  0
LINE
  5
B6D
  8
0
 10
157.6234189709117
 20
228.42649875257609
 30
0.000000000000307
 11
162.97341897091161
 21
228.42649875257609
 31
0.000000000000307
  0
LINE
  5
B6E
  8
0
 10
159.97341897091161
 20
241.7349207374796
 30
0.000000000000307
 11
159.97341897091161
 21
228.42649875257601
 31
0.000000000000307
  0
ARC
  5
B6F
  8
0
 10
162.97341897091161
 20
237.42649875257601
 30
0.000000000000307
 40
10.0
 50
295.84193276316842
 51
244.1580672368315
  0
ARC
  5
B70
  8
0
 10
162.97341897091161
 20
237.42649875257601
 30
0.000000000000307
 40
5.9000000000000004
 50
300.56227535173178
 51
239.43772464826799
  0
ARC
  5
B71
  8
0
 10
162.97341897091161
 20
237.42649875257601
 30
0.000000000000307
 40
5.25
 50
304.8499045790457
 51
235.15009542095109
  0
LINE
  5
B72
  8
0
 10
168.32341897091169
 20
228.42649875257609
 30
0.000000000000307
 11
162.97341897091161
 21
228.42649875257609
 31
0.000000000000307
  0
LINE
  5
B73
  8
0
 10
165.97341897091161
 20
241.7349207374796
 30
0.000000000000307
 11
159.97341897091161
 21
241.73492073747931
 31
0.000000000000307
  0
ARC
  5
B74
  8
0
 10
162.97341897091161
 20
237.20921373883559
 30
0.000000000000307
 40
4.0
 50
41.409622109270963
 51
138.59037789073341
  0
LINE
  5
B75
  8
1
 10
179.22341897091169
 20
237.42649875257601
 30
0.0000000000000796
 11
146.72341897091169
 21
237.42649875257601
 31
0.0000000000000796
  0
LINE
  5
B76
  8
0
 10
168.32341897091169
 20
228.42649875257601
 30
0.000000000000307
 11
169.0620551128749
 21
222.7069754364833
 31
0.0000000000004547
  0
LINE
  5
B77
  8
0
 10
157.6234189709117
 20
228.42649875257609
 30
0.000000000000307
 11
156.8847828289484
 21
222.7069754364833
 31
0.0000000000004547
  0
LINE
  5
B78
  8
0
 10
171.82341897091169
 20
222.36264467686729
 30
0.0000000000004547
 11
154.12341897091159
 21
222.36264467686729
 31
0.0000000000004547
  0
ARC
  5
B79
  8
0
 10
169.45816234037159
 20
222.7626446768673
 30
0.0000000000004547
 40
0.4
 50
188.0000000000002
 51
270.0
1001
GENIUS_GENODEF_13
1002
{
1000
HIER
1070
     0
1002
}
1002
{
1000
MANEDIT
1070
     0
1002
}
1002
{
1000
NOSEL
1070
     0
1002
}
1002
{
1000
BEHIND
1070
     0
1002
}
1002
{
1000
REACTOR
1002
}
1001
GENIUS_GENOBJ-N-FIL_13
1002
{
1000
OWNER
1000
GEN
1002
}
  0
ARC
  5
B7A
  8
0
 10
156.4886756014518
 20
222.7626446768673
 30
0.0000000000004547
 40
0.4
 50
270.0
 51
351.9999999999996
1001
GENIUS_GENODEF_13
1002
{
1000
HIER
1070
     0
1002
}
1002
{
1000
MANEDIT
1070
     0
1002
}
1002
{
1000
NOSEL
1070
     0
1002
}
1002
{
1000
BEHIND
1070
     0
1002
}
1002
{
1000
REACTOR
1002
}
1001
GENIUS_GENOBJ-N-FIL_13
1002
{
1000
OWNER
1000
GEN
1002
}
  0
LINE
  5
B7B
  8
0
 10
171.82341897091169
 20
222.36264467686729
 30
0.0000000000004547
 11
172.00670279054361
 21
201.3542886515194
 31
0.0000000000005684
  0
LINE
  5
B7C
  8
0
 10
154.12341897091159
 20
222.36264467686729
 30
0.0000000000004547
 11
153.9401351512798
 21
201.36165015306401
 31
0.0000000000005684
  0
LINE
  5
B7D
  8
0
 10
172.00670279054361
 20
201.36165015306401
 30
0.0000000000005684
 11
172.00670279054361
 21
201.3542886515194
 31
0.0000000000005684
  0
ARC
  5
B7E
  8
0
 10
168.91788259775689
 20
197.4224710290153
 30
0.0000000000005684
 40
5.0
 50
0.4999999999999939
 51
51.846964055003681
  0
LINE
  5
B7F
  8
0
 10
153.9401351512798
 20
201.36165015306401
 30
0.0000000000005684
 11
153.9401351512798
 21
201.3542886515194
 31
0.0000000000005684
  0
ARC
  5
B80
  8
0
 10
157.0289553440665
 20
197.4224710290153
 30
0.0000000000005684
 40
5.0
 50
128.1530359449963
 51
179.5
  0
LINE
  5
B81
  8
0
 10
173.9176922130778
 20
197.46610370650711
 30
0.0000000000005684
 11
152.02914572874559
 21
197.46610370650711
 31
0.0000000000005684
  0
LINE
  5
B82
  8
0
 10
172.00670279054361
 20
201.3542886515194
 30
0.0000000000005684
 11
153.94013515127969
 21
201.3542886515194
 31
0.0000000000005684
  0
LINE
  5
B83
  8
0
 10
174.20438893143981
 20
165.61490302973931
 30
0.0000000000004547
 11
173.9176922130778
 21
197.46610370650711
 31
0.0000000000005684
  0
LINE
  5
B84
  8
0
 10
152.0291457287457
 20
197.46610370650711
 30
0.0000000000005684
 11
151.7424490103835
 21
165.61490302973931
 31
0.0000000000004547
  0
LINE
  5
B85
  8
0
 10
174.2045793161189
 20
165.5712703522486
 30
0.0000000000004547
 11
151.74225862570441
 21
165.5712703522473
 31
0.0000000000004547
  0
ARC
  5
B86
  8
0
 10
162.97341897091161
 20
173.5961217996153
 30
0.0000000000004547
 40
15.16
 50
232.17127020837171
 51
270.0
  0
ARC
  5
B87
  8
0
 10
162.97341897091161
 20
173.5961217996153
 30
0.0000000000004547
 40
15.16
 50
270.0
 51
307.82872979162829
  0
ARC
  5
B88
  8
0
 10
169.2045793161189
 20
165.5712703522475
 30
0.0000000000004547
 40
5.0
 50
307.82872979162818
 51
0.4999999999992816
  0
ARC
  5
B89
  8
0
 10
156.74225862570441
 20
165.5712703522475
 30
0.0000000000004547
 40
5.0
 50
179.5000000000006
 51
232.17127020837179
  0
LINE
  5
C09
  8
0
 10
384.78886413409771
 20
215.23457230527791
 30
0.0000000000005225
 11
384.78886413409782
 21
210.9629639794644
 31
0.0000000000005225
  0
ARC
  5
C0A
  8
0
 10
393.15365106249658
 20
222.3296280479027
 30
0.0000000000005225
 40
15.73208094833015
 50
185.2015430027152
 51
230.96238867326869
  0
ARC
  5
C0B
  8
0
 10
383.73282618793701
 20
211.0507825417954
 30
0.0000000000005225
 40
1.0596830864090581
 50
242.59682504676269
 51
355.24630492221269
  0
ARC
  5
C0C
  8
0
 10
351.08626885803801
 20
205.70229935373561
 30
0.0000000000005225
 40
35.02469351706867
 50
15.792758969670279
 51
41.083175576677569
  0
ARC
  5
C0D
  8
0
 10
383.33965329316641
 20
192.51350483912151
 30
0.0000000000003395
 40
0.5
 50
333.1643166953242
 51
342.84962769087281
  0
ARC
  5
C0E
  8
0
 10
380.74265137328649
 20
193.82737563145639
 30
0.0000000000003395
 40
3.4104424802442792
 50
197.29214032723829
 51
333.1643166953242
  0
ARC
  5
C0F
  8
0
 10
363.4563019012619
 20
198.6495627329617
 30
0.0000000000003395
 40
21.308624871685058
 50
342.8496276908744
 51
23.580756190811059
  0
ARC
  5
C10
  8
0
 10
379.75354290893063
 20
205.4675795573425
 30
0.0000000000003395
 40
3.6548139530065491
 50
27.83111321658944
 51
128.34017040980081
  0
ARC
  5
C11
  8
0
 10
377.2660337819699
 20
173.78561039024601
 30
0.0000000000004547
 40
5.7002790670791841
 50
272.21509318453548
 51
329.09128327160818
  0
ARC
  5
C12
  8
0
 10
371.40262844539183
 20
178.84782326833729
 30
0.0000000000005225
 40
13.39764231110891
 50
323.38786530531178
 51
2.3644644626939741
  0
LINE
  5
C13
  8
0
 10
384.78886413409771
 20
182.71454529704749
 30
0.0000000000005225
 11
384.78886413409771
 21
178.29509043700489
 31
0.0000000000005225
  0
ARC
  5
C14
  8
0
 10
378.12105360720051
 20
182.83267483909319
 30
0.0000000000005225
 40
6.6688568594104707
 50
358.98503171689902
 51
31.647173085036549
  0
ARC
  5
C15
  8
0
 10
382.11034122869728
 20
185.1221076982809
 30
0.0000000000005225
 40
2.076568594899852
 50
35.627532065834536
 51
131.81831063147371
  0
ARC
  5
C16
  8
0
 10
386.8388858023178
 20
179.39619311336079
 30
0.0000000000005225
 40
9.5012809500197193
 50
130.04594045317901
 51
169.84817297277999
  0
ARC
  5
C17
  8
0
 10
383.8473560051529
 20
167.7619409741159
 30
0.0000000000005225
 40
0.9588272440633371
 50
10.906519683302429
 51
114.5543642856517
  0
ARC
  5
C18
  8
0
 10
393.59790322175229
 20
155.9881025234877
 30
0.0000000000005225
 40
16.214878813980011
 50
147.89287703126271
 51
173.5281689216456
  0
ARC
  5
C19
  8
0
 10
389.14062870467239
 20
159.95648673198801
 30
0.0000000000005225
 40
10.37766502269281
 50
123.2613301291
 51
153.38028200857281
  0
LINE
  5
C1A
  8
0
 10
384.78886413409771
 20
167.94335797191059
 30
0.0000000000005225
 11
384.78886413409771
 21
165.1816849389896
 31
0.0000000000005225
  0
LINE
  5
C1B
  8
2
 10
374.98635549250048
 20
205.4273395466021
 30
0.0000000000001248
 11
374.98635549250048
 21
175.4273395466021
 31
0.0000000000001248
1001
ACAD
1000
ASC_BOUNDS
1002
{
1070
    19
1005
0
1005
0
1005
0
1005
0
1005
0
1005
0
1002
}
  0
LINE
  5
C1C
  8
0
 10
408.75965946022711
 20
172.4264987525759
 30
0.0000000000000739
 11
410.28635549250072
 21
173.97835541581719
 31
0.0000000000000831
  0
LINE
  5
C1D
  8
0
 10
408.75963932135608
 20
208.4264987525759
 30
0.0000000000000739
 11
408.75963932135608
 21
172.42649842336891
 31
-0.0000000000002652
  0
LINE
  5
C1E
  8
0
 10
408.75963932135608
 20
208.4264987525759
 30
0.0000000000000739
 11
410.28635549250038
 21
206.87590607930909
 31
0.0000000000004221
  0
LINE
  5
C1F
  8
0
 10
391.51234601059122
 20
172.13514801378531
 30
0.0000000000003411
 11
408.75965946022711
 21
172.4264987525759
 31
0.0000000000000739
  0
LINE
  5
C20
  8
0
 10
408.75963932135608
 20
208.4264987525759
 30
0.0000000000000739
 11
391.51234601058502
 21
208.71784949136691
 31
0.0000000000003411
  0
ARC
  5
C21
  8
2
 10
375.48635549250048
 20
205.4273395466021
 30
0.0000000000001248
 40
0.5
 50
90.0
 51
180.0
1001
GENIUS_GENODEF_13
1002
{
1000
HIER
1070
     0
1002
}
1002
{
1000
MANEDIT
1070
     0
1002
}
1002
{
1000
NOSEL
1070
     0
1002
}
1002
{
1000
BEHIND
1070
     0
1002
}
1002
{
1000
REACTOR
1002
}
1001
GENIUS_GENOBJ-N-FIL_13
1002
{
1000
OWNER
1000
GEN
1002
}
  0
ARC
  5
C22
  8
2
 10
376.98635549250048
 20
204.42481587431081
 30
0.0000000000001248
 40
0.5
 50
90.0
 51
180.0
1001
ACAD
1000
ASC_BOUNDS
1002
{
1070
    19
1005
0
1002
}
  0
LINE
  5
C23
  8
2
 10
381.79041012076169
 20
204.42649845202999
 30
-0.0000000000000648
 11
383.48635549250048
 21
204.42649845202999
 31
0.0000000000001216
  0
LINE
  5
C24
  8
2
 10
385.68489207907061
 20
202.42649875257601
 30
0.0000000000001204
 11
383.48635549250048
 21
202.4264987525759
 31
0.0000000000001204
  0
LINE
  5
C25
  8
2
 10
385.68489207907061
 20
203.42649875257601
 30
0.0000000000002485
 11
385.68489207907061
 21
202.42649875257601
 31
0.0000000000002387
  0
LINE
  5
C26
  8
2
 10
375.51533974842499
 20
205.92649875257601
 30
0.0000000000001245
 11
381.79041012076169
 21
205.92649875257601
 31
0.0000000000001245
  0
LINE
  5
C27
  8
2
 10
376.98635549250048
 20
204.9248158743107
 30
0.0000000000001216
 11
381.79041012076169
 21
204.9248158743107
 31
0.0000000000001216
1001
ACAD
1000
ASC_BOUNDS
1002
{
1070
    19
1005
0
1002
}
  0
ARC
  5
C28
  8
0
 10
391.57220630931312
 20
213.71749115298991
 30
0.0000000000003411
 40
5.0
 50
196.48404720644399
 51
269.31403511724909
1001
GENIUS_GENODEF_13
1002
{
1000
HIER
1070
     0
1002
}
1002
{
1000
MANEDIT
1070
     0
1002
}
1002
{
1000
NOSEL
1070
     0
1002
}
1002
{
1000
BEHIND
1070
     0
1002
}
1002
{
1000
REACTOR
1002
}
1001
GENIUS_GENOBJ-N-FIL_13
1002
{
1000
OWNER
1000
GEN
1002
}
1001
ACAD
1000
ASC_BOUNDS
1002
{
1070
    19
1002
}
  0
ARC
  5
C29
  8
2
 10
375.48635549250059
 20
175.4273395466021
 30
0.0000000000001248
 40
0.5
 50
180.0
 51
270.0
1001
GENIUS_GENODEF_13
1002
{
1000
HIER
1070
     0
1002
}
1002
{
1000
MANEDIT
1070
     0
1002
}
1002
{
1000
NOSEL
1070
     0
1002
}
1002
{
1000
BEHIND
1070
     0
1002
}
1002
{
1000
REACTOR
1002
}
1001
GENIUS_GENOBJ-N-FIL_13
1002
{
1000
OWNER
1000
GEN
1002
}
  0
ARC
  5
C2A
  8
2
 10
376.98635549250048
 20
176.42817844718141
 30
0.0000000000001248
 40
0.5
 50
180.0
 51
270.0
1001
ACAD
1000
ASC_BOUNDS
1002
{
1070
    19
1005
0
1002
}
  0
LINE
  5
C2B
  8
2
 10
381.79041012076169
 20
176.42649845202999
 30
-0.0000000000000648
 11
383.48635549250048
 21
176.42649845202999
 31
0.0000000000001216
  0
LINE
  5
C2C
  8
2
 10
385.68489207907061
 20
178.42649875257601
 30
0.0000000000001204
 11
383.48635549250048
 21
178.42649875257601
 31
0.0000000000001204
  0
LINE
  5
C2D
  8
2
 10
385.68489207907061
 20
177.42649875257601
 30
0.0000000000002485
 11
385.68489207907061
 21
178.42649875257601
 31
0.0000000000002387
  0
LINE
  5
C2E
  8
2
 10
376.98635549250048
 20
175.92817844718141
 30
0.0000000000001216
 11
381.79041012076169
 21
175.92817844718141
 31
0.0000000000001216
1001
ACAD
1000
ASC_BOUNDS
1002
{
1070
    19
1005
0
1002
}
  0
LINE
  5
C2F
  8
2
 10
375.51535165072301
 20
174.92818103189131
 30
0.0000000000001216
 11
381.79041012076169
 21
174.92818103189131
 31
0.0000000000001216
  0
LINE
  5
C30
  8
2
 10
383.48635549250048
 20
176.42649845202999
 30
0.0000000000001183
 11
383.48635549250048
 21
204.42649845202999
 31
0.0000000000001248
  0
LINE
  5
C31
  8
2
 10
376.48635549250059
 20
204.42481587431081
 30
0.0000000000001248
 11
376.48635549250059
 21
176.42817844718141
 31
0.0000000000001248
1001
ACAD
1000
ASC_BOUNDS
1002
{
1070
    19
1005
0
1005
0
1005
0
1005
0
1005
0
1005
0
1002
}
  0
LINE
  5
C32
  8
2
 10
381.79041012076169
 20
174.9264987525759
 30
0.0000000000001216
 11
381.79041012076169
 21
205.92649875257601
 31
0.0000000000001216
1001
ACAD
1000
ASC_BOUNDS
1002
{
1070
    19
1005
0
1005
0
1005
0
1005
0
1005
0
1005
0
1005
0
1005
0
1005
0
1002
}
  0
LINE
  5
C33
  8
0
 10
410.48635549250042
 20
203.4264987525759
 30
0.0000000000004547
 11
410.28635549250038
 21
203.4264987525759
 31
0.0000000000004547
  0
LINE
  5
C34
  8
0
 10
410.48635549250042
 20
177.42649875257601
 30
0.0000000000004547
 11
410.28635549250038
 21
177.42649875257601
 31
0.0000000000004547
  0
LINE
  5
C35
  8
0
 10
410.48635549250042
 20
203.42649875257601
 30
0.0000000000004547
 11
410.48635549250042
 21
177.42649875257601
 31
0.0000000000004547
  0
LINE
  5
C36
  8
2
 10
410.2848920790704
 20
203.4264987525759
 30
0.0000000000002485
 11
385.68489207907061
 21
203.42649875257601
 31
0.0000000000002485
  0
LINE
  5
C37
  8
2
 10
383.48635549250048
 20
196.42649875257601
 30
0.0000000000001221
 11
410.48489207907028
 21
196.42649875257581
 31
0.0000000000000857
  0
LINE
  5
C38
  8
2
 10
383.48635549250048
 20
184.4264987525759
 30
0.0000000000001221
 11
410.48489207907028
 21
184.42649875257581
 31
0.0000000000000857
  0
LINE
  5
C39
  8
2
 10
410.2848920790704
 20
177.42649875257601
 30
0.0000000000002485
 11
385.68489207907061
 21
177.42649875257601
 31
0.0000000000002485
  0
ARC
  5
C3A
  8
0
 10
314.18907490560878
 20
190.8189938220732
 30
0.0000000000003411
 40
75.700000000000003
 50
16.360122104446059
 51
32.743799709096791
  0
ARC
  5
C3B
  8
0
 10
314.18907490560878
 20
190.8189938220732
 30
0.0000000000003411
 40
75.700000000000003
 50
16.360122104446059
 51
32.743799709096791
1001
ACAD
1000
ASC_BOUNDS
1002
{
1070
    19
1002
}
  0
ARC
  5
C3C
  8
0
 10
353.88916436441241
 20
172.6753922233188
 30
0.0000000000005225
 40
31.79539423752912
 50
317.91552944212663
 51
346.3679772318269
  0
ARC
  5
C3D
  8
0
 10
391.57220630931312
 20
167.1355063521622
 30
0.0000000000003411
 40
5.0
 50
90.685964882747669
 51
163.5159527935559
1001
GENIUS_GENODEF_13
1002
{
1000
HIER
1070
     0
1002
}
1002
{
1000
MANEDIT
1070
     0
1002
}
1002
{
1000
NOSEL
1070
     0
1002
}
1002
{
1000
BEHIND
1070
     0
1002
}
1002
{
1000
REACTOR
1002
}
1001
GENIUS_GENOBJ-N-FIL_13
1002
{
1000
OWNER
1000
GEN
1002
}
1001
ACAD
1000
ASC_BOUNDS
1002
{
1070
    19
1002
}
  0
ARC
  5
C3E
  8
0
 10
314.1890751066224
 20
190.0339998673951
 30
0.0000000000003411
 40
75.700000000000003
 50
326.73677559909771
 51
343.51595279355439
1001
ACAD
1000
ASC_BOUNDS
1002
{
1070
    19
1002
}
  0
LINE
  5
C3F
  8
0
 10
410.28635549250072
 20
173.97835541581719
 30
0.0000000000000831
 11
410.28635549250038
 21
206.87590607930909
 31
0.0000000000004221
  0
LINE
  5
C40
  8
0
 10
391.51234601059122
 20
172.13514801378531
 30
0.0000000000003411
 11
391.51234601058502
 21
208.71784949136691
 31
0.0000000000003411
  0
LINE
  5
C41
  8
0
 10
386.7777124305839
 20
168.5542482056463
 30
0.0000000000003411
 11
386.77771243058368
 21
212.29874929950589
 31
0.0000000000003411
  0
ARC
  5
C42
  8
0
 10
392.99991532727512
 20
241.49977353224239
 30
-266.6380216304903
 40
18.0
 50
210.47342946987109
 51
212.7437997090982
  0
TEXT
  5
CEC
  8
0
 62
     3
 10
0.0
 20
0.0
 30
0.0
 40
10.0
  1
SH125F
  7
STANDARD1
  0
ENDSEC
  0
EOF
