  0
SECTION
  2
HEADER
  9
$ACADVER
  1
AC1009
  9
$INSBASE
 10
0.0
 20
0.0
 30
0.0
  9
$EXTMIN
 10
0.0
 20
-2.960436562073669
 30
-266.6380216304899
  9
$EXTMAX
 10
415.16355251904127
 20
264.10690542290592
 30
0.0000000000008177
  9
$LIMMIN
 10
0.0
 20
0.0
  9
$LIMMAX
 10
270.0
 20
175.0
  9
$ORTHOMODE
 70
     0
  9
$REGENMODE
 70
     1
  9
$FILLMODE
 70
     1
  9
$QTEXTMODE
 70
     0
  9
$MIRRTEXT
 70
     0
  9
$DRAGMODE
 70
     2
  9
$LTSCALE
 40
10.0
  9
$OSMODE
 70
    55
  9
$ATTMODE
 70
     1
  9
$TEXTSIZE
 40
0.2
  9
$TRACEWID
 40
0.05
  9
$TEXTSTYLE
  7
STANDARD
  9
$CLAYER
  8
0
  9
$CELTYPE
  6
BYLAYER
  9
$CECOLOR
 62
   256
  9
$DIMSCALE
 40
1.0
  9
$DIMASZ
 40
3.0
  9
$DIMEXO
 40
2.0
  9
$DIMDLI
 40
0.38
  9
$DIMRND
 40
0.0
  9
$DIMDLE
 40
0.0
  9
$DIMEXE
 40
2.0
  9
$DIMTP
 40
0.0
  9
$DIMTM
 40
0.0
  9
$DIMTXT
 40
3.0
  9
$DIMCEN
 40
0.0
  9
$DIMTSZ
 40
0.0
  9
$DIMTOL
 70
     0
  9
$DIMLIM
 70
     0
  9
$DIMTIH
 70
     0
  9
$DIMTOH
 70
     0
  9
$DIMSE1
 70
     0
  9
$DIMSE2
 70
     0
  9
$DIMTAD
 70
     1
  9
$DIMZIN
 70
     0
  9
$DIMBLK
  1

  9
$DIMASO
 70
     0
  9
$DIMSHO
 70
     0
  9
$DIMPOST
  1

  9
$DIMAPOST
  1

  9
$DIMALT
 70
     0
  9
$DIMALTD
 70
     2
  9
$DIMALTF
 40
25.399999999999999
  9
$DIMLFAC
 40
1.0
  9
$DIMTOFL
 70
     1
  9
$DIMTVP
 40
1.6000000000000001
  9
$DIMTIX
 70
     1
  9
$DIMSOXD
 70
     0
  9
$DIMSAH
 70
     0
  9
$DIMBLK1
  1

  9
$DIMBLK2
  1

  9
$DIMSTYLE
  2
STANDARD
  9
$DIMCLRD
 70
     0
  9
$DIMCLRE
 70
     0
  9
$DIMCLRT
 70
     0
  9
$DIMTFAC
 40
1.0
  9
$DIMGAP
 40
0.09
  9
$LUNITS
 70
     2
  9
$LUPREC
 70
     4
  9
$SKETCHINC
 40
0.1
  9
$FILLETRAD
 40
0.0
  9
$AUNITS
 70
     1
  9
$AUPREC
 70
     4
  9
$MENU
  1
E:\r13\win\SUPPORT\ACAD
  9
$ELEVATION
 40
0.0
  9
$PELEVATION
 40
0.0
  9
$THICKNESS
 40
0.0
  9
$LIMCHECK
 70
     0
  9
$BLIPMODE
 70
     0
  9
$CHAMFERA
 40
0.0
  9
$CHAMFERB
 40
0.0
  9
$SKPOLY
 70
     0
  9
$TDCREATE
 40
2449839.7803587969
  9
$TDUPDATE
 40
2456598.4979201271
  9
$TDINDWG
 40
0.0601895023
  9
$TDUSRTIMER
 40
0.0601895023
  9
$USRTIMER
 70
     1
  9
$ANGBASE
 50
0.0
  9
$ANGDIR
 70
     0
  9
$PDMODE
 70
     0
  9
$PDSIZE
 40
0.0
  9
$PLINEWID
 40
0.0
  9
$COORDS
 70
     1
  9
$SPLFRAME
 70
     0
  9
$SPLINETYPE
 70
     6
  9
$SPLINESEGS
 70
     8
  9
$ATTDIA
 70
     0
  9
$ATTREQ
 70
     1
  9
$HANDLING
 70
     1
  9
$HANDSEED
  5
A6D
  9
$SURFTAB1
 70
     6
  9
$SURFTAB2
 70
     6
  9
$SURFTYPE
 70
     6
  9
$SURFU
 70
     6
  9
$SURFV
 70
     6
  9
$UCSNAME
  2

  9
$UCSORG
 10
0.0
 20
0.0
 30
0.0
  9
$UCSXDIR
 10
1.0
 20
0.0
 30
0.0
  9
$UCSYDIR
 10
0.0
 20
1.0
 30
0.0
  9
$PUCSNAME
  2

  9
$PUCSORG
 10
0.0
 20
0.0
 30
0.0
  9
$PUCSXDIR
 10
1.0
 20
0.0
 30
0.0
  9
$PUCSYDIR
 10
0.0
 20
1.0
 30
0.0
  9
$USERI1
 70
     0
  9
$USERI2
 70
     1
  9
$USERI3
 70
     1
  9
$USERI4
 70
     0
  9
$USERI5
 70
     0
  9
$USERR1
 40
0.0
  9
$USERR2
 40
0.0
  9
$USERR3
 40
0.0
  9
$USERR4
 40
0.0
  9
$USERR5
 40
0.0
  9
$WORLDVIEW
 70
     1
  9
$SHADEDGE
 70
     3
  9
$SHADEDIF
 70
    70
  9
$TILEMODE
 70
     1
  9
$MAXACTVP
 70
    16
  9
$PLIMCHECK
 70
     0
  9
$PEXTMIN
 10
1.0000000000000000E+020
 20
1.0000000000000000E+020
 30
1.0000000000000000E+020
  9
$PEXTMAX
 10
-1.0000000000000000E+020
 20
-1.0000000000000000E+020
 30
-1.0000000000000000E+020
  9
$PLIMMIN
 10
0.0
 20
0.0
  9
$PLIMMAX
 10
12.0
 20
9.0
  9
$UNITMODE
 70
     0
  9
$VISRETAIN
 70
     0
  9
$PLINEGEN
 70
     0
  9
$PSLTSCALE
 70
     0
  0
ENDSEC
  0
SECTION
  2
TABLES
  0
TABLE
  2
VPORT
 70
     1
  0
VPORT
  2
*ACTIVE
 70
     0
 10
0.0
 20
0.0
 11
1.0
 21
1.0
 12
207.58177722614869
 22
171.08318775542301
 13
0.0
 23
0.0
 14
10.0
 24
10.0
 15
10.0
 25
10.0
 16
0.0
 26
0.0
 36
1.0
 17
0.0
 27
0.0
 37
0.0
 40
351.17646587130162
 41
1.7807262569832401
 42
50.0
 43
0.0
 44
0.0
 50
0.0
 51
0.0
 71
     0
 72
   500
 73
     1
 74
     0
 75
     0
 76
     0
 77
     0
 78
     2
  0
ENDTAB
  0
TABLE
  2
LTYPE
 70
     4
  0
LTYPE
  2
CONTINUOUS
 70
     0
  3
Solid Line
 72
    65
 73
     0
 40
0.0
  0
LTYPE
  2
CENTER
 70
     0
  3
____ _ ____ _ ____ _ ____ _ ____ _ ____ _ ____
 72
    65
 73
     4
 40
2.0
 49
1.25
 49
-0.25
 49
0.25
 49
-0.25
  0
LTYPE
  2
HIDDEN
 70
     0
  3
__ __ __ __ __ __ __ __ __ __ __ __ __ __ __ __
 72
    65
 73
     2
 40
0.375
 49
0.25
 49
-0.125
  0
LTYPE
  2
PHANTOM2
 70
     0
  3
___ _ _ ___ _ _ ___ _ _ ___ _ _
 72
    65
 73
     6
 40
1.25
 49
0.625
 49
-0.125
 49
0.125
 49
-0.125
 49
0.125
 49
-0.125
  0
ENDTAB
  0
TABLE
  2
LAYER
 70
     3
  0
LAYER
  2
0
 70
     0
 62
     7
  6
CONTINUOUS
  0
LAYER
  2
1
 70
     0
 62
     1
  6
CENTER
  0
LAYER
  2
2
 70
     0
 62
     2
  6
HIDDEN
  0
ENDTAB
  0
TABLE
  2
STYLE
 70
     2
  0
STYLE
  2
STANDARD
 70
     0
 40
0.0
 41
1.0
 50
0.0
 71
     0
 42
0.2
  3
TXT
  4
BIGFONT
  0
STYLE
  2
STANDARD1
 70
     0
 40
0.0
 41
1.0
 50
0.0
 71
     0
 42
3.0
  3
txt
  4

  0
ENDTAB
  0
TABLE
  2
VIEW
 70
     1
  0
VIEW
  2
ALL
 70
     0
 40
179.5384664489153
 10
135.0
 20
89.769233224457665
 41
0.0
 11
0.0
 21
0.0
 31
1.0
 12
0.0
 22
0.0
 32
0.0
 42
0.0
 43
0.0
 44
0.0
 50
0.0
 71
     0
  0
ENDTAB
  0
TABLE
  2
UCS
 70
     0
  0
ENDTAB
  0
TABLE
  2
APPID
 70
     6
  0
APPID
  2
ACAD
 70
     0
  0
APPID
  2
GENIUS_GENODEF_13
 70
     0
  0
APPID
  2
GENIUS_GENOBJ-N-FIL_13
 70
     0
  0
APPID
  2
GENIUS_GENOREF_13
 70
     0
  0
APPID
  2
ACAD_MLEADERVER
 70
     0
  0
APPID
  2
ACAD_NAV_VCDISPLAY
 70
     0
  0
ENDTAB
  0
TABLE
  2
DIMSTYLE
 70
     1
  0
DIMSTYLE
  2
STANDARD
 70
     0
  3

  4

  5

  6

  7

 40
1.0
 41
0.18
 42
0.0625
 43
0.38
 44
0.18
 45
0.0
 46
0.0
 47
0.0
 48
0.0
140
0.18
141
0.09
142
0.0
143
25.399999999999999
144
1.0
145
0.0
146
1.0
147
0.09
 71
     0
 72
     0
 73
     1
 74
     1
 75
     0
 76
     0
 77
     0
 78
     0
170
     0
171
     2
172
     0
173
     0
174
     0
175
     0
176
     0
177
     0
178
     0
  0
ENDTAB
  0
ENDSEC
  0
SECTION
  2
BLOCKS
  0
BLOCK
  8
0
  2
$MODEL_SPACE
 70
     0
 10
0.0
 20
0.0
 30
0.0
  3
$MODEL_SPACE
  1

  0
ENDBLK
  5
522
  8
0
  0
BLOCK
 67
     1
  8
0
  2
$PAPER_SPACE
 70
     0
 10
0.0
 20
0.0
 30
0.0
  3
$PAPER_SPACE
  1

  0
ENDBLK
  5
520
 67
     1
  8
0
  0
ENDSEC
  0
SECTION
  2
ENTITIES
  0
LINE
  5
77C
  8
1
 10
168.90047199414991
 20
238.6061107651899
 30
0.0000000000001933
 11
126.4004719941498
 21
238.6061107651899
 31
0.0000000000001933
  0
CIRCLE
  5
77D
  8
0
 10
147.65047199414991
 20
238.6061107651899
 30
0.0000000000001933
 40
11.25
  0
ARC
  5
77E
  8
0
 10
346.5899315157385
 20
230.25176636613151
 30
0.0000000000001596
 40
0.5
 50
270.50000050349928
 51
0.0
  0
ARC
  5
77F
  8
0
 10
346.58993151573839
 20
246.96045516424809
 30
0.0000000000001596
 40
0.5
 50
0.0
 51
89.499999496500863
  0
LINE
  5
780
  8
0
 10
347.10114051573839
 20
246.1061107651899
 30
0.0000000000001596
 11
348.16666279457371
 21
246.10611076518981
 31
0.0000000000001596
  0
LINE
  5
781
  8
0
 10
346.59429478788132
 20
247.46043612574189
 30
0.0000000000001596
 11
326.08768651573848
 21
247.63939476518971
 31
0.0000000000001596
  0
LINE
  5
782
  8
0
 10
347.08993151573839
 20
246.96045516424809
 30
0.0000000000001596
 11
347.0899315157385
 21
230.25176636613151
 31
0.0000000000001596
  0
LINE
  5
783
  8
0
 10
347.10114051573839
 20
231.10611076518981
 30
0.0000000000001596
 11
348.16340851573852
 21
231.10611076518981
 31
0.0000000000001596
  0
LINE
  5
784
  8
0
 10
346.59429478788138
 20
229.7517854046377
 30
0.0000000000001596
 11
326.08768651573848
 21
229.5728267651898
 31
0.0000000000001596
  0
ARC
  5
785
  8
0
 10
290.29855751573848
 20
232.37495076518979
 30
0.0000000000001596
 40
5.0
 50
217.8287299999983
 51
270.50000000000131
  0
ARC
  5
786
  8
0
 10
298.32340851573861
 20
238.6061107651899
 30
0.0000000000001596
 40
15.16
 50
180.0
 51
217.8287299999983
  0
LINE
  5
787
  8
0
 10
326.08768651573848
 20
229.5728267651898
 30
0.0000000000001596
 11
326.08032451573843
 21
229.5728267651898
 31
0.0000000000001596
  0
ARC
  5
788
  8
0
 10
322.19339051573849
 20
232.3751407651898
 30
0.0000000000001596
 40
5.0
 50
270.0
 51
321.34696400000212
  0
ARC
  5
789
  8
0
 10
290.29855751573848
 20
244.83727076518991
 30
0.0000000000001596
 40
5.0
 50
89.499999999998664
 51
142.17127000000161
  0
LINE
  5
78A
  8
0
 10
326.08768651573848
 20
247.63939476518971
 30
0.0000000000001596
 11
326.08032451573843
 21
247.63939476518971
 31
0.0000000000001596
  0
ARC
  5
78B
  8
0
 10
322.14850751573852
 20
244.55057476518979
 30
0.0000000000001596
 40
5.0
 50
38.153035999998473
 51
89.499999999998664
  0
ARC
  5
78C
  8
0
 10
298.32340851573861
 20
238.6061107651899
 30
0.0000000000001596
 40
15.16
 50
142.17127000000161
 51
180.0
  0
LINE
  5
78D
  8
0
 10
290.34218951573848
 20
249.83708076518991
 30
0.0000000000001596
 11
290.34218951573848
 21
227.3751407651898
 31
0.0000000000001596
  0
LINE
  5
78E
  8
0
 10
322.19339051573849
 20
249.26387776518979
 30
0.0000000000001596
 11
322.19339051573849
 21
227.3751407651898
 31
0.0000000000001596
  0
LINE
  5
78F
  8
0
 10
326.08032451573843
 20
247.63939476518971
 30
0.0000000000001596
 11
326.08032451573843
 21
229.5728267651898
 31
0.0000000000001596
  0
LINE
  5
790
  8
0
 10
290.34219019323052
 20
249.8370803805108
 30
0.0000000000001596
 11
322.1921401932305
 21
249.55038438051059
 31
0.0000000000001596
  0
LINE
  5
791
  8
0
 10
322.19339051573849
 20
227.3751407651898
 30
0.0000000000001596
 11
290.34219019323052
 21
227.37514114986899
 31
0.0000000000001596
  0
LINE
  5
792
  8
1
 10
278.16340851573852
 20
238.60611076518981
 30
0.0000000000002682
 11
353.16340851573841
 21
238.60611076518981
 31
0.0000000000001518
  0
CIRCLE
  5
799
  8
0
 10
147.65047199414991
 20
191.60611076518981
 30
0.0000000000000796
 40
62.5
  0
ARC
  5
79A
  8
0
 10
351.36351432614907
 20
248.34601914208841
 30
0.0000000000000796
 40
3.0
 50
107.6849197936133
 51
171.20025786960579
1001
GENIUS_GENODEF_13
1002
{
1000
HIER
1070
     0
1002
}
1002
{
1000
MANEDIT
1070
     0
1002
}
1002
{
1000
NOSEL
1070
     0
1002
}
1002
{
1000
BEHIND
1070
     0
1002
}
1002
{
1000
REACTOR
1002
}
1001
GENIUS_GENOBJ-N-FIL_13
1002
{
1000
OWNER
1000
GEN
1002
}
  0
ARC
  5
79B
  8
0
 10
368.16340851573881
 20
245.74533553607469
 30
0.0000000000000796
 40
20.0
 50
171.20025786960579
 51
180.0
  0
ARC
  5
79C
  8
0
 10
369.57770851573849
 20
251.52041077337799
 30
0.0000000000001949
 40
2.5856999999999992
 50
0.0
 51
90.004559831747983
  0
LINE
  5
828
  8
0
 10
372.16340851573852
 20
251.52041077337799
 30
0.0000000000004547
 11
372.16340851573852
 21
131.6918107570016
 31
0.0000000000004547
  0
ARC
  5
82A
  8
0
 10
369.105646541223
 20
192.70201180866431
 30
0.0000000000000796
 40
61.40409923677705
 50
89.634504111295968
 51
107.684919793614
  0
LINE
  5
82B
  8
1
 10
338.16340851573858
 20
191.60611076518981
 30
0.0000000000001751
 11
415.16355251904127
 21
191.6061107651897
 31
0.0000000000000557
  0
ARC
  5
82C
  8
0
 10
368.16340851573881
 20
137.4668859943049
 30
0.0000000000000796
 40
20.0
 50
180.0
 51
188.79974213039421
  0
ARC
  5
82D
  8
0
 10
351.36351432614907
 20
134.86620238829121
 30
0.0000000000000796
 40
3.0
 50
188.79974213039421
 51
252.31508020638671
1001
GENIUS_GENODEF_13
1002
{
1000
HIER
1070
     0
1002
}
1002
{
1000
MANEDIT
1070
     0
1002
}
1002
{
1000
NOSEL
1070
     0
1002
}
1002
{
1000
BEHIND
1070
     0
1002
}
1002
{
1000
REACTOR
1002
}
1001
GENIUS_GENOBJ-N-FIL_13
1002
{
1000
OWNER
1000
GEN
1002
}
  0
ARC
  5
860
  8
0
 10
369.57770851573878
 20
131.6918107570016
 30
0.0000000000004547
 40
2.5856999999999992
 50
269.995440168252
 51
0.0
  0
ARC
  5
862
  8
0
 10
369.105646541223
 20
190.5102097217152
 30
0.0000000000000796
 40
61.40409923677705
 50
252.315080206386
 51
270.36549588870321
  0
LINE
  5
864
  8
0
 10
348.16340851573852
 20
245.74533553607461
 30
0.0000000000004547
 11
348.16340851573892
 21
137.46688599430479
 31
0.0000000000004547
1001
ACAD
1000
ASC_BOUNDS
1002
{
1070
    19
1002
}
  0
CIRCLE
  5
869
  8
2
 10
147.6504719941498
 20
191.60611076518981
 30
0.0000000000001933
 40
6.0
  0
ARC
  5
86A
  8
0
 10
147.6504719941498
 20
191.60611076518981
 30
0.0000000000000796
 40
15.5
 50
0.0
 51
90.0
  0
ARC
  5
86B
  8
0
 10
147.6504719941498
 20
191.60611076518981
 30
0.0000000000000796
 40
15.5
 50
270.0
 51
0.0
  0
ARC
  5
86C
  8
0
 10
147.6504719941498
 20
191.60611076518981
 30
0.0000000000000796
 40
21.75
 50
270.0
 51
90.0
  0
LINE
  5
86D
  8
1
 10
147.6504719941498
 20
119.1053161074739
 30
0.0000000000001933
 11
147.6504719941498
 21
264.10690542290592
 31
0.0000000000001933
  0
ARC
  5
86E
  8
0
 10
147.6504719941498
 20
191.60611076518981
 30
0.0000000000000796
 40
15.5
 50
180.0
 51
270.0
  0
ARC
  5
86F
  8
0
 10
147.6504719941498
 20
191.60611076518981
 30
0.0000000000000796
 40
21.75
 50
90.0
 51
270.0
  0
ARC
  5
870
  8
0
 10
147.6504719941498
 20
191.60611076518981
 30
0.0000000000000796
 40
15.5
 50
90.0
 51
180.0
  0
CIRCLE
  5
871
  8
0
 10
147.6504719941498
 20
191.60611076518981
 30
0.0000000000001933
 40
35.0
  0
ARC
  5
872
  8
0
 10
147.6504719941498
 20
191.60611076518981
 30
0.0000000000001933
 40
49.600000000000001
 50
103.01667817201999
 51
76.983321827979722
  0
LINE
  5
873
  8
1
 10
75.149677336433911
 20
191.60611076518981
 30
0.0000000000000796
 11
220.15126665186591
 21
191.60611076518981
 31
0.0000000000000796
  0
LINE
  5
8F3
  8
0
 10
379.46591715733592
 20
216.41418431789171
 30
0.0000000000008177
 11
379.46591715733592
 21
212.14257599207821
 31
0.0000000000008177
  0
ARC
  5
8F4
  8
0
 10
387.83070408573479
 20
223.50924006051639
 30
0.0000000000008177
 40
15.73208094833015
 50
185.2015430027152
 51
230.96238867326869
  0
ARC
  5
8F5
  8
0
 10
378.40987921117511
 20
212.23039455440909
 30
0.0000000000008177
 40
1.0596830864090581
 50
242.59682504676269
 51
355.24630492221269
  0
ARC
  5
8F6
  8
0
 10
345.76332188127611
 20
206.8819113663493
 30
0.0000000000008177
 40
35.02469351706867
 50
15.792758969670279
 51
41.083175576677569
  0
ARC
  5
8F7
  8
0
 10
378.01670631640462
 20
193.6931168517352
 30
0.0000000000006346
 40
0.5
 50
333.1643166953242
 51
342.84962769087281
  0
ARC
  5
8F8
  8
0
 10
375.41970439652471
 20
195.00698764407019
 30
0.0000000000006346
 40
3.4104424802442792
 50
197.29214032723829
 51
333.1643166953242
  0
ARC
  5
8F9
  8
0
 10
358.1333549245
 20
199.8291747455755
 30
0.0000000000006346
 40
21.308624871685058
 50
342.8496276908744
 51
23.580756190811059
  0
ARC
  5
8FA
  8
0
 10
374.43059593216879
 20
206.64719156995619
 30
0.0000000000006346
 40
3.6548139530065491
 50
27.83111321658944
 51
128.34017040980081
  0
ARC
  5
8FB
  8
0
 10
371.943086805208
 20
174.96522240285981
 30
0.0000000000007499
 40
5.7002790670791841
 50
272.21509318453548
 51
329.09128327160818
  0
ARC
  5
8FC
  8
0
 10
366.07968146862999
 20
180.0274352809511
 30
0.0000000000008177
 40
13.39764231110891
 50
323.38786530531178
 51
2.3644644626939741
  0
LINE
  5
8FD
  8
0
 10
379.46591715733592
 20
183.8941573096613
 30
0.0000000000008177
 11
379.46591715733592
 21
179.4747024496186
 31
0.0000000000008177
  0
ARC
  5
8FE
  8
0
 10
372.79810663043861
 20
184.01228685170699
 30
0.0000000000008177
 40
6.6688568594104707
 50
358.98503171689902
 51
31.647173085036549
  0
ARC
  5
8FF
  8
0
 10
376.7873942519355
 20
186.30171971089459
 30
0.0000000000008177
 40
2.076568594899852
 50
35.627532065834536
 51
131.81831063147371
  0
ARC
  5
900
  8
0
 10
381.51593882555591
 20
180.5758051259746
 30
0.0000000000008177
 40
9.5012809500197193
 50
130.04594045317901
 51
169.84817297277999
  0
ARC
  5
901
  8
0
 10
378.52440902839101
 20
168.9415529867297
 30
0.0000000000008177
 40
0.9588272440633371
 50
10.906519683302429
 51
114.5543642856517
  0
ARC
  5
902
  8
0
 10
388.27495624499039
 20
157.16771453610141
 30
0.0000000000008177
 40
16.214878813980011
 50
147.89287703126271
 51
173.5281689216456
  0
ARC
  5
903
  8
0
 10
383.8176817279105
 20
161.1360987446017
 30
0.0000000000008177
 40
10.37766502269281
 50
123.2613301291
 51
153.38028200857281
  0
LINE
  5
904
  8
0
 10
379.46591715733592
 20
169.12296998452439
 30
0.0000000000008177
 11
379.46591715733592
 21
166.36129695160341
 31
0.0000000000008177
  0
LINE
  5
905
  8
2
 10
369.66340851573858
 20
206.60695155921579
 30
0.00000000000042
 11
369.66340851573858
 21
176.6069515592159
 31
0.00000000000042
1001
ACAD
1000
ASC_BOUNDS
1002
{
1070
    19
1005
0
1005
0
1005
0
1005
0
1005
0
1005
0
1002
}
  0
LINE
  5
906
  8
0
 10
403.43671248346533
 20
173.60611076518961
 30
0.000000000000369
 11
404.96340851573882
 21
175.15796742843091
 31
0.0000000000003783
  0
LINE
  5
907
  8
0
 10
403.43669234459429
 20
209.6061107651897
 30
0.000000000000369
 11
403.43669234459429
 21
173.6061104359826
 31
0.00000000000003
  0
LINE
  5
908
  8
0
 10
403.43669234459429
 20
209.6061107651897
 30
0.000000000000369
 11
404.96340851573859
 21
208.05551809192281
 31
0.0000000000007173
  0
LINE
  5
909
  8
0
 10
386.18939903382937
 20
173.314760026399
 30
0.0000000000006362
 11
403.43671248346533
 21
173.60611076518961
 31
0.000000000000369
  0
LINE
  5
90A
  8
0
 10
403.43669234459429
 20
209.6061107651897
 30
0.000000000000369
 11
386.18939903382318
 21
209.89746150398071
 31
0.0000000000006362
  0
ARC
  5
90B
  8
2
 10
370.16340851573869
 20
206.60695155921579
 30
0.00000000000042
 40
0.5
 50
90.0
 51
180.0
1001
GENIUS_GENODEF_13
1002
{
1000
HIER
1070
     0
1002
}
1002
{
1000
MANEDIT
1070
     0
1002
}
1002
{
1000
NOSEL
1070
     0
1002
}
1002
{
1000
BEHIND
1070
     0
1002
}
1002
{
1000
REACTOR
1002
}
1001
GENIUS_GENOBJ-N-FIL_13
1002
{
1000
OWNER
1000
GEN
1002
}
  0
ARC
  5
90C
  8
2
 10
371.66340851573869
 20
205.6044278869245
 30
0.00000000000042
 40
0.5
 50
90.0
 51
180.0
1001
ACAD
1000
ASC_BOUNDS
1002
{
1070
    19
1005
0
1002
}
  0
LINE
  5
90D
  8
2
 10
376.46746314399991
 20
205.60611046464379
 30
0.0000000000002304
 11
378.16340851573869
 21
205.60611046464379
 31
0.0000000000004167
  0
LINE
  5
90E
  8
2
 10
380.36194510230871
 20
203.6061107651897
 30
0.0000000000004155
 11
378.16340851573869
 21
203.6061107651897
 31
0.0000000000004155
  0
LINE
  5
90F
  8
2
 10
380.36194510230871
 20
204.6061107651897
 30
0.0000000000005437
 11
380.36194510230871
 21
203.6061107651897
 31
0.0000000000005338
  0
LINE
  5
910
  8
2
 10
370.19239277166309
 20
207.1061107651897
 30
0.0000000000004196
 11
376.46746314399991
 21
207.1061107651897
 31
0.0000000000004196
  0
LINE
  5
911
  8
2
 10
371.66340851573869
 20
206.1044278869245
 30
0.0000000000004167
 11
376.46746314399979
 21
206.1044278869245
 31
0.0000000000004167
1001
ACAD
1000
ASC_BOUNDS
1002
{
1070
    19
1005
0
1002
}
  0
ARC
  5
912
  8
0
 10
386.24925933255122
 20
214.8971031656036
 30
0.0000000000006362
 40
5.0
 50
196.48404720644399
 51
269.31403511724909
1001
GENIUS_GENODEF_13
1002
{
1000
HIER
1070
     0
1002
}
1002
{
1000
MANEDIT
1070
     0
1002
}
1002
{
1000
NOSEL
1070
     0
1002
}
1002
{
1000
BEHIND
1070
     0
1002
}
1002
{
1000
REACTOR
1002
}
1001
GENIUS_GENOBJ-N-FIL_13
1002
{
1000
OWNER
1000
GEN
1002
}
1001
ACAD
1000
ASC_BOUNDS
1002
{
1070
    19
1002
}
  0
ARC
  5
913
  8
2
 10
370.16340851573881
 20
176.6069515592159
 30
0.00000000000042
 40
0.5
 50
180.0
 51
270.0
1001
GENIUS_GENODEF_13
1002
{
1000
HIER
1070
     0
1002
}
1002
{
1000
MANEDIT
1070
     0
1002
}
1002
{
1000
NOSEL
1070
     0
1002
}
1002
{
1000
BEHIND
1070
     0
1002
}
1002
{
1000
REACTOR
1002
}
1001
GENIUS_GENOBJ-N-FIL_13
1002
{
1000
OWNER
1000
GEN
1002
}
  0
ARC
  5
914
  8
2
 10
371.66340851573869
 20
177.6077904597951
 30
0.00000000000042
 40
0.5
 50
180.0
 51
270.0
1001
ACAD
1000
ASC_BOUNDS
1002
{
1070
    19
1005
0
1002
}
  0
LINE
  5
915
  8
2
 10
376.46746314399991
 20
177.60611046464379
 30
0.0000000000002304
 11
378.16340851573869
 21
177.60611046464379
 31
0.0000000000004167
  0
LINE
  5
916
  8
2
 10
380.36194510230871
 20
179.60611076518981
 30
0.0000000000004155
 11
378.16340851573869
 21
179.60611076518981
 31
0.0000000000004155
  0
LINE
  5
917
  8
2
 10
380.36194510230871
 20
178.60611076518981
 30
0.0000000000005437
 11
380.36194510230871
 21
179.60611076518981
 31
0.0000000000005338
  0
LINE
  5
918
  8
2
 10
371.66340851573869
 20
177.10779045979521
 30
0.0000000000004167
 11
376.46746314399991
 21
177.10779045979521
 31
0.0000000000004167
1001
ACAD
1000
ASC_BOUNDS
1002
{
1070
    19
1005
0
1002
}
  0
LINE
  5
919
  8
2
 10
370.19240467396122
 20
176.107793044505
 30
0.0000000000004167
 11
376.46746314399991
 21
176.107793044505
 31
0.0000000000004167
  0
LINE
  5
91A
  8
2
 10
378.16340851573869
 20
177.60611046464379
 30
0.0000000000004135
 11
378.16340851573869
 21
205.60611046464379
 31
0.00000000000042
  0
LINE
  5
91B
  8
2
 10
371.16340851573869
 20
205.6044278869245
 30
0.00000000000042
 11
371.16340851573869
 21
177.6077904597951
 31
0.00000000000042
1001
ACAD
1000
ASC_BOUNDS
1002
{
1070
    19
1005
0
1005
0
1005
0
1005
0
1005
0
1005
0
1002
}
  0
LINE
  5
91C
  8
2
 10
376.46746314399979
 20
176.1061107651897
 30
0.0000000000004167
 11
376.46746314399991
 21
207.1061107651897
 31
0.0000000000004167
1001
ACAD
1000
ASC_BOUNDS
1002
{
1070
    19
1005
0
1005
0
1005
0
1005
0
1005
0
1005
0
1005
0
1005
0
1005
0
1002
}
  0
LINE
  5
91D
  8
0
 10
405.16340851573852
 20
204.6061107651897
 30
0.0000000000007499
 11
404.96340851573859
 21
204.6061107651897
 31
0.0000000000007499
  0
LINE
  5
91E
  8
0
 10
405.16340851573852
 20
178.6061107651897
 30
0.0000000000007499
 11
404.96340851573859
 21
178.60611076518981
 31
0.0000000000007499
  0
LINE
  5
91F
  8
0
 10
405.16340851573852
 20
204.6061107651897
 30
0.0000000000007499
 11
405.16340851573852
 21
178.6061107651897
 31
0.0000000000007499
  0
LINE
  5
920
  8
2
 10
404.96194510230862
 20
204.60611076518961
 30
0.0000000000005437
 11
380.36194510230871
 21
204.6061107651897
 31
0.0000000000005437
  0
LINE
  5
921
  8
2
 10
378.16340851573869
 20
197.6061107651897
 30
0.0000000000004172
 11
405.16194510230849
 21
197.60611076518961
 31
0.0000000000003809
  0
LINE
  5
922
  8
2
 10
378.16340851573869
 20
185.6061107651897
 30
0.0000000000004172
 11
405.16194510230849
 21
185.60611076518961
 31
0.0000000000003809
  0
LINE
  5
923
  8
2
 10
404.96194510230862
 20
178.6061107651897
 30
0.0000000000005437
 11
380.36194510230871
 21
178.60611076518981
 31
0.0000000000005437
  0
ARC
  5
924
  8
0
 10
308.86612792884688
 20
191.998605834687
 30
0.0000000000006362
 40
75.700000000000003
 50
16.360122104446059
 51
32.743799709096791
  0
ARC
  5
925
  8
0
 10
308.86612792884688
 20
191.998605834687
 30
0.0000000000006362
 40
75.700000000000003
 50
16.360122104446059
 51
32.743799709096791
1001
ACAD
1000
ASC_BOUNDS
1002
{
1070
    19
1002
}
  0
ARC
  5
926
  8
0
 10
348.56621738765062
 20
173.8550042359326
 30
0.0000000000008177
 40
31.79539423752912
 50
317.91552944212663
 51
346.3679772318269
  0
ARC
  5
927
  8
0
 10
386.24925933255122
 20
168.31511836477591
 30
0.0000000000006362
 40
5.0
 50
90.685964882747669
 51
163.5159527935559
1001
GENIUS_GENODEF_13
1002
{
1000
HIER
1070
     0
1002
}
1002
{
1000
MANEDIT
1070
     0
1002
}
1002
{
1000
NOSEL
1070
     0
1002
}
1002
{
1000
BEHIND
1070
     0
1002
}
1002
{
1000
REACTOR
1002
}
1001
GENIUS_GENOBJ-N-FIL_13
1002
{
1000
OWNER
1000
GEN
1002
}
1001
ACAD
1000
ASC_BOUNDS
1002
{
1070
    19
1002
}
  0
ARC
  5
928
  8
0
 10
308.86612812986061
 20
191.21361188000881
 30
0.0000000000006362
 40
75.700000000000003
 50
326.73677559909771
 51
343.51595279355439
1001
ACAD
1000
ASC_BOUNDS
1002
{
1070
    19
1002
}
  0
LINE
  5
929
  8
0
 10
404.96340851573882
 20
175.15796742843091
 30
0.0000000000003783
 11
404.96340851573859
 21
208.05551809192281
 31
0.0000000000007173
  0
LINE
  5
92A
  8
0
 10
386.18939903382937
 20
173.314760026399
 30
0.0000000000006362
 11
386.18939903382318
 21
209.89746150398071
 31
0.0000000000006362
  0
LINE
  5
92B
  8
0
 10
381.45476545382212
 20
169.73386021826011
 30
0.0000000000006362
 11
381.45476545382189
 21
213.4783613121196
 31
0.0000000000006362
  0
ARC
  5
92C
  8
0
 10
387.67696835051328
 20
242.67938554485619
 30
-266.6380216304899
 40
18.0
 50
210.47342946987109
 51
212.7437997090982
  0
TEXT
  5
9D6
  8
0
 62
     3
 10
0.0
 20
0.0
 30
0.0
 40
10.0
  1
SH125
  7
STANDARD1
  0
ENDSEC
  0
EOF
