  0
SECTION
  2
HEADER
  9
$ACADVER
  1
AC1009
  9
$INSBASE
 10
0.0
 20
0.0
 30
0.0
  9
$EXTMIN
 10
0.0
 20
-2.960436562073669
 30
0.0
  9
$EXTMAX
 10
343.41793221949911
 20
209.07804147331441
 30
0.0
  9
$LIMMIN
 10
0.0
 20
0.0
  9
$LIMMAX
 10
270.0
 20
175.0
  9
$ORTHOMODE
 70
     0
  9
$REGENMODE
 70
     1
  9
$FILLMODE
 70
     1
  9
$QTEXTMODE
 70
     0
  9
$MIRRTEXT
 70
     0
  9
$DRAGMODE
 70
     2
  9
$LTSCALE
 40
10.0
  9
$OSMODE
 70
    55
  9
$ATTMODE
 70
     1
  9
$TEXTSIZE
 40
0.2
  9
$TRACEWID
 40
0.05
  9
$TEXTSTYLE
  7
STANDARD
  9
$CLAYER
  8
0
  9
$CELTYPE
  6
BYLAYER
  9
$CECOLOR
 62
   256
  9
$DIMSCALE
 40
1.0
  9
$DIMASZ
 40
3.0
  9
$DIMEXO
 40
2.0
  9
$DIMDLI
 40
0.38
  9
$DIMRND
 40
0.0
  9
$DIMDLE
 40
0.0
  9
$DIMEXE
 40
2.0
  9
$DIMTP
 40
0.0
  9
$DIMTM
 40
0.0
  9
$DIMTXT
 40
3.0
  9
$DIMCEN
 40
0.0
  9
$DIMTSZ
 40
0.0
  9
$DIMTOL
 70
     0
  9
$DIMLIM
 70
     0
  9
$DIMTIH
 70
     0
  9
$DIMTOH
 70
     0
  9
$DIMSE1
 70
     0
  9
$DIMSE2
 70
     0
  9
$DIMTAD
 70
     1
  9
$DIMZIN
 70
     0
  9
$DIMBLK
  1

  9
$DIMASO
 70
     0
  9
$DIMSHO
 70
     0
  9
$DIMPOST
  1

  9
$DIMAPOST
  1

  9
$DIMALT
 70
     0
  9
$DIMALTD
 70
     2
  9
$DIMALTF
 40
25.399999999999999
  9
$DIMLFAC
 40
1.0
  9
$DIMTOFL
 70
     1
  9
$DIMTVP
 40
1.6000000000000001
  9
$DIMTIX
 70
     1
  9
$DIMSOXD
 70
     0
  9
$DIMSAH
 70
     0
  9
$DIMBLK1
  1

  9
$DIMBLK2
  1

  9
$DIMSTYLE
  2
STANDARD
  9
$DIMCLRD
 70
     0
  9
$DIMCLRE
 70
     0
  9
$DIMCLRT
 70
     0
  9
$DIMTFAC
 40
1.0
  9
$DIMGAP
 40
0.09
  9
$LUNITS
 70
     2
  9
$LUPREC
 70
     4
  9
$SKETCHINC
 40
0.1
  9
$FILLETRAD
 40
0.0
  9
$AUNITS
 70
     1
  9
$AUPREC
 70
     4
  9
$MENU
  1
E:\r13\win\SUPPORT\ACAD
  9
$ELEVATION
 40
0.0
  9
$PELEVATION
 40
0.0
  9
$THICKNESS
 40
0.0
  9
$LIMCHECK
 70
     0
  9
$BLIPMODE
 70
     0
  9
$CHAMFERA
 40
0.0
  9
$CHAMFERB
 40
0.0
  9
$SKPOLY
 70
     0
  9
$TDCREATE
 40
2449839.7803587969
  9
$TDUPDATE
 40
2456598.4978627078
  9
$TDINDWG
 40
0.0600712153
  9
$TDUSRTIMER
 40
0.0600712153
  9
$USRTIMER
 70
     1
  9
$ANGBASE
 50
0.0
  9
$ANGDIR
 70
     0
  9
$PDMODE
 70
     0
  9
$PDSIZE
 40
0.0
  9
$PLINEWID
 40
0.0
  9
$COORDS
 70
     1
  9
$SPLFRAME
 70
     0
  9
$SPLINETYPE
 70
     6
  9
$SPLINESEGS
 70
     8
  9
$ATTDIA
 70
     0
  9
$ATTREQ
 70
     1
  9
$HANDLING
 70
     1
  9
$HANDSEED
  5
988
  9
$SURFTAB1
 70
     6
  9
$SURFTAB2
 70
     6
  9
$SURFTYPE
 70
     6
  9
$SURFU
 70
     6
  9
$SURFV
 70
     6
  9
$UCSNAME
  2

  9
$UCSORG
 10
0.0
 20
0.0
 30
0.0
  9
$UCSXDIR
 10
1.0
 20
0.0
 30
0.0
  9
$UCSYDIR
 10
0.0
 20
1.0
 30
0.0
  9
$PUCSNAME
  2

  9
$PUCSORG
 10
0.0
 20
0.0
 30
0.0
  9
$PUCSXDIR
 10
1.0
 20
0.0
 30
0.0
  9
$PUCSYDIR
 10
0.0
 20
1.0
 30
0.0
  9
$USERI1
 70
     0
  9
$USERI2
 70
     1
  9
$USERI3
 70
     1
  9
$USERI4
 70
     0
  9
$USERI5
 70
     0
  9
$USERR1
 40
0.0
  9
$USERR2
 40
0.0
  9
$USERR3
 40
0.0
  9
$USERR4
 40
0.0
  9
$USERR5
 40
0.0
  9
$WORLDVIEW
 70
     1
  9
$SHADEDGE
 70
     3
  9
$SHADEDIF
 70
    70
  9
$TILEMODE
 70
     1
  9
$MAXACTVP
 70
    16
  9
$PLIMCHECK
 70
     0
  9
$PEXTMIN
 10
1.0000000000000000E+020
 20
1.0000000000000000E+020
 30
1.0000000000000000E+020
  9
$PEXTMAX
 10
-1.0000000000000000E+020
 20
-1.0000000000000000E+020
 30
-1.0000000000000000E+020
  9
$PLIMMIN
 10
0.0
 20
0.0
  9
$PLIMMAX
 10
12.0
 20
9.0
  9
$UNITMODE
 70
     0
  9
$VISRETAIN
 70
     0
  9
$PLINEGEN
 70
     0
  9
$PSLTSCALE
 70
     0
  0
ENDSEC
  0
SECTION
  2
TABLES
  0
TABLE
  2
VPORT
 70
     1
  0
VPORT
  2
*ACTIVE
 70
     0
 10
0.0
 20
0.0
 11
1.0
 21
1.0
 12
171.70896690933171
 22
135.21989382463141
 13
0.0
 23
0.0
 14
10.0
 24
10.0
 15
10.0
 25
10.0
 16
0.0
 26
0.0
 36
1.0
 17
0.0
 27
0.0
 37
0.0
 40
278.8239099032055
 41
1.7807262569832401
 42
50.0
 43
0.0
 44
0.0
 50
0.0
 51
0.0
 71
     0
 72
   500
 73
     1
 74
     0
 75
     0
 76
     0
 77
     0
 78
     2
  0
ENDTAB
  0
TABLE
  2
LTYPE
 70
     4
  0
LTYPE
  2
CONTINUOUS
 70
     0
  3
Solid Line
 72
    65
 73
     0
 40
0.0
  0
LTYPE
  2
CENTER
 70
     0
  3
____ _ ____ _ ____ _ ____ _ ____ _ ____ _ ____
 72
    65
 73
     4
 40
2.0
 49
1.25
 49
-0.25
 49
0.25
 49
-0.25
  0
LTYPE
  2
HIDDEN
 70
     0
  3
__ __ __ __ __ __ __ __ __ __ __ __ __ __ __ __
 72
    65
 73
     2
 40
0.375
 49
0.25
 49
-0.125
  0
LTYPE
  2
PHANTOM2
 70
     0
  3
___ _ _ ___ _ _ ___ _ _ ___ _ _
 72
    65
 73
     6
 40
1.25
 49
0.625
 49
-0.125
 49
0.125
 49
-0.125
 49
0.125
 49
-0.125
  0
ENDTAB
  0
TABLE
  2
LAYER
 70
     3
  0
LAYER
  2
0
 70
     0
 62
     7
  6
CONTINUOUS
  0
LAYER
  2
1
 70
     0
 62
     1
  6
CENTER
  0
LAYER
  2
2
 70
     0
 62
     2
  6
HIDDEN
  0
ENDTAB
  0
TABLE
  2
STYLE
 70
     2
  0
STYLE
  2
STANDARD
 70
     0
 40
0.0
 41
1.0
 50
0.0
 71
     0
 42
0.2
  3
TXT
  4
BIGFONT
  0
STYLE
  2
STANDARD1
 70
     0
 40
0.0
 41
1.0
 50
0.0
 71
     0
 42
3.0
  3
txt
  4

  0
ENDTAB
  0
TABLE
  2
VIEW
 70
     1
  0
VIEW
  2
ALL
 70
     0
 40
179.5384664489153
 10
135.0
 20
89.769233224457665
 41
0.0
 11
0.0
 21
0.0
 31
1.0
 12
0.0
 22
0.0
 32
0.0
 42
0.0
 43
0.0
 44
0.0
 50
0.0
 71
     0
  0
ENDTAB
  0
TABLE
  2
UCS
 70
     0
  0
ENDTAB
  0
TABLE
  2
APPID
 70
     6
  0
APPID
  2
ACAD
 70
     0
  0
APPID
  2
GENIUS_GENODEF_13
 70
     0
  0
APPID
  2
GENIUS_GENOBJ-N-FIL_13
 70
     0
  0
APPID
  2
GENIUS_GENOREF_13
 70
     0
  0
APPID
  2
ACAD_MLEADERVER
 70
     0
  0
APPID
  2
ACAD_NAV_VCDISPLAY
 70
     0
  0
ENDTAB
  0
TABLE
  2
DIMSTYLE
 70
     1
  0
DIMSTYLE
  2
STANDARD
 70
     0
  3

  4

  5

  6

  7

 40
1.0
 41
0.18
 42
0.0625
 43
0.38
 44
0.18
 45
0.0
 46
0.0
 47
0.0
 48
0.0
140
0.18
141
0.09
142
0.0
143
25.399999999999999
144
1.0
145
0.0
146
1.0
147
0.09
 71
     0
 72
     0
 73
     1
 74
     1
 75
     0
 76
     0
 77
     0
 78
     0
170
     0
171
     2
172
     0
173
     0
174
     0
175
     0
176
     0
177
     0
178
     0
  0
ENDTAB
  0
ENDSEC
  0
SECTION
  2
BLOCKS
  0
BLOCK
  8
0
  2
$MODEL_SPACE
 70
     0
 10
0.0
 20
0.0
 30
0.0
  3
$MODEL_SPACE
  1

  0
ENDBLK
  5
522
  8
0
  0
BLOCK
 67
     1
  8
0
  2
$PAPER_SPACE
 70
     0
 10
0.0
 20
0.0
 30
0.0
  3
$PAPER_SPACE
  1

  0
ENDBLK
  5
520
 67
     1
  8
0
  0
ENDSEC
  0
SECTION
  2
ENTITIES
  0
LINE
  5
5C0
  8
1
 10
135.2995785002708
 20
186.07804147331441
 30
0.0
 11
106.7995785002708
 21
186.07804147331441
 31
0.0
  0
CIRCLE
  5
5C6
  8
0
 10
121.0495785002708
 20
186.07804147331441
 30
0.0
 40
9.25
  0
CIRCLE
  5
6F3
  8
0
 10
121.08084453769931
 20
149.07804147331441
 30
0.0
 40
17.5
  0
CIRCLE
  5
6F4
  8
0
 10
121.08084453769931
 20
149.07804147331441
 30
0.0
 40
14.0
  0
CIRCLE
  5
6F5
  8
0
 10
121.08084453769931
 20
149.07804147331441
 30
0.0
 40
27.0
  0
ARC
  5
72B
  8
0
 10
303.71553937784472
 20
134.6004803750711
 30
0.0
 40
64.477561142643907
 50
89.997873683099115
 51
105.5285068167039
  0
ARC
  5
72C
  8
0
 10
303.71553937784472
 20
163.55560257155841
 30
0.0
 40
64.477561142644731
 50
254.4714931832961
 51
270.00212631689931
  0
ARC
  5
72D
  8
0
 10
302.31793221949903
 20
191.8780414733144
 30
0.0
 40
17.899999999999999
 50
171.0237633666984
 51
180.0
  0
ARC
  5
72E
  8
0
 10
302.31793221949903
 20
106.2780414733143
 30
0.0
 40
17.899999999999999
 50
180.0
 51
188.97623663330151
  0
ARC
  5
72F
  8
0
 10
287.15592157139901
 20
194.2730222892144
 30
0.0
 40
2.549999999999998
 50
105.98356434940069
 51
171.0237633666984
  0
ARC
  5
730
  8
0
 10
287.15592157139901
 20
103.8830606574143
 30
0.0
 40
2.549999999999998
 50
188.97623663330151
 51
254.01643565059931
  0
ARC
  5
731
  8
0
 10
304.21793221949912
 20
196.8780414733144
 30
0.0
 40
2.2000000000000002
 50
359.99999999999682
 51
89.999999999998366
  0
ARC
  5
732
  8
0
 10
304.21793221949912
 20
101.2780414733144
 30
0.0
 40
2.2000000000000002
 50
269.99999999999841
 51
359.99999999999682
  0
CIRCLE
  5
737
  8
0
 10
121.08084453769931
 20
149.07804147331441
 30
0.0
 40
50.0
  0
LINE
  5
738
  8
0
 10
303.71793221949912
 20
99.078041473314457
 30
0.0
 11
304.21793221949912
 21
99.078041473314457
 31
0.0
  0
LINE
  5
73C
  8
0
 10
284.41793221949911
 20
106.2780414733143
 30
0.0
 11
284.41793221949911
 21
191.8780414733144
 31
0.0
  0
LINE
  5
73E
  8
0
 10
306.41793221949922
 20
196.8780414733144
 30
0.0
 11
306.41793221949911
 21
101.2780414733144
 31
0.0
  0
LINE
  5
745
  8
0
 10
303.71793221949912
 20
199.0780414733143
 30
0.0
 11
304.21793221949918
 21
199.0780414733143
 31
0.0
  0
LINE
  5
74C
  8
1
 10
61.08084453769937
 20
149.07804147331441
 30
0.0
 11
181.01831246284229
 21
149.07804147331441
 31
0.0
1001
GENIUS_GENOREF_13
1005
0
  0
LINE
  5
74D
  8
1
 10
121.08084453769931
 20
209.07804147331441
 30
0.0
 11
121.08084453769931
 21
89.14057354817146
 31
0.0
1001
GENIUS_GENOREF_13
1005
0
  0
LINE
  5
74E
  8
1
 10
274.41793221949911
 20
149.07804147331441
 30
0.0
 11
343.41793221949911
 21
149.07804147331441
 31
0.0
  0
CIRCLE
  5
74F
  8
2
 10
121.08084453769931
 20
149.07804147331441
 30
0.0
 40
5.0
  0
ARC
  5
75C
  8
0
 10
121.08084453769931
 20
149.07804147331441
 30
0.0
 40
38.5
 50
103.9386825782409
 51
76.158150479075573
  0
LINE
  5
75F
  8
1
 10
219.41793221949911
 20
186.07804147331441
 30
0.0
 11
289.41793221949911
 21
186.07804147331441
 31
0.0
  0
LINE
  5
760
  8
0
 10
224.41793221949911
 20
187.2568029067146
 30
0.0
 11
224.41793221949911
 21
184.89928003991449
 31
0.0
  0
ARC
  5
761
  8
0
 10
233.60303455639911
 20
186.0780414733145
 30
0.0
 40
9.2604310621000003
 50
187.31302695359949
 51
270.55283261300031
  0
LINE
  5
762
  8
0
 10
233.69238474779911
 20
176.81804147331451
 30
0.0
 11
233.69238474779911
 21
195.33804147331449
 31
0.0
  0
ARC
  5
763
  8
0
 10
233.60303455639911
 20
186.0780414733145
 30
0.0
 40
9.2604310621000003
 50
89.447167387000505
 51
172.68697304640051
  0
ARC
  5
764
  8
0
 10
262.15883339569911
 20
180.5928785524145
 30
0.0
 40
3.5
 50
270.55283261300031
 51
329.71914051250172
  0
LINE
  5
765
  8
0
 10
265.1813075616991
 20
178.8280414733145
 30
0.0
 11
265.1813075616991
 21
193.3280414733145
 31
0.0
  0
LINE
  5
766
  8
0
 10
262.19260349429908
 20
177.09304147331451
 30
0.0
 11
262.19260349429908
 21
195.06304147331451
 31
0.0
  0
ARC
  5
767
  8
0
 10
262.15883339569911
 20
191.56320439421441
 30
0.0
 40
3.5
 50
30.28085948750109
 51
89.447167387000505
  0
LINE
  5
768
  8
0
 10
262.19260349429908
 20
195.06304147331451
 30
0.0
 11
233.69238474779911
 21
195.33804147331449
 31
0.0
  0
LINE
  5
769
  8
0
 10
262.19260349429908
 20
177.09304147331451
 30
0.0
 11
233.69238474779911
 21
176.81804147331451
 31
0.0
  0
LINE
  5
76A
  8
0
 10
265.1813075616991
 20
178.8280414733145
 30
0.0
 11
283.61927402972009
 21
178.95174551670181
 31
0.0
  0
LINE
  5
76B
  8
0
 10
265.18130756169961
 20
193.32804147334079
 30
0.0
 11
283.61923690516107
 21
193.20433767555741
 31
0.0
  0
ARC
  5
76C
  8
0
 10
283.61793221949921
 20
193.0043419311144
 30
0.0
 40
0.2
 50
0.000000000000007
 51
89.626232438900658
  0
LINE
  5
76D
  8
0
 10
283.91793221949911
 20
191.07804147331441
 30
0.0
 11
283.81793221949908
 21
191.07804147331441
 31
0.0
  0
LINE
  5
76E
  8
0
 10
283.91793221949911
 20
181.07804147331441
 30
0.0
 11
283.81793221949908
 21
181.07804147331441
 31
0.0
  0
ARC
  5
76F
  8
0
 10
283.6179322194991
 20
179.1517410155144
 30
0.0
 40
0.2
 50
270.37376756110018
 51
0.000000000000007
  0
LINE
  5
770
  8
0
 10
283.81793221949908
 20
193.0043419311144
 30
0.0
 11
283.81793221949908
 21
179.1517410155144
 31
0.0
  0
LINE
  5
771
  8
0
 10
284.41793221949922
 20
190.57804147331441
 30
0.0
 11
283.91793221949911
 21
191.07804147331441
 31
0.0
  0
LINE
  5
772
  8
0
 10
284.41793221949911
 20
181.5780414733145
 30
0.0
 11
283.91793221949911
 21
181.07804147331441
 31
0.0
  0
ARC
  5
817
  8
0
 10
303.49900164581521
 20
170.55248248463309
 30
0.0
 40
8.5119220837415863
 50
4.1804748574140316
 51
24.862385245077132
  0
ARC
  5
818
  8
0
 10
311.3138709067174
 20
171.07025419673101
 30
0.0
 40
0.6821856821715118
 50
218.1001727709571
 51
8.6613616910623197
  0
ARC
  5
819
  8
0
 10
329.85130387193988
 20
187.9705804249198
 30
0.0
 40
25.765359678893041
 50
204.5648463197717
 51
222.2424547090688
  0
ARC
  5
81A
  8
0
 10
296.5884827620032
 20
160.9138707414304
 30
0.0
 40
15.399998406122579
 50
346.3458049521368
 51
1.5336511629185221
  0
ARC
  5
81B
  8
0
 10
310.1011036494242
 20
157.78680128752291
 30
0.0
 40
1.5385281912810129
 50
247.44552075870189
 51
340.70909368722789
  0
ARC
  5
81C
  8
0
 10
317.99571026239101
 20
167.9388955097707
 30
0.0
 40
14.35004287883654
 50
216.21444472433089
 51
233.752929326702
  0
ARC
  5
81D
  8
0
 10
297.91262955589332
 20
161.33831284936761
 30
0.0
 40
14.0703403522553
 50
359.9500128430098
 51
19.204760256883439
  0
ARC
  5
81E
  8
0
 10
302.94541300306622
 20
163.132293447378
 30
0.0
 40
8.7276004879834002
 50
18.951128811932211
 51
66.554418364951161
  0
ARC
  5
81F
  8
0
 10
307.3878789701929
 20
140.7315687402841
 30
0.0
 40
4.0455851187395098
 50
352.20187048199517
 51
0.8907396609575844
  0
ARC
  5
820
  8
0
 10
295.74756736839629
 20
144.55443933097311
 30
0.0
 40
16.247695068588602
 50
339.24694323654938
 51
21.117818932446841
  0
ARC
  5
821
  8
0
 10
307.3878789701929
 20
140.7315687402841
 30
0.0
 40
4.0455851187395098
 50
256.12795588708838
 51
331.4360607280903
  0
ARC
  5
822
  8
0
 10
309.24548845922749
 20
149.60272180571721
 30
0.0
 40
1.8438754343315189
 50
25.904896582638639
 51
101.769170375217
  0
ARC
  5
823
  8
0
 10
310.84101025895001
 20
144.82393104512329
 30
0.0
 40
6.8727757549521744
 50
106.67085686662961
 51
130.05817037904421
  0
ARC
  5
824
  8
0
 10
324.49833848789018
 20
118.56150416547349
 30
0.0
 40
20.660093586368451
 50
134.0501077991498
 51
151.06115899041569
  0
ARC
  5
825
  8
0
 10
289.68825285743787
 20
136.85078969475461
 30
0.0
 40
23.823108856220959
 50
314.60746784404699
 51
332.11347082157931
  0
ARC
  5
826
  8
0
 10
300.30423446799972
 20
130.9814486029928
 30
0.0
 40
11.69679671972874
 50
333.2031360521309
 51
10.28442621640818
  0
ARC
  5
827
  8
0
 10
310.87537835432641
 20
132.7572949043095
 30
0.0
 40
0.9884081587355312
 50
18.427406702519711
 51
138.62828542991019
  0
ARC
  5
828
  8
0
 10
250.8179322194992
 20
143.12089268761449
 30
0.0
 40
67.89917368910001
 50
21.584183920146678
 51
35.029040852070899
  0
ARC
  5
829
  8
0
 10
250.8179322194992
 20
155.03519025901431
 30
0.0
 40
67.89917368910001
 50
324.97095914792908
 51
338.4158160798533
  0
LINE
  5
82A
  8
0
 10
331.69105193289909
 20
133.07804147331441
 30
0.0
 11
317.83369376929909
 21
132.74317934561429
 31
0.0
  0
LINE
  5
82B
  8
0
 10
331.69105193289909
 20
165.07804147331441
 30
0.0
 11
317.83369376929909
 21
165.41290360111421
 31
0.0
  0
ARC
  5
82C
  8
2
 10
305.41793221949899
 20
135.57804147331441
 30
0.0
 40
0.5
 50
180.0
 51
270.0
1001
GENIUS_GENOBJ-N-FIL_13
1002
{
1000
OWNER
1000
GEN
1002
}
1001
GENIUS_GENODEF_13
1002
{
1000
HIER
1070
     0
1002
}
1002
{
1000
MANEDIT
1070
     0
1002
}
1002
{
1000
NOSEL
1070
     0
1002
}
1002
{
1000
BEHIND
1070
     0
1002
}
1002
{
1000
OTHER
1070
     0
1002
}
1002
{
1000
REACTOR
1002
}
  0
LINE
  5
82D
  8
2
 10
305.91793221949888
 20
136.07804147331441
 30
0.0
 11
311.41793221949899
 21
136.07804147331441
 31
0.0
  0
LINE
  5
82E
  8
2
 10
305.41793221949899
 20
135.07804147331441
 30
0.0
 11
311.41793221949899
 21
135.07804147331441
 31
0.0
  0
ARC
  5
82F
  8
2
 10
305.41793221949899
 20
162.57804147331441
 30
0.0
 40
0.5
 50
90.0
 51
180.0
1001
GENIUS_GENOBJ-N-FIL_13
1002
{
1000
OWNER
1000
GEN
1002
}
1001
GENIUS_GENODEF_13
1002
{
1000
HIER
1070
     0
1002
}
1002
{
1000
MANEDIT
1070
     0
1002
}
1002
{
1000
NOSEL
1070
     0
1002
}
1002
{
1000
BEHIND
1070
     0
1002
}
1002
{
1000
OTHER
1070
     0
1002
}
1002
{
1000
REACTOR
1002
}
  0
LINE
  5
830
  8
2
 10
304.91793221949888
 20
135.57804147331441
 30
0.0
 11
304.91793221949911
 21
162.57804147331419
 31
0.0
  0
LINE
  5
831
  8
2
 10
305.91793221949899
 20
162.0780414733143
 30
0.0
 11
311.41793221949911
 21
162.0780414733143
 31
0.0
  0
LINE
  5
832
  8
2
 10
305.41793221949899
 20
163.0780414733143
 30
0.0
 11
311.41793221949911
 21
163.0780414733143
 31
0.0
  0
LINE
  5
833
  8
2
 10
305.91793221949888
 20
136.07804147331441
 30
0.0
 11
305.91793221949911
 21
162.0780414733143
 31
0.0
  0
LINE
  5
834
  8
2
 10
311.41793221949911
 20
154.07804147331419
 30
0.0
 11
333.41793221949899
 21
154.07804147331419
 31
0.0
  0
LINE
  5
835
  8
2
 10
311.41793221949911
 20
144.0780414733143
 30
0.0
 11
333.41793221949899
 21
144.0780414733143
 31
0.0
  0
LINE
  5
836
  8
2
 10
311.41793221949899
 20
135.07804147331441
 30
0.0
 11
311.41793221949911
 21
163.0780414733143
 31
0.0
  0
LINE
  5
837
  8
2
 10
313.41793221949899
 20
159.07804147331441
 30
0.0
 11
311.41793221949911
 21
159.07804147331441
 31
0.0
  0
LINE
  5
838
  8
2
 10
313.41793221949899
 20
160.07804147331441
 30
0.0
 11
313.41793221949899
 21
159.07804147331441
 31
0.0
  0
LINE
  5
839
  8
2
 10
333.21793221949912
 20
160.07804147331441
 30
0.0
 11
313.41793221949899
 21
160.07804147331441
 31
0.0
  0
LINE
  5
83A
  8
2
 10
313.41793221949888
 20
139.07804147331441
 30
0.0
 11
311.41793221949899
 21
139.07804147331441
 31
0.0
  0
LINE
  5
83B
  8
2
 10
313.41793221949888
 20
138.07804147331441
 30
0.0
 11
313.41793221949888
 21
139.07804147331441
 31
0.0
  0
LINE
  5
83C
  8
0
 10
333.41793221949911
 20
160.07804147331441
 30
0.0
 11
333.41793221949899
 21
138.07804147331441
 31
0.0
  0
LINE
  5
83D
  8
0
 10
333.21793221949912
 20
163.5511142430143
 30
0.0
 11
333.217932219499
 21
134.60496870361439
 31
0.0
  0
LINE
  5
83E
  8
0
 10
331.69105193289909
 20
165.07804147331441
 30
0.0
 11
331.69105193289909
 21
133.07804147331441
 31
0.0
  0
LINE
  5
83F
  8
0
 10
333.21793221949912
 20
163.5511611867143
 30
0.0
 11
331.69105193289909
 21
165.07804147331441
 31
0.0
  0
LINE
  5
840
  8
0
 10
317.83369376929909
 20
132.74317934561429
 30
0.0
 11
317.83369376929909
 21
165.41290360111421
 31
0.0
  0
LINE
  5
841
  8
0
 10
313.95588470529913
 20
130.0572651341144
 30
0.0
 11
313.95588470529918
 21
168.0988178126143
 31
0.0
  0
LINE
  5
842
  8
0
 10
333.41793221949911
 20
160.07804147331441
 30
0.0
 11
333.21793221949912
 21
160.07804147331441
 31
0.0
  0
LINE
  5
843
  8
0
 10
333.41793221949899
 20
138.07804147331441
 30
0.0
 11
333.217932219499
 21
138.07804147331441
 31
0.0
  0
LINE
  5
844
  8
2
 10
333.217932219499
 20
138.07804147331441
 30
0.0
 11
313.41793221949888
 21
138.07804147331441
 31
0.0
  0
LINE
  5
845
  8
0
 10
333.217932219499
 20
134.60492175991439
 30
0.0
 11
331.69105193289909
 21
133.07804147331441
 31
0.0
  0
ARC
  5
846
  8
0
 10
317.90786649659913
 20
128.49382664121441
 30
0.0
 40
4.25
 50
90.999999999998494
 51
158.41581607979759
  0
ARC
  5
847
  8
0
 10
317.90786649659913
 20
169.66225630551429
 30
0.0
 40
4.25
 50
201.58418392019931
 51
268.99999999999829
  0
TEXT
  5
8F1
  8
0
 62
     3
 10
0.0
 20
0.0
 30
0.0
 40
10.0
  1
SH100
  7
STANDARD1
  0
ENDSEC
  0
EOF
