  0
SECTION
  2
HEADER
  9
$ACADVER
  1
AC1009
  9
$INSBASE
 10
0.0
 20
0.0
 30
0.0
  9
$EXTMIN
 10
0.0
 20
-2.960436562073669
 30
0.0
  9
$EXTMAX
 10
214.25304563397719
 20
193.4233561691253
 30
0.0
  9
$LIMMIN
 10
0.0
 20
0.0
  9
$LIMMAX
 10
275.0
 20
175.0
  9
$ORTHOMODE
 70
     1
  9
$REGENMODE
 70
     1
  9
$FILLMODE
 70
     1
  9
$QTEXTMODE
 70
     0
  9
$MIRRTEXT
 70
     0
  9
$DRAGMODE
 70
     2
  9
$LTSCALE
 40
10.0
  9
$OSMODE
 70
    55
  9
$ATTMODE
 70
     1
  9
$TEXTSIZE
 40
0.2
  9
$TRACEWID
 40
0.05
  9
$TEXTSTYLE
  7
STANDARD
  9
$CLAYER
  8
0
  9
$CELTYPE
  6
BYLAYER
  9
$CECOLOR
 62
   256
  9
$DIMSCALE
 40
1.0
  9
$DIMASZ
 40
3.0
  9
$DIMEXO
 40
1.0
  9
$DIMDLI
 40
6.0
  9
$DIMRND
 40
0.0
  9
$DIMDLE
 40
0.0
  9
$DIMEXE
 40
1.0
  9
$DIMTP
 40
495.0
  9
$DIMTM
 40
0.0
  9
$DIMTXT
 40
3.0
  9
$DIMCEN
 40
0.0
  9
$DIMTSZ
 40
0.0
  9
$DIMTOL
 70
     0
  9
$DIMLIM
 70
     0
  9
$DIMTIH
 70
     0
  9
$DIMTOH
 70
     0
  9
$DIMSE1
 70
     0
  9
$DIMSE2
 70
     0
  9
$DIMTAD
 70
     1
  9
$DIMZIN
 70
     0
  9
$DIMBLK
  1

  9
$DIMASO
 70
     0
  9
$DIMSHO
 70
     0
  9
$DIMPOST
  1

  9
$DIMAPOST
  1

  9
$DIMALT
 70
     0
  9
$DIMALTD
 70
     2
  9
$DIMALTF
 40
25.399999999999999
  9
$DIMLFAC
 40
1.0
  9
$DIMTOFL
 70
     1
  9
$DIMTVP
 40
0.0
  9
$DIMTIX
 70
     1
  9
$DIMSOXD
 70
     0
  9
$DIMSAH
 70
     0
  9
$DIMBLK1
  1

  9
$DIMBLK2
  1

  9
$DIMSTYLE
  2
STANDARD
  9
$DIMCLRD
 70
     0
  9
$DIMCLRE
 70
     0
  9
$DIMCLRT
 70
     4
  9
$DIMTFAC
 40
1.0
  9
$DIMGAP
 40
1.0
  9
$LUNITS
 70
     2
  9
$LUPREC
 70
     4
  9
$SKETCHINC
 40
0.1
  9
$FILLETRAD
 40
0.0
  9
$AUNITS
 70
     0
  9
$AUPREC
 70
     0
  9
$MENU
  1
E:\r13\win\SUPPORT\ACAD
  9
$ELEVATION
 40
0.0
  9
$PELEVATION
 40
0.0
  9
$THICKNESS
 40
0.0
  9
$LIMCHECK
 70
     0
  9
$BLIPMODE
 70
     0
  9
$CHAMFERA
 40
0.0
  9
$CHAMFERB
 40
0.0
  9
$SKPOLY
 70
     0
  9
$TDCREATE
 40
2450653.5278402781
  9
$TDUPDATE
 40
2456598.4977811002
  9
$TDINDWG
 40
0.1131247338
  9
$TDUSRTIMER
 40
0.1131247338
  9
$USRTIMER
 70
     1
  9
$ANGBASE
 50
0.0
  9
$ANGDIR
 70
     0
  9
$PDMODE
 70
     0
  9
$PDSIZE
 40
0.0
  9
$PLINEWID
 40
0.0
  9
$COORDS
 70
     1
  9
$SPLFRAME
 70
     0
  9
$SPLINETYPE
 70
     6
  9
$SPLINESEGS
 70
     8
  9
$ATTDIA
 70
     0
  9
$ATTREQ
 70
     1
  9
$HANDLING
 70
     1
  9
$HANDSEED
  5
1420
  9
$SURFTAB1
 70
     6
  9
$SURFTAB2
 70
     6
  9
$SURFTYPE
 70
     6
  9
$SURFU
 70
     6
  9
$SURFV
 70
     6
  9
$UCSNAME
  2

  9
$UCSORG
 10
0.0
 20
0.0
 30
0.0
  9
$UCSXDIR
 10
1.0
 20
0.0
 30
0.0
  9
$UCSYDIR
 10
0.0
 20
1.0
 30
0.0
  9
$PUCSNAME
  2

  9
$PUCSORG
 10
0.0
 20
0.0
 30
0.0
  9
$PUCSXDIR
 10
1.0
 20
0.0
 30
0.0
  9
$PUCSYDIR
 10
0.0
 20
1.0
 30
0.0
  9
$USERI1
 70
     4
  9
$USERI2
 70
     1
  9
$USERI3
 70
     1
  9
$USERI4
 70
     0
  9
$USERI5
 70
     0
  9
$USERR1
 40
1.0
  9
$USERR2
 40
3.0
  9
$USERR3
 40
3.0
  9
$USERR4
 40
3.0
  9
$USERR5
 40
10.0
  9
$WORLDVIEW
 70
     1
  9
$SHADEDGE
 70
     3
  9
$SHADEDIF
 70
    70
  9
$TILEMODE
 70
     1
  9
$MAXACTVP
 70
    16
  9
$PLIMCHECK
 70
     0
  9
$PEXTMIN
 10
1.0000000000000000E+020
 20
1.0000000000000000E+020
 30
1.0000000000000000E+020
  9
$PEXTMAX
 10
-1.0000000000000000E+020
 20
-1.0000000000000000E+020
 30
-1.0000000000000000E+020
  9
$PLIMMIN
 10
0.0
 20
0.0
  9
$PLIMMAX
 10
12.0
 20
9.0
  9
$UNITMODE
 70
     0
  9
$VISRETAIN
 70
     0
  9
$PLINEGEN
 70
     0
  9
$PSLTSCALE
 70
     0
  0
ENDSEC
  0
SECTION
  2
TABLES
  0
TABLE
  2
VPORT
 70
     1
  0
VPORT
  2
*ACTIVE
 70
     0
 10
0.0
 20
0.0
 11
1.0
 21
1.0
 12
137.49580415314509
 22
125.0182225202916
 13
0.0
 23
0.0
 14
5.0
 24
5.0
 15
10.0
 25
10.0
 16
0.0
 26
0.0
 36
1.0
 17
0.0
 27
0.0
 37
0.0
 40
258.23806271105929
 41
1.7807262569832401
 42
50.0
 43
0.0
 44
0.0
 50
0.0
 51
0.0
 71
     0
 72
   100
 73
     1
 74
     0
 75
     0
 76
     0
 77
     0
 78
     0
  0
ENDTAB
  0
TABLE
  2
LTYPE
 70
     3
  0
LTYPE
  2
CONTINUOUS
 70
     0
  3
Solid Line
 72
    65
 73
     0
 40
0.0
  0
LTYPE
  2
CENTER
 70
     0
  3
____ _ ____ _ ____ _ ____ _ ____ _ ____ _ ____
 72
    65
 73
     4
 40
2.0
 49
1.25
 49
-0.25
 49
0.25
 49
-0.25
  0
LTYPE
  2
PHANTOM2
 70
     0
  3
___ _ _ ___ _ _ ___ _ _ ___ _ _
 72
    65
 73
     6
 40
1.25
 49
0.625
 49
-0.125
 49
0.125
 49
-0.125
 49
0.125
 49
-0.125
  0
ENDTAB
  0
TABLE
  2
LAYER
 70
     2
  0
LAYER
  2
0
 70
     0
 62
     7
  6
CONTINUOUS
  0
LAYER
  2
1
 70
     0
 62
     1
  6
CENTER
  0
ENDTAB
  0
TABLE
  2
STYLE
 70
     2
  0
STYLE
  2
STANDARD
 70
     0
 40
0.0
 41
1.0
 50
0.0
 71
     0
 42
0.2
  3
simplex
  4
bigfont
  0
STYLE
  2
STANDARD1
 70
     0
 40
0.0
 41
1.0
 50
0.0
 71
     0
 42
3.0
  3
txt
  4

  0
ENDTAB
  0
TABLE
  2
VIEW
 70
     0
  0
ENDTAB
  0
TABLE
  2
UCS
 70
     0
  0
ENDTAB
  0
TABLE
  2
APPID
 70
    46
  0
APPID
  2
ACAD
 70
     0
  0
APPID
  2
GENIUS_GENODEF_13
 70
     0
  0
APPID
  2
GENIUS_GENOBJ-N-FIL_13
 70
     0
  0
APPID
  2
GENIUS_GENOENT_13
 70
     0
  0
APPID
  2
GENIUS_GENOBJ_13
 70
     0
  0
APPID
  2
GENIUS_GENOLIS_13
 70
     0
  0
APPID
  2
GENIUS_GENOREF_13
 70
     0
  0
APPID
  2
GENIUS_GENOBJ-N-SEC_13
 70
     0
  0
APPID
  2
GENIUS_GENOBJ-N-CRS_13
 70
     0
  0
APPID
  2
GENIUS_GENBH_13
 70
     0
  0
APPID
  2
GENIUS_GENOBJ-NBEHI-BHF_13
 70
     0
  0
APPID
  2
GENIUS_GENOBJ-NBEHI-BHB_13
 70
     0
  0
APPID
  2
GENIUS_GENOBJ-F-PART_13
 70
     0
  0
APPID
  2
GENIUS_GEFSTDP_13
 70
     0
  0
APPID
  2
GENIUS_GENOBJ-N-RSSYM_13
 70
     0
  0
APPID
  2
GENIUS_GENSYMENT_13
 70
     0
  0
APPID
  2
GENIUS_GEFINERT_13
 70
     0
  0
APPID
  2
GENIUS_GENOBJ-F-INER_13
 70
     0
  0
APPID
  2
GENIUS_GENOBJ-N-TIT_13
 70
     0
  0
APPID
  2
GENIUS_GENTITLE_13
 70
     0
  0
APPID
  2
GENIUS_GENZVEED_13
 70
     0
  0
APPID
  2
GENIUS_GENOBJ-N-LEADER_13
 70
     0
  0
APPID
  2
GENIUS_GENOBJ-N-ZOO_13
 70
     0
  0
APPID
  2
GENIUS_GENZOO_13
 70
     0
  0
APPID
  2
GENIUS_GENOBJ-F-TOL_13
 70
     0
  0
APPID
  2
GENIUS_GENOBJ-N-REV_13
 70
     0
  0
APPID
  2
GENIUS_GENOBJ-F-ROD_13
 70
     0
  0
APPID
  2
GENIUS_GENOBJ-F-SPR_13
 70
     0
  0
APPID
  2
GENIUS_GEFSPRING_13
 70
     0
  0
APPID
  2
GENIUS_GENCFG_13
 70
     0
  0
APPID
  2
GENIUS_GENCFG0_13
 70
     0
  0
APPID
  2
GENIUS_GENCFG1_13
 70
     0
  0
APPID
  2
GENIUS_GENCFG2_13
 70
     0
  0
APPID
  2
GENIUS_GENCFG3_13
 70
     0
  0
APPID
  2
GENIUS_GENCFG4_13
 70
     0
  0
APPID
  2
GENIUS_GEVCFG0_13
 70
     0
  0
APPID
  2
GENIUS_GENOBJ-N-REC_13
 70
     0
  0
APPID
  2
GENIUS_GENFIL_13
 70
     0
  0
APPID
  2
GENIUS_GENOBJ-N-CHA_13
 70
     0
  0
APPID
  2
GENIUS_GENREC_13
 70
     0
  0
APPID
  2
GENIUS_GENOBJ-F-FEM_13
 70
     0
  0
APPID
  2
GENIUS_GEFFEM_13
 70
     0
  0
APPID
  2
GENIUS_GENOBJ-N-CEN_13
 70
     0
  0
APPID
  2
GENIUS_GENREC_14
 70
     0
  0
APPID
  2
ACAD_MLEADERVER
 70
     0
  0
APPID
  2
ACAD_NAV_VCDISPLAY
 70
     0
  0
ENDTAB
  0
TABLE
  2
DIMSTYLE
 70
     1
  0
DIMSTYLE
  2
STANDARD
 70
     0
  3

  4

  5

  6

  7

 40
1.0
 41
0.18
 42
0.0625
 43
0.38
 44
0.18
 45
0.0
 46
0.0
 47
0.0
 48
0.0
140
0.18
141
0.09
142
0.0
143
25.399999999999999
144
1.0
145
0.0
146
1.0
147
0.09
 71
     0
 72
     0
 73
     1
 74
     1
 75
     0
 76
     0
 77
     0
 78
     0
170
     0
171
     2
172
     0
173
     0
174
     0
175
     0
176
     0
177
     0
178
     0
  0
ENDTAB
  0
ENDSEC
  0
SECTION
  2
BLOCKS
  0
BLOCK
  8
0
  2
$MODEL_SPACE
 70
     0
 10
0.0
 20
0.0
 30
0.0
  3
$MODEL_SPACE
  1

  0
ENDBLK
  5
12C9
  8
0
  0
BLOCK
 67
     1
  8
0
  2
$PAPER_SPACE
 70
     0
 10
0.0
 20
0.0
 30
0.0
  3
$PAPER_SPACE
  1

  0
ENDBLK
  5
12C7
 67
     1
  8
0
  0
ENDSEC
  0
SECTION
  2
ENTITIES
  0
LINE
  5
11F1
  8
0
 10
141.61584261790611
 20
188.4233561691253
 30
0.0
 11
141.61584261790611
 21
138.4233561691253
 31
0.0
  0
LINE
  5
11F8
  8
0
 10
109.6158426179061
 20
188.4233561691253
 30
0.0
 11
109.6158426179061
 21
138.4233561691253
 31
0.0
  0
LINE
  5
11F9
  8
0
 10
214.25304563397719
 20
114.8423204984303
 30
0.0
 11
164.25304563397711
 21
114.8423204984303
 31
0.0
  0
LINE
  5
11FA
  8
0
 10
164.25304563397711
 20
106.8423204984303
 30
0.0
 11
214.25304563397719
 21
106.8423204984303
 31
0.0
  0
LINE
  5
11FB
  8
0
 10
164.25304563397711
 20
110.8423204984305
 30
0.0
 11
214.25304563397719
 21
110.8423204984305
 31
0.0
  0
LINE
  5
11FC
  8
0
 10
164.25304563397711
 20
102.0438386820497
 30
0.0
 11
214.25304563397719
 21
102.0438386820497
 31
0.0
  0
LINE
  5
11FD
  8
0
 10
164.25304563397711
 20
97.043838682049696
 30
0.0
 11
214.25304563397719
 21
97.043838682049696
 31
0.0
  0
LINE
  5
11FF
  8
0
 10
116.1129995901975
 20
20.357756822022569
 30
0.0
 11
116.1129995901975
 21
70.357756822022566
 31
0.0
  0
LINE
  5
1200
  8
0
 10
109.6158426179061
 20
20.357756822022569
 30
0.0
 11
109.6158426179061
 21
70.357756822022566
 31
0.0
  0
LINE
  5
1201
  8
0
 10
135.1129995901974
 20
20.357756822022569
 30
0.0
 11
135.1129995901974
 21
70.357756822022566
 31
0.0
  0
LINE
  5
1206
  8
0
 10
141.61584261790611
 20
20.357756822022569
 30
0.0
 11
141.61584261790611
 21
70.357756822022566
 31
0.0
  0
LINE
  5
1207
  8
0
 10
109.6158426179061
 20
20.357756822022569
 30
0.0
 11
141.61584261790611
 21
20.357756822022569
 31
0.0
  0
LINE
  5
1208
  8
0
 10
141.61584261790611
 20
70.357756822022566
 30
0.0
 11
109.6158426179061
 21
70.357756822022566
 31
0.0
  0
LINE
  5
1209
  8
0
 10
140.61584261790611
 20
110.8423204984305
 30
0.0
 11
128.56584261790599
 21
110.8423204984304
 31
0.0
  0
LINE
  5
120A
  8
0
 10
140.61584261790611
 20
106.8423204984303
 30
0.0
 11
130.56584261790621
 21
106.8423204984303
 31
0.0
  0
LINE
  5
120B
  8
0
 10
141.61584261790611
 20
138.4233561691253
 30
0.0
 11
109.6158426179061
 21
138.4233561691253
 31
0.0
  0
LINE
  5
120C
  8
0
 10
133.91299959019739
 20
102.0438386820495
 30
0.0
 11
130.06584261790621
 21
102.0438386820497
 31
0.0
  0
LINE
  5
120D
  8
0
 10
132.1029490838585
 20
97.336731900863143
 30
0.0
 11
134.76152772762131
 21
99.995310544625795
 31
0.0
  0
ARC
  5
120E
  8
0
 10
117.31299959019741
 20
100.84383868204959
 30
0.0
 40
1.2000000000000091
 50
93.655158968939816
 51
225.00000000000071
  0
LINE
  5
120F
  8
1
 10
125.615842617906
 20
193.4233561691253
 30
0.0
 11
125.615842617906
 21
133.4233561691253
 31
0.0
1001
GENIUS_GENODEF_13
1002
{
1000
HIER
1070
     0
1002
}
1002
{
1000
MANEDIT
1070
     0
1002
}
1002
{
1000
NOSEL
1070
     0
1002
}
1002
{
1000
BEHIND
1070
     0
1002
}
1002
{
1000
REACTOR
1002
}
1001
GENIUS_GENOBJ-N-CEN_13
1002
{
1000
OWNER
1000
GEN
1002
}
  0
ARC
  5
1212
  8
0
 10
131.39584230267189
 20
98.043838682049682
 30
0.0
 40
1.0
 50
270.0
 51
315.00000000000028
1001
GENIUS_GENODEF_13
1002
{
1000
HIER
1070
     0
1002
}
1002
{
1000
MANEDIT
1070
     0
1002
}
1002
{
1000
NOSEL
1070
     0
1002
}
1002
{
1000
BEHIND
1070
     0
1002
}
1002
{
1000
REACTOR
1002
}
1001
GENIUS_GENOBJ-N-FIL_13
1002
{
1000
OWNER
1000
GEN
1002
}
  0
ARC
  5
1213
  8
0
 10
119.8301568777227
 20
98.043838682049682
 30
0.0
 40
1.0
 50
224.9999999999996
 51
270.0
1001
GENIUS_GENODEF_13
1002
{
1000
HIER
1070
     0
1002
}
1002
{
1000
MANEDIT
1070
     0
1002
}
1002
{
1000
NOSEL
1070
     0
1002
}
1002
{
1000
BEHIND
1070
     0
1002
}
1002
{
1000
REACTOR
1002
}
1001
GENIUS_GENOBJ-N-FIL_13
1002
{
1000
OWNER
1000
GEN
1002
}
  0
LINE
  5
1214
  8
0
 10
119.8301568777227
 20
97.043838682049696
 30
0.0
 11
131.39584230267189
 21
97.043838682049696
 31
0.0
  0
LINE
  5
1215
  8
0
 10
116.46447145277359
 20
99.995310544625795
 30
0.0
 11
119.1230500965362
 21
97.336731900863143
 31
0.0
  0
ARC
  5
1218
  8
0
 10
127.0658426179059
 20
114.3423204984303
 30
0.0
 40
0.5
 50
0.0
 51
89.999999999996746
1001
GENIUS_GENODEF_13
1002
{
1000
HIER
1070
     0
1002
}
1002
{
1000
MANEDIT
1070
     0
1002
}
1002
{
1000
NOSEL
1070
     0
1002
}
1002
{
1000
BEHIND
1070
     0
1002
}
1002
{
1000
REACTOR
1002
}
1001
GENIUS_GENOBJ-N-FIL_13
1002
{
1000
OWNER
1000
GEN
1002
}
  0
LINE
  5
1219
  8
0
 10
127.5658426179059
 20
114.3423204984303
 30
0.0
 11
127.5658426179059
 21
111.8423204984305
 31
0.0
  0
ARC
  5
121A
  8
0
 10
130.56584261790621
 20
105.8423204984304
 30
0.0
 40
1.0
 50
90.0
 51
180.0
1001
GENIUS_GENODEF_13
1002
{
1000
HIER
1070
     0
1002
}
1002
{
1000
MANEDIT
1070
     0
1002
}
1002
{
1000
NOSEL
1070
     0
1002
}
1002
{
1000
BEHIND
1070
     0
1002
}
1002
{
1000
REACTOR
1002
}
1001
GENIUS_GENOBJ-N-FIL_13
1002
{
1000
OWNER
1000
GEN
1002
}
  0
ARC
  5
121B
  8
0
 10
128.56584261790599
 20
111.8423204984305
 30
0.0
 40
1.0
 50
180.0
 51
270.0
1001
GENIUS_GENODEF_13
1002
{
1000
HIER
1070
     0
1002
}
1002
{
1000
MANEDIT
1070
     0
1002
}
1002
{
1000
NOSEL
1070
     0
1002
}
1002
{
1000
BEHIND
1070
     0
1002
}
1002
{
1000
REACTOR
1002
}
1001
GENIUS_GENOBJ-N-FIL_13
1002
{
1000
OWNER
1000
GEN
1002
}
  0
ARC
  5
121C
  8
0
 10
120.16584261790609
 20
114.3423204984303
 30
0.0
 40
0.5
 50
90.0
 51
180.0000000000004
1001
GENIUS_GENODEF_13
1002
{
1000
HIER
1070
     0
1002
}
1002
{
1000
MANEDIT
1070
     0
1002
}
1002
{
1000
NOSEL
1070
     0
1002
}
1002
{
1000
BEHIND
1070
     0
1002
}
1002
{
1000
REACTOR
1002
}
1001
GENIUS_GENOBJ-N-FIL_13
1002
{
1000
OWNER
1000
GEN
1002
}
  0
LINE
  5
121D
  8
0
 10
119.66584261790599
 20
114.3423204984303
 30
0.0
 11
119.66584261790609
 21
111.8423204984305
 31
0.0
  0
ARC
  5
121E
  8
0
 10
120.66584261790609
 20
105.8423204984304
 30
0.0
 40
1.0
 50
359.99999999999881
 51
90.0
1001
GENIUS_GENODEF_13
1002
{
1000
HIER
1070
     0
1002
}
1002
{
1000
MANEDIT
1070
     0
1002
}
1002
{
1000
NOSEL
1070
     0
1002
}
1002
{
1000
BEHIND
1070
     0
1002
}
1002
{
1000
REACTOR
1002
}
1001
GENIUS_GENOBJ-N-FIL_13
1002
{
1000
OWNER
1000
GEN
1002
}
  0
LINE
  5
121F
  8
1
 10
123.615842617906
 20
119.8423204984303
 30
0.0
 11
123.615842617906
 21
109.8423204984303
 31
0.0
  0
LINE
  5
1220
  8
0
 10
120.16584261790609
 20
114.8423204984303
 30
0.0
 11
127.0658426179059
 21
114.8423204984303
 31
0.0
  0
LINE
  5
1221
  8
0
 10
118.66584261790609
 20
110.8423204984303
 30
0.0
 11
110.6158426179061
 21
110.8423204984305
 31
0.0
  0
LINE
  5
1222
  8
0
 10
109.6158426179061
 20
107.8423204984304
 30
0.0
 11
109.6158426179061
 21
109.8423204984305
 31
0.0
  0
ARC
  5
1223
  8
0
 10
110.6158426179061
 20
107.8423204984304
 30
0.0
 40
1.0
 50
180.0
 51
270.0
1001
GENIUS_GENODEF_13
1002
{
1000
HIER
1070
     0
1002
}
1002
{
1000
MANEDIT
1070
     0
1002
}
1002
{
1000
NOSEL
1070
     0
1002
}
1002
{
1000
BEHIND
1070
     0
1002
}
1002
{
1000
REACTOR
1002
}
1001
GENIUS_GENOBJ-N-FIL_13
1002
{
1000
OWNER
1000
GEN
1002
}
  0
ARC
  5
1224
  8
0
 10
110.6158426179061
 20
109.8423204984305
 30
0.0
 40
1.0
 50
90.0
 51
180.0
1001
GENIUS_GENODEF_13
1002
{
1000
HIER
1070
     0
1002
}
1002
{
1000
MANEDIT
1070
     0
1002
}
1002
{
1000
NOSEL
1070
     0
1002
}
1002
{
1000
BEHIND
1070
     0
1002
}
1002
{
1000
REACTOR
1002
}
1001
GENIUS_GENOBJ-N-FIL_13
1002
{
1000
OWNER
1000
GEN
1002
}
  0
LINE
  5
1225
  8
0
 10
120.66584261790609
 20
106.8423204984303
 30
0.0
 11
110.6158426179061
 21
106.8423204984303
 31
0.0
  0
ARC
  5
1226
  8
0
 10
118.66584261790609
 20
111.8423204984303
 30
0.0
 40
1.0
 50
270.0
 51
0.0000000000016284
1001
GENIUS_GENODEF_13
1002
{
1000
HIER
1070
     0
1002
}
1002
{
1000
MANEDIT
1070
     0
1002
}
1002
{
1000
NOSEL
1070
     0
1002
}
1002
{
1000
BEHIND
1070
     0
1002
}
1002
{
1000
REACTOR
1002
}
1001
GENIUS_GENOBJ-N-FIL_13
1002
{
1000
OWNER
1000
GEN
1002
}
  0
ARC
  5
1227
  8
0
 10
130.06584261790621
 20
102.5438386820495
 30
0.0
 40
0.5
 50
180.0
 51
269.9999999999992
1001
GENIUS_GENODEF_13
1002
{
1000
HIER
1070
     0
1002
}
1002
{
1000
MANEDIT
1070
     0
1002
}
1002
{
1000
NOSEL
1070
     0
1002
}
1002
{
1000
BEHIND
1070
     0
1002
}
1002
{
1000
REACTOR
1002
}
1001
GENIUS_GENOBJ-N-FIL_13
1002
{
1000
OWNER
1000
GEN
1002
}
  0
ARC
  5
1228
  8
0
 10
121.16584261790609
 20
102.5413976626475
 30
0.0
 40
0.5
 50
270.0
 51
359.99999999999801
1001
GENIUS_GENODEF_13
1002
{
1000
HIER
1070
     0
1002
}
1002
{
1000
MANEDIT
1070
     0
1002
}
1002
{
1000
NOSEL
1070
     0
1002
}
1002
{
1000
BEHIND
1070
     0
1002
}
1002
{
1000
REACTOR
1002
}
1001
GENIUS_GENOBJ-N-FIL_13
1002
{
1000
OWNER
1000
GEN
1002
}
  0
LINE
  5
1229
  8
0
 10
117.2364980347284
 20
102.0413976626475
 30
0.0
 11
121.16584261790609
 21
102.0413976626475
 31
0.0
  0
LINE
  5
122A
  8
0
 10
121.66584261790609
 20
102.5413976626475
 30
0.0
 11
121.66584261790619
 21
105.8423204984303
 31
0.0
  0
LINE
  5
122B
  8
0
 10
129.56584261790621
 20
102.5438386820495
 30
0.0
 11
129.56584261790599
 21
105.8423204984304
 31
0.0
  0
ARC
  5
122C
  8
0
 10
133.91299959019739
 20
100.84383868204959
 30
0.0
 40
1.199999999999972
 50
315.00000000000028
 51
90.0
  0
LINE
  5
122D
  8
0
 10
164.25304563397711
 20
106.8423204984303
 30
0.0
 11
164.25304563397711
 21
97.043838682049696
 31
0.0
  0
LINE
  5
122E
  8
0
 10
164.25304563397711
 20
111.3423204984303
 30
0.0
 11
164.25304563397711
 21
106.8423204984303
 31
0.0
  0
LINE
  5
1230
  8
0
 10
164.25304563397711
 20
114.8423204984303
 30
0.0
 11
164.25304563397711
 21
111.3423204984303
 31
0.0
  0
LINE
  5
1232
  8
0
 10
141.61584261790611
 20
107.8423204984304
 30
0.0
 11
141.61584261790611
 21
109.8423204984305
 31
0.0
  0
ARC
  5
1233
  8
0
 10
140.61584261790611
 20
107.8423204984304
 30
0.0
 40
1.0
 50
270.0
 51
0.0
1001
GENIUS_GENODEF_13
1002
{
1000
HIER
1070
     0
1002
}
1002
{
1000
MANEDIT
1070
     0
1002
}
1002
{
1000
NOSEL
1070
     0
1002
}
1002
{
1000
BEHIND
1070
     0
1002
}
1002
{
1000
REACTOR
1002
}
1001
GENIUS_GENOBJ-N-FIL_13
1002
{
1000
OWNER
1000
GEN
1002
}
  0
ARC
  5
1234
  8
0
 10
140.61584261790611
 20
109.8423204984305
 30
0.0
 40
1.0
 50
0.0
 51
90.0
1001
GENIUS_GENODEF_13
1002
{
1000
HIER
1070
     0
1002
}
1002
{
1000
MANEDIT
1070
     0
1002
}
1002
{
1000
NOSEL
1070
     0
1002
}
1002
{
1000
BEHIND
1070
     0
1002
}
1002
{
1000
REACTOR
1002
}
1001
GENIUS_GENOBJ-N-FIL_13
1002
{
1000
OWNER
1000
GEN
1002
}
  0
LINE
  5
1235
  8
0
 10
109.6158426179061
 20
188.4233561691253
 30
0.0
 11
141.61584261790611
 21
188.4233561691253
 31
0.0
  0
LINE
  5
1236
  8
0
 10
214.25304563397719
 20
106.8423204984303
 30
0.0
 11
214.25304563397719
 21
97.043838682049696
 31
0.0
  0
LINE
  5
1237
  8
0
 10
214.25304563397719
 20
106.8423204984303
 30
0.0
 11
214.25304563397719
 21
111.3423204984303
 31
0.0
  0
LINE
  5
1238
  8
0
 10
214.25304563397719
 20
114.8423204984303
 30
0.0
 11
214.25304563397719
 21
111.3423204984303
 31
0.0
  0
LINE
  5
124B
  8
1
 10
125.615842617906
 20
119.8423204984303
 30
0.0
 11
125.615842617906
 21
92.043838682049696
 31
0.0
1001
GENIUS_GENODEF_13
1002
{
1000
HIER
1070
     0
1002
}
1002
{
1000
MANEDIT
1070
     0
1002
}
1002
{
1000
NOSEL
1070
     0
1002
}
1002
{
1000
BEHIND
1070
     0
1002
}
1002
{
1000
REACTOR
1002
}
1001
GENIUS_GENOBJ-N-CEN_13
1002
{
1000
OWNER
1000
GEN
1002
}
  0
LINE
  5
124C
  8
1
 10
125.615842617906
 20
75.357756822022566
 30
0.0
 11
125.615842617906
 21
15.35775682202256
 31
0.0
1001
GENIUS_GENODEF_13
1002
{
1000
HIER
1070
     0
1002
}
1002
{
1000
MANEDIT
1070
     0
1002
}
1002
{
1000
NOSEL
1070
     0
1002
}
1002
{
1000
BEHIND
1070
     0
1002
}
1002
{
1000
REACTOR
1002
}
1001
GENIUS_GENOBJ-N-CEN_13
1002
{
1000
OWNER
1000
GEN
1002
}
  0
LINE
  5
12DE
  8
0
 10
127.565842617906
 20
138.4233561691253
 30
0.0
 11
127.5658426179059
 21
188.4233561691253
 31
0.0
  0
LINE
  5
12DF
  8
0
 10
119.66584261790599
 20
138.4233561691253
 30
0.0
 11
119.66584261790599
 21
188.4233561691253
 31
0.0
  0
TEXT
  5
138E
  8
0
 62
     3
 10
0.0
 20
0.0
 30
0.0
 40
10.0
  1
SGS8/8
  7
STANDARD1
  0
ENDSEC
  0
EOF
