  0
SECTION
  2
HEADER
  9
$ACADVER
  1
AC1009
  9
$INSBASE
 10
0.0
 20
0.0
 30
0.0
  9
$EXTMIN
 10
0.0
 20
-2.960436562073669
 30
0.0
  9
$EXTMAX
 10
237.99999999999989
 20
172.99999999999989
 30
0.0
  9
$LIMMIN
 10
0.0
 20
0.0
  9
$LIMMAX
 10
385.0
 20
270.0
  9
$ORTHOMODE
 70
     1
  9
$REGENMODE
 70
     1
  9
$FILLMODE
 70
     1
  9
$QTEXTMODE
 70
     0
  9
$MIRRTEXT
 70
     0
  9
$DRAGMODE
 70
     2
  9
$LTSCALE
 40
10.0
  9
$OSMODE
 70
    37
  9
$ATTMODE
 70
     1
  9
$TEXTSIZE
 40
0.2
  9
$TRACEWID
 40
0.05
  9
$TEXTSTYLE
  7
STANDARD
  9
$CLAYER
  8
0
  9
$CELTYPE
  6
BYLAYER
  9
$CECOLOR
 62
   256
  9
$DIMSCALE
 40
1.0
  9
$DIMASZ
 40
3.0
  9
$DIMEXO
 40
0.0625
  9
$DIMDLI
 40
0.38
  9
$DIMRND
 40
0.0
  9
$DIMDLE
 40
0.0
  9
$DIMEXE
 40
0.18
  9
$DIMTP
 40
0.0
  9
$DIMTM
 40
0.0
  9
$DIMTXT
 40
3.0
  9
$DIMCEN
 40
0.09
  9
$DIMTSZ
 40
0.0
  9
$DIMTOL
 70
     0
  9
$DIMLIM
 70
     0
  9
$DIMTIH
 70
     1
  9
$DIMTOH
 70
     1
  9
$DIMSE1
 70
     0
  9
$DIMSE2
 70
     0
  9
$DIMTAD
 70
     0
  9
$DIMZIN
 70
     0
  9
$DIMBLK
  1

  9
$DIMASO
 70
     1
  9
$DIMSHO
 70
     1
  9
$DIMPOST
  1

  9
$DIMAPOST
  1

  9
$DIMALT
 70
     0
  9
$DIMALTD
 70
     2
  9
$DIMALTF
 40
25.399999999999999
  9
$DIMLFAC
 40
1.0
  9
$DIMTOFL
 70
     0
  9
$DIMTVP
 40
0.0
  9
$DIMTIX
 70
     0
  9
$DIMSOXD
 70
     0
  9
$DIMSAH
 70
     0
  9
$DIMBLK1
  1

  9
$DIMBLK2
  1

  9
$DIMSTYLE
  2
STANDARD
  9
$DIMCLRD
 70
     0
  9
$DIMCLRE
 70
     0
  9
$DIMCLRT
 70
     0
  9
$DIMTFAC
 40
1.0
  9
$DIMGAP
 40
0.09
  9
$LUNITS
 70
     2
  9
$LUPREC
 70
     1
  9
$SKETCHINC
 40
0.1
  9
$FILLETRAD
 40
0.0
  9
$AUNITS
 70
     0
  9
$AUPREC
 70
     1
  9
$MENU
  1
E:\r13\win\SUPPORT\ACAD
  9
$ELEVATION
 40
0.0
  9
$PELEVATION
 40
0.0
  9
$THICKNESS
 40
0.0
  9
$LIMCHECK
 70
     0
  9
$BLIPMODE
 70
     0
  9
$CHAMFERA
 40
0.0
  9
$CHAMFERB
 40
0.0
  9
$SKPOLY
 70
     0
  9
$TDCREATE
 40
2450364.4559376161
  9
$TDUPDATE
 40
2457163.4925742708
  9
$TDINDWG
 40
0.038948912
  9
$TDUSRTIMER
 40
0.038948912
  9
$USRTIMER
 70
     1
  9
$ANGBASE
 50
0.0
  9
$ANGDIR
 70
     0
  9
$PDMODE
 70
     0
  9
$PDSIZE
 40
0.0
  9
$PLINEWID
 40
0.0
  9
$COORDS
 70
     1
  9
$SPLFRAME
 70
     0
  9
$SPLINETYPE
 70
     6
  9
$SPLINESEGS
 70
     8
  9
$ATTDIA
 70
     0
  9
$ATTREQ
 70
     1
  9
$HANDLING
 70
     1
  9
$HANDSEED
  5
4CB
  9
$SURFTAB1
 70
     6
  9
$SURFTAB2
 70
     6
  9
$SURFTYPE
 70
     6
  9
$SURFU
 70
     6
  9
$SURFV
 70
     6
  9
$UCSNAME
  2

  9
$UCSORG
 10
0.0
 20
0.0
 30
0.0
  9
$UCSXDIR
 10
1.0
 20
0.0
 30
0.0
  9
$UCSYDIR
 10
0.0
 20
1.0
 30
0.0
  9
$PUCSNAME
  2

  9
$PUCSORG
 10
0.0
 20
0.0
 30
0.0
  9
$PUCSXDIR
 10
1.0
 20
0.0
 30
0.0
  9
$PUCSYDIR
 10
0.0
 20
1.0
 30
0.0
  9
$USERI1
 70
     3
  9
$USERI2
 70
     1
  9
$USERI3
 70
     1
  9
$USERI4
 70
     0
  9
$USERI5
 70
     0
  9
$USERR1
 40
1.0
  9
$USERR2
 40
3.0
  9
$USERR3
 40
3.0
  9
$USERR4
 40
3.0
  9
$USERR5
 40
10.0
  9
$WORLDVIEW
 70
     1
  9
$SHADEDGE
 70
     3
  9
$SHADEDIF
 70
    70
  9
$TILEMODE
 70
     1
  9
$MAXACTVP
 70
    16
  9
$PLIMCHECK
 70
     0
  9
$PEXTMIN
 10
1.0000000000000000E+020
 20
1.0000000000000000E+020
 30
1.0000000000000000E+020
  9
$PEXTMAX
 10
-1.0000000000000000E+020
 20
-1.0000000000000000E+020
 30
-1.0000000000000000E+020
  9
$PLIMMIN
 10
0.0
 20
0.0
  9
$PLIMMAX
 10
12.0
 20
9.0
  9
$UNITMODE
 70
     0
  9
$VISRETAIN
 70
     0
  9
$PLINEGEN
 70
     0
  9
$PSLTSCALE
 70
     0
  0
ENDSEC
  0
SECTION
  2
TABLES
  0
TABLE
  2
VPORT
 70
     1
  0
VPORT
  2
*ACTIVE
 70
     0
 10
0.0
 20
0.0
 11
1.0
 21
1.0
 12
181.62393162393161
 22
100.0
 13
0.0
 23
0.0
 14
5.0
 24
5.0
 15
0.0
 25
0.0
 16
0.0
 26
0.0
 36
1.0
 17
0.0
 27
0.0
 37
0.0
 40
200.0
 41
1.816239316239316
 42
50.0
 43
0.0
 44
0.0
 50
0.0
 51
0.0
 71
     0
 72
   100
 73
     1
 74
     0
 75
     0
 76
     0
 77
     0
 78
     0
  0
ENDTAB
  0
TABLE
  2
LTYPE
 70
     4
  0
LTYPE
  2
CONTINUOUS
 70
     0
  3
Solid Line
 72
    65
 73
     0
 40
0.0
  0
LTYPE
  2
CENTER
 70
     0
  3
____ _ ____ _ ____ _ ____ _ ____ _ ____ _ ____
 72
    65
 73
     4
 40
2.0
 49
1.25
 49
-0.25
 49
0.25
 49
-0.25
  0
LTYPE
  2
HIDDEN
 70
     0
  3
_ _ _ _ _ _ _ _ _ _ _ _ _ _ _ _ _ _ _ _ _ _ _
 72
    65
 73
     2
 40
0.375
 49
0.25
 49
-0.125
  0
LTYPE
  2
PHANTOM2
 70
     0
  3
___ _ _ ___ _ _ ___ _ _ ___ _ _
 72
    65
 73
     6
 40
1.25
 49
0.625
 49
-0.125
 49
0.125
 49
-0.125
 49
0.125
 49
-0.125
  0
ENDTAB
  0
TABLE
  2
LAYER
 70
     3
  0
LAYER
  2
0
 70
     0
 62
     7
  6
CONTINUOUS
  0
LAYER
  2
1
 70
     0
 62
     1
  6
CENTER
  0
LAYER
  2
2
 70
     0
 62
     2
  6
HIDDEN
  0
ENDTAB
  0
TABLE
  2
STYLE
 70
     2
  0
STYLE
  2
STANDARD
 70
     0
 40
0.0
 41
1.0
 50
0.0
 71
     0
 42
0.2
  3
SIMPLEX
  4
BIGFONT
  0
STYLE
  2
STANDARD1
 70
     0
 40
0.0
 41
1.0
 50
0.0
 71
     0
 42
3.0
  3
txt
  4

  0
ENDTAB
  0
TABLE
  2
VIEW
 70
     0
  0
ENDTAB
  0
TABLE
  2
UCS
 70
     0
  0
ENDTAB
  0
TABLE
  2
APPID
 70
     6
  0
APPID
  2
ACAD
 70
     0
  0
APPID
  2
ACAD_EXEMPT_FROM_CAD_STANDARDS
 70
     0
  0
APPID
  2
ACAD_MLEADERVER
 70
     0
  0
APPID
  2
ACAD_NAV_VCDISPLAY
 70
     0
  0
APPID
  2
ACAD_DSTYLE_DIMJAG
 70
     0
  0
APPID
  2
ACAD_DSTYLE_DIMTALN
 70
     0
  0
ENDTAB
  0
TABLE
  2
DIMSTYLE
 70
     1
  0
DIMSTYLE
  2
STANDARD
 70
     0
  3

  4

  5

  6

  7

 40
1.0
 41
0.18
 42
0.0625
 43
0.38
 44
0.18
 45
0.0
 46
0.0
 47
0.0
 48
0.0
140
0.18
141
0.09
142
0.0
143
25.399999999999999
144
1.0
145
0.0
146
1.0
147
0.09
 71
     0
 72
     0
 73
     1
 74
     1
 75
     0
 76
     0
 77
     0
 78
     0
170
     0
171
     2
172
     0
173
     0
174
     0
175
     0
176
     0
177
     0
178
     0
  0
ENDTAB
  0
ENDSEC
  0
SECTION
  2
BLOCKS
  0
BLOCK
  8
0
  2
$MODEL_SPACE
 70
     0
 10
0.0
 20
0.0
 30
0.0
  3
$MODEL_SPACE
  1

  0
ENDBLK
  5
10B
  8
0
  0
BLOCK
 67
     1
  8
0
  2
$PAPER_SPACE
 70
     0
 10
0.0
 20
0.0
 30
0.0
  3
$PAPER_SPACE
  1

  0
ENDBLK
  5
109
 67
     1
  8
0
  0
ENDSEC
  0
SECTION
  2
ENTITIES
  0
TEXT
  5
210
  8
0
 62
     3
 10
0.0
 20
0.0
 30
0.0
 40
10.0
  1
SGH100-M6
  7
STANDARD1
  0
LINE
  5
28E
  8
2
 10
225.54149999999979
 20
61.58058436319731
 30
0.0
 11
225.54149999999979
 21
50.541499999999992
 31
0.0
  0
LINE
  5
28F
  8
2
 10
230.45849999999979
 20
50.541499999999992
 30
0.0
 11
230.45849999999979
 21
61.58058436319731
 31
0.0
  0
LINE
  5
290
  8
2
 10
230.45849999999979
 20
61.58058436319731
 30
0.0
 11
225.54149999999979
 21
61.58058436319731
 31
0.0
  0
LINE
  5
291
  8
2
 10
227.9999999999998
 20
63.0
 30
0.0
 11
225.54149999999979
 21
61.58058436319731
 31
0.0
  0
LINE
  5
292
  8
2
 10
230.45849999999979
 20
61.58058436319731
 30
0.0
 11
227.9999999999998
 21
63.0
 31
0.0
  0
LINE
  5
293
  8
2
 10
147.9999999999998
 20
63.0
 30
0.0
 11
145.54149999999979
 21
61.58058436319731
 31
0.0
  0
LINE
  5
294
  8
2
 10
150.45849999999979
 20
61.58058436319731
 30
0.0
 11
147.9999999999998
 21
63.0
 31
0.0
  0
LINE
  5
295
  8
2
 10
150.45849999999979
 20
61.58058436319731
 30
0.0
 11
145.54149999999979
 21
61.58058436319731
 31
0.0
  0
LINE
  5
296
  8
2
 10
145.54149999999979
 20
61.58058436319731
 30
0.0
 11
145.54149999999979
 21
50.541499999999992
 31
0.0
  0
LINE
  5
297
  8
2
 10
150.45849999999979
 20
50.541499999999992
 30
0.0
 11
150.45849999999979
 21
61.58058436319731
 31
0.0
  0
LINE
  5
298
  8
2
 10
230.45849999999979
 20
50.541499999999992
 30
0.0
 11
225.54149999999979
 21
50.541499999999992
 31
0.0
  0
LINE
  5
299
  8
2
 10
225.54149999999979
 20
50.541499999999992
 30
0.0
 11
224.9999999999998
 21
50.0
 31
0.0
  0
LINE
  5
29A
  8
2
 10
230.9999999999998
 20
50.0
 30
0.0
 11
230.45849999999979
 21
50.541499999999992
 31
0.0
  0
LINE
  5
29B
  8
2
 10
150.45849999999979
 20
50.541499999999992
 30
0.0
 11
145.54149999999979
 21
50.541499999999992
 31
0.0
  0
LINE
  5
29C
  8
2
 10
145.54149999999979
 20
50.541499999999992
 30
0.0
 11
144.9999999999998
 21
50.0
 31
0.0
  0
LINE
  5
29D
  8
2
 10
150.9999999999998
 20
50.0
 30
0.0
 11
150.45849999999979
 21
50.541499999999992
 31
0.0
  0
LINE
  5
2A2
  8
2
 10
150.9999999999998
 20
50.0
 30
0.0
 11
150.9999999999998
 21
60.0
 31
0.0
  0
LINE
  5
2A3
  8
2
 10
150.45849999999979
 20
61.0
 30
0.0
 11
150.9999999999998
 21
60.0
 31
0.0
  0
LINE
  5
2A4
  8
2
 10
150.9999999999998
 20
60.0
 30
0.0
 11
144.9999999999998
 21
60.0
 31
0.0
  0
LINE
  5
2A5
  8
2
 10
144.9999999999998
 20
50.0
 30
0.0
 11
144.9999999999998
 21
60.0
 31
0.0
  0
LINE
  5
2A6
  8
2
 10
145.54149999999979
 20
61.0
 30
0.0
 11
144.9999999999998
 21
60.0
 31
0.0
  0
LINE
  5
2A7
  8
2
 10
230.9999999999998
 20
50.0
 30
0.0
 11
230.9999999999998
 21
60.0
 31
0.0
  0
LINE
  5
2A8
  8
2
 10
230.45849999999979
 20
61.0
 30
0.0
 11
230.9999999999998
 21
60.0
 31
0.0
  0
LINE
  5
2A9
  8
2
 10
230.9999999999998
 20
60.0
 30
0.0
 11
224.9999999999998
 21
60.0
 31
0.0
  0
LINE
  5
2AA
  8
2
 10
224.9999999999998
 20
50.0
 30
0.0
 11
224.9999999999998
 21
60.0
 31
0.0
  0
LINE
  5
2AB
  8
2
 10
225.54149999999979
 20
61.0
 30
0.0
 11
224.9999999999998
 21
60.0
 31
0.0
  0
LINE
  5
2AC
  8
1
 10
147.9999999999998
 20
66.0
 30
0.0
 11
147.9999999999998
 21
47.0
 31
0.0
  0
LINE
  5
2AD
  8
1
 10
227.9999999999998
 20
66.0
 30
0.0
 11
227.9999999999998
 21
47.0
 31
0.0
  0
LINE
  5
2AE
  8
0
 10
137.9999999999998
 20
50.0
 30
0.0
 11
237.99999999999989
 21
50.0
 31
0.0
  0
LINE
  5
2B0
  8
0
 10
137.9999999999998
 20
50.0
 30
0.0
 11
137.9999999999998
 21
80.0
 31
0.0
  0
LINE
  5
2B1
  8
0
 10
237.99999999999989
 20
50.0
 30
0.0
 11
237.99999999999989
 21
80.0
 31
0.0
  0
LINE
  5
2B2
  8
0
 10
137.9999999999998
 20
80.0
 30
0.0
 11
237.99999999999989
 21
80.0
 31
0.0
  0
CIRCLE
  5
2B7
  8
2
 10
227.9999999999998
 20
136.5
 30
0.0
 40
2.4584999999999999
  0
LINE
  5
2BD
  8
1
 10
227.9999999999998
 20
130.5
 30
0.0
 11
227.9999999999998
 21
142.5
 31
0.0
  0
LINE
  5
2BE
  8
1
 10
233.9999999999998
 20
136.5
 30
0.0
 11
221.9999999999998
 21
136.5
 31
0.0
  0
LINE
  5
2BF
  8
1
 10
147.9999999999998
 20
130.49999999999989
 30
0.0
 11
147.9999999999998
 21
142.49999999999989
 31
0.0
  0
LINE
  5
2C0
  8
1
 10
153.9999999999998
 20
136.5
 30
0.0
 11
141.9999999999998
 21
136.5
 31
0.0
  0
LINE
  5
2C1
  8
0
 10
237.99999999999989
 20
167.99999999999989
 30
0.0
 11
137.9999999999998
 21
167.99999999999989
 31
0.0
  0
LINE
  5
2C3
  8
0
 10
237.99999999999989
 20
167.99999999999989
 30
0.0
 11
237.99999999999989
 21
130.0
 31
0.0
  0
LINE
  5
2C4
  8
0
 10
137.9999999999998
 20
167.99999999999989
 30
0.0
 11
137.9999999999998
 21
130.0
 31
0.0
  0
LINE
  5
2C5
  8
0
 10
237.99999999999989
 20
130.0
 30
0.0
 11
137.9999999999998
 21
130.0
 31
0.0
  0
LINE
  5
2C9
  8
2
 10
81.499999999999815
 20
63.0
 30
0.0
 11
83.958499999999844
 21
61.58058436319731
 31
0.0
  0
LINE
  5
2CA
  8
2
 10
79.041499999999814
 20
61.58058436319731
 30
0.0
 11
81.499999999999815
 21
63.0
 31
0.0
  0
LINE
  5
2CB
  8
2
 10
83.958499999999844
 20
61.58058436319731
 30
0.0
 11
83.958499999999844
 21
50.541499999999921
 31
0.0
  0
LINE
  5
2CC
  8
2
 10
79.041499999999814
 20
50.541499999999921
 30
0.0
 11
79.041499999999814
 21
61.58058436319731
 31
0.0
  0
LINE
  5
2CD
  8
2
 10
79.041499999999814
 20
61.58058436319731
 30
0.0
 11
83.958499999999844
 21
61.58058436319731
 31
0.0
  0
LINE
  5
2CE
  8
2
 10
83.958499999999844
 20
50.541499999999921
 30
0.0
 11
84.499999999999829
 21
50.0
 31
0.0
  0
LINE
  5
2CF
  8
2
 10
78.499999999999829
 20
50.0
 30
0.0
 11
79.041499999999814
 21
50.541499999999921
 31
0.0
  0
LINE
  5
2D0
  8
2
 10
79.041499999999814
 20
50.541499999999921
 30
0.0
 11
83.958499999999844
 21
50.541499999999921
 31
0.0
  0
LINE
  5
2D1
  8
2
 10
78.499999999999829
 20
50.0
 30
0.0
 11
78.499999999999829
 21
60.0
 31
0.0
  0
LINE
  5
2D2
  8
2
 10
79.041499999999814
 20
61.0
 30
0.0
 11
78.499999999999829
 21
60.0
 31
0.0
  0
LINE
  5
2D3
  8
2
 10
78.499999999999829
 20
60.0
 30
0.0
 11
84.499999999999829
 21
60.0
 31
0.0
  0
LINE
  5
2D4
  8
2
 10
84.499999999999829
 20
50.0
 30
0.0
 11
84.499999999999829
 21
60.0
 31
0.0
  0
LINE
  5
2D5
  8
2
 10
83.958499999999844
 20
61.0
 30
0.0
 11
84.499999999999829
 21
60.0
 31
0.0
  0
LINE
  5
2D6
  8
1
 10
81.499999999999815
 20
66.0
 30
0.0
 11
81.499999999999815
 21
47.0
 31
0.0
  0
LINE
  5
2D9
  8
0
 10
87.999999999999815
 20
50.0
 30
0.0
 11
74.999999999999829
 21
50.0
 31
0.0
  0
LINE
  5
2DA
  8
0
 10
87.999999999999815
 20
60.0
 30
0.0
 11
87.999999999999815
 21
50.0
 31
0.0
  0
LINE
  5
2DB
  8
0
 10
74.999999999999829
 20
50.0
 30
0.0
 11
74.271680395009582
 21
63.897165935171529
 31
0.0
  0
ARC
  5
2DC
  8
0
 10
64.285385047463819
 20
63.373806372742138
 30
0.0
 40
9.9999999999999911
 50
3.0000000000023341
 51
94.99999999999973
  0
LINE
  5
2DD
  8
0
 10
63.413827619987217
 20
73.335753353659584
 30
0.0
 11
57.664452005768617
 21
72.832748165063094
 31
0.0
  0
ARC
  5
2DE
  8
0
 10
54.349999999999959
 20
75.650000000000205
 30
0.0
 40
4.3499999999999961
 50
138.72165387723399
 51
319.63578828672809
  0
LINE
  5
2DF
  8
0
 10
51.080916208727949
 20
78.519771971018486
 30
0.0
 11
67.999999999999815
 21
80.0
 31
0.0
  0
ARC
  5
2E0
  8
0
 10
67.999999999999815
 20
60.0
 30
0.0
 40
19.999999999999989
 50
0.0
 51
90.0
  0
CIRCLE
  5
2F0
  8
2
 10
227.9999999999998
 20
136.5
 30
0.0
 40
3.0
  0
CIRCLE
  5
2F5
  8
2
 10
147.9999999999998
 20
136.49999999999989
 30
0.0
 40
2.4584999999999999
  0
CIRCLE
  5
2F6
  8
2
 10
147.9999999999998
 20
136.49999999999989
 30
0.0
 40
3.0
  0
LINE
  5
394
  8
1
 10
187.9999999999998
 20
172.99999999999989
 30
0.0
 11
187.9999999999998
 21
125.0
 31
0.0
  0
LINE
  5
399
  8
1
 10
187.9999999999998
 20
85.0
 30
0.0
 11
187.9999999999998
 21
45.0
 31
0.0
  0
ENDSEC
  0
EOF
