  0
SECTION
  2
HEADER
  9
$ACADVER
  1
AC1009
  9
$INSBASE
 10
0.0
 20
0.0
 30
0.0
  9
$EXTMIN
 10
0.0
 20
-2.960436562073669
 30
0.0
  9
$EXTMAX
 10
301.63544485784348
 20
226.5676308821547
 30
0.0
  9
$LIMMIN
 10
0.0
 20
0.0
  9
$LIMMAX
 10
375.0
 20
270.0
  9
$ORTHOMODE
 70
     1
  9
$REGENMODE
 70
     1
  9
$FILLMODE
 70
     1
  9
$QTEXTMODE
 70
     0
  9
$MIRRTEXT
 70
     0
  9
$DRAGMODE
 70
     2
  9
$LTSCALE
 40
10.0
  9
$OSMODE
 70
    55
  9
$ATTMODE
 70
     1
  9
$TEXTSIZE
 40
0.2
  9
$TRACEWID
 40
0.05
  9
$TEXTSTYLE
  7
STANDARD
  9
$CLAYER
  8
0
  9
$CELTYPE
  6
BYLAYER
  9
$CECOLOR
 62
   256
  9
$DIMSCALE
 40
1.0
  9
$DIMASZ
 40
3.0
  9
$DIMEXO
 40
2.0
  9
$DIMDLI
 40
0.38
  9
$DIMRND
 40
0.0
  9
$DIMDLE
 40
0.0
  9
$DIMEXE
 40
2.0
  9
$DIMTP
 40
0.0
  9
$DIMTM
 40
0.0
  9
$DIMTXT
 40
3.2000000000000002
  9
$DIMCEN
 40
0.0
  9
$DIMTSZ
 40
0.0
  9
$DIMTOL
 70
     0
  9
$DIMLIM
 70
     0
  9
$DIMTIH
 70
     0
  9
$DIMTOH
 70
     0
  9
$DIMSE1
 70
     0
  9
$DIMSE2
 70
     0
  9
$DIMTAD
 70
     1
  9
$DIMZIN
 70
     0
  9
$DIMBLK
  1

  9
$DIMASO
 70
     1
  9
$DIMSHO
 70
     0
  9
$DIMPOST
  1

  9
$DIMAPOST
  1

  9
$DIMALT
 70
     0
  9
$DIMALTD
 70
     2
  9
$DIMALTF
 40
25.399999999999999
  9
$DIMLFAC
 40
1.0
  9
$DIMTOFL
 70
     1
  9
$DIMTVP
 40
1.6000000000000001
  9
$DIMTIX
 70
     1
  9
$DIMSOXD
 70
     0
  9
$DIMSAH
 70
     0
  9
$DIMBLK1
  1

  9
$DIMBLK2
  1

  9
$DIMSTYLE
  2
STANDARD
  9
$DIMCLRD
 70
     0
  9
$DIMCLRE
 70
     0
  9
$DIMCLRT
 70
     0
  9
$DIMTFAC
 40
1.0
  9
$DIMGAP
 40
0.09
  9
$LUNITS
 70
     2
  9
$LUPREC
 70
     4
  9
$SKETCHINC
 40
0.1
  9
$FILLETRAD
 40
0.0
  9
$AUNITS
 70
     0
  9
$AUPREC
 70
     4
  9
$MENU
  1
E:\r13\win\SUPPORT\ACAD
  9
$ELEVATION
 40
0.0
  9
$PELEVATION
 40
0.0
  9
$THICKNESS
 40
0.0
  9
$LIMCHECK
 70
     0
  9
$BLIPMODE
 70
     0
  9
$CHAMFERA
 40
0.0
  9
$CHAMFERB
 40
0.0
  9
$SKPOLY
 70
     0
  9
$TDCREATE
 40
2449839.7957638889
  9
$TDUPDATE
 40
2456598.4975747219
  9
$TDINDWG
 40
0.0001460995
  9
$TDUSRTIMER
 40
0.0001460995
  9
$USRTIMER
 70
     1
  9
$ANGBASE
 50
0.0
  9
$ANGDIR
 70
     0
  9
$PDMODE
 70
     0
  9
$PDSIZE
 40
0.0
  9
$PLINEWID
 40
0.0
  9
$COORDS
 70
     1
  9
$SPLFRAME
 70
     0
  9
$SPLINETYPE
 70
     6
  9
$SPLINESEGS
 70
     8
  9
$ATTDIA
 70
     0
  9
$ATTREQ
 70
     1
  9
$HANDLING
 70
     1
  9
$HANDSEED
  5
287
  9
$SURFTAB1
 70
     6
  9
$SURFTAB2
 70
     6
  9
$SURFTYPE
 70
     6
  9
$SURFU
 70
     6
  9
$SURFV
 70
     6
  9
$UCSNAME
  2

  9
$UCSORG
 10
0.0
 20
0.0
 30
0.0
  9
$UCSXDIR
 10
1.0
 20
0.0
 30
0.0
  9
$UCSYDIR
 10
0.0
 20
1.0
 30
0.0
  9
$PUCSNAME
  2

  9
$PUCSORG
 10
0.0
 20
0.0
 30
0.0
  9
$PUCSXDIR
 10
1.0
 20
0.0
 30
0.0
  9
$PUCSYDIR
 10
0.0
 20
1.0
 30
0.0
  9
$USERI1
 70
     0
  9
$USERI2
 70
     1
  9
$USERI3
 70
     1
  9
$USERI4
 70
     0
  9
$USERI5
 70
     0
  9
$USERR1
 40
0.0
  9
$USERR2
 40
0.0
  9
$USERR3
 40
0.0
  9
$USERR4
 40
0.0
  9
$USERR5
 40
0.0
  9
$WORLDVIEW
 70
     1
  9
$SHADEDGE
 70
     3
  9
$SHADEDIF
 70
    70
  9
$TILEMODE
 70
     1
  9
$MAXACTVP
 70
    16
  9
$PLIMCHECK
 70
     0
  9
$PEXTMIN
 10
1.0000000000000000E+020
 20
1.0000000000000000E+020
 30
1.0000000000000000E+020
  9
$PEXTMAX
 10
-1.0000000000000000E+020
 20
-1.0000000000000000E+020
 30
-1.0000000000000000E+020
  9
$PLIMMIN
 10
0.0
 20
0.0
  9
$PLIMMAX
 10
12.0
 20
9.0
  9
$UNITMODE
 70
     0
  9
$VISRETAIN
 70
     0
  9
$PLINEGEN
 70
     0
  9
$PSLTSCALE
 70
     0
  0
ENDSEC
  0
SECTION
  2
TABLES
  0
TABLE
  2
VPORT
 70
     1
  0
VPORT
  2
*ACTIVE
 70
     0
 10
0.0
 20
0.0
 11
1.0
 21
1.0
 12
187.49427839065231
 22
174.91677254346851
 13
0.0
 23
0.0
 14
10.0
 24
10.0
 15
10.0
 25
10.0
 16
0.0
 26
0.0
 36
1.0
 17
0.0
 27
0.0
 37
0.0
 40
358.92027899574339
 41
1.7807262569832401
 42
50.0
 43
0.0
 44
0.0
 50
0.0
 51
0.0
 71
     0
 72
   500
 73
     1
 74
     0
 75
     0
 76
     0
 77
     0
 78
     2
  0
ENDTAB
  0
TABLE
  2
LTYPE
 70
     4
  0
LTYPE
  2
CONTINUOUS
 70
     0
  3
Solid Line
 72
    65
 73
     0
 40
0.0
  0
LTYPE
  2
CENTER
 70
     0
  3
____ _ ____ _ ____ _ ____ _ ____ _ ____ _ ____
 72
    65
 73
     4
 40
2.0
 49
1.25
 49
-0.25
 49
0.25
 49
-0.25
  0
LTYPE
  2
HIDDEN
 70
     0
  3
_ _ _ _ _ _ _ _ _ _ _ _ _ _ _ _ _ _ _ _ _ _ _
 72
    65
 73
     2
 40
0.375
 49
0.25
 49
-0.125
  0
LTYPE
  2
PHANTOM2
 70
     0
  3
___ _ _ ___ _ _ ___ _ _ ___ _ _
 72
    65
 73
     6
 40
1.25
 49
0.625
 49
-0.125
 49
0.125
 49
-0.125
 49
0.125
 49
-0.125
  0
ENDTAB
  0
TABLE
  2
LAYER
 70
     3
  0
LAYER
  2
0
 70
     0
 62
     7
  6
CONTINUOUS
  0
LAYER
  2
1
 70
     0
 62
     1
  6
CENTER
  0
LAYER
  2
2
 70
     0
 62
     2
  6
HIDDEN
  0
ENDTAB
  0
TABLE
  2
STYLE
 70
     2
  0
STYLE
  2
STANDARD
 70
     0
 40
0.0
 41
1.0
 50
0.0
 71
     0
 42
0.2
  3
TXT
  4
BIGFONT
  0
STYLE
  2
STANDARD1
 70
     0
 40
0.0
 41
1.0
 50
0.0
 71
     0
 42
3.0
  3
txt
  4

  0
ENDTAB
  0
TABLE
  2
VIEW
 70
     1
  0
VIEW
  2
ALL
 70
     0
 40
270.0
 10
220.99159663865549
 20
135.0
 41
0.0
 11
0.0
 21
0.0
 31
1.0
 12
0.0
 22
0.0
 32
0.0
 42
0.0
 43
0.0
 44
0.0
 50
0.0
 71
     0
  0
ENDTAB
  0
TABLE
  2
UCS
 70
     0
  0
ENDTAB
  0
TABLE
  2
APPID
 70
     3
  0
APPID
  2
ACAD
 70
     0
  0
APPID
  2
ACAD_MLEADERVER
 70
     0
  0
APPID
  2
ACAD_NAV_VCDISPLAY
 70
     0
  0
ENDTAB
  0
TABLE
  2
DIMSTYLE
 70
     1
  0
DIMSTYLE
  2
STANDARD
 70
     0
  3

  4

  5

  6

  7

 40
1.0
 41
0.18
 42
0.0625
 43
0.38
 44
0.18
 45
0.0
 46
0.0
 47
0.0
 48
0.0
140
0.18
141
0.09
142
0.0
143
25.399999999999999
144
1.0
145
0.0
146
1.0
147
0.09
 71
     0
 72
     0
 73
     1
 74
     1
 75
     0
 76
     0
 77
     0
 78
     0
170
     0
171
     2
172
     0
173
     0
174
     0
175
     0
176
     0
177
     0
178
     0
  0
ENDTAB
  0
ENDSEC
  0
SECTION
  2
BLOCKS
  0
BLOCK
  8
0
  2
$MODEL_SPACE
 70
     0
 10
0.0
 20
0.0
 30
0.0
  3
$MODEL_SPACE
  1

  0
ENDBLK
  5
108
  8
0
  0
BLOCK
 67
     1
  8
0
  2
$PAPER_SPACE
 70
     0
 10
0.0
 20
0.0
 30
0.0
  3
$PAPER_SPACE
  1

  0
ENDBLK
  5
106
 67
     1
  8
0
  0
ENDSEC
  0
SECTION
  2
ENTITIES
  0
LINE
  5
36
  8
0
 10
282.63544485784348
 20
126.4424705461239
 30
0.0
 11
285.13544485784348
 21
136.4424705461237
 31
0.0
  0
LINE
  5
37
  8
0
 10
284.13544485784348
 20
136.4424705461237
 30
0.0
 11
282.63544485784348
 21
130.4424705461237
 31
0.0
  0
ARC
  5
38
  8
0
 10
186.25879776978289
 20
130.4424705461237
 30
0.0
 40
4.0
 50
270.0
 51
343.12550570205542
  0
ARC
  5
39
  8
0
 10
192.25879776978289
 20
136.4424705461237
 30
0.0
 40
4.0
 50
90.000000000000028
 51
163.12550570205539
  0
ARC
  5
3A
  8
0
 10
193.00045515655691
 20
135.4424705461237
 30
0.0
 40
1.0
 50
90.000000000000028
 51
163.12550570205559
  0
ARC
  5
3B
  8
0
 10
185.51714038300881
 20
131.4424705461237
 30
0.0
 40
1.0
 50
270.0
 51
343.12550570205559
  0
LINE
  5
3C
  8
0
 10
192.04351225876121
 20
135.73274677725269
 30
0.0
 11
190.0865693609656
 21
129.2813656216077
 31
0.0
  0
LINE
  5
3D
  8
0
 10
186.47408328080451
 20
131.15219431499469
 30
0.0
 11
188.43102617860021
 21
137.60357547063961
 31
0.0
  0
LINE
  5
3E
  8
0
 10
96.157356534068683
 20
140.4424705461237
 30
0.0
 11
96.157356534068683
 21
134.4424703001846
 31
0.0
  0
LINE
  5
3F
  8
0
 10
300.13544485784348
 20
136.4424705461237
 30
0.0
 11
301.63544485784348
 21
130.4424705461237
 31
0.0
  0
LINE
  5
40
  8
0
 10
301.63544485784348
 20
126.4424705461239
 30
0.0
 11
299.13544485784348
 21
136.4424705461237
 31
0.0
  0
LINE
  5
41
  8
0
 10
301.63544485784348
 20
126.4424705461239
 30
0.0
 11
282.63544485784348
 21
126.4424705461239
 31
0.0
  0
LINE
  5
42
  8
0
 10
300.63544485784348
 20
136.4424705461237
 30
0.0
 11
283.63544485784348
 21
136.4424705461237
 31
0.0
  0
LINE
  5
43
  8
0
 10
80.657356534068683
 20
140.4424699312755
 30
0.0
 11
78.157356534068683
 21
130.4424705461237
 31
0.0
  0
LINE
  5
44
  8
0
 10
79.157356534068683
 20
140.4424705461237
 30
0.0
 11
79.157356534068683
 21
134.44247030018451
 31
0.0
  0
LINE
  5
45
  8
0
 10
94.657356534068683
 20
140.4424699312755
 30
0.0
 11
97.157356534068683
 21
130.4424705461237
 31
0.0
  0
LINE
  5
46
  8
0
 10
84.857356534069297
 20
140.84247054612339
 30
0.0
 11
90.457356534068055
 21
140.84247054612339
 31
0.0
  0
LINE
  5
47
  8
0
 10
96.157356534068683
 20
140.4424705461237
 30
0.0
 11
79.157356534068683
 21
140.4424705461237
 31
0.0
  0
LINE
  5
48
  8
1
 10
87.657356534068697
 20
152.84247054612331
 30
0.0
 11
87.657356534068697
 21
116.4424705461237
 31
0.0
  0
LINE
  5
49
  8
1
 10
292.13544485784348
 20
152.84247054612331
 30
0.0
 11
292.13544485784348
 21
116.4424705461239
 31
0.0
  0
LINE
  5
4A
  8
1
 10
206.25879776978289
 20
150.4424705461237
 30
0.0
 11
206.25879776978289
 21
126.4424705461237
 31
0.0
  0
LINE
  5
4B
  8
0
 10
78.157356534068683
 20
127.4424705461237
 30
0.0
 11
87.657356534068697
 21
130.4424705461237
 31
0.0
  0
LINE
  5
4C
  8
0
 10
97.157356534068683
 20
127.4424705461237
 30
0.0
 11
87.657356534068697
 21
130.4424705461237
 31
0.0
  0
LINE
  5
4D
  8
0
 10
84.857356534069297
 20
140.4424705461237
 30
0.0
 11
84.857356534069297
 21
142.84247054612339
 31
0.0
  0
LINE
  5
4E
  8
0
 10
84.857356534069297
 20
142.84247054612339
 30
0.0
 11
90.457356534068055
 21
142.84247054612339
 31
0.0
  0
LINE
  5
4F
  8
0
 10
90.457356534068055
 20
142.84247054612339
 30
0.0
 11
90.457356534068055
 21
140.4424705461237
 31
0.0
  0
LINE
  5
50
  8
0
 10
78.157356534068683
 20
123.4424705461237
 30
0.0
 11
78.157356534068683
 21
130.4424705461237
 31
0.0
  0
LINE
  5
51
  8
0
 10
97.157356534068683
 20
123.4424705461237
 30
0.0
 11
97.157356534068683
 21
130.4424705461237
 31
0.0
  0
LINE
  5
52
  8
0
 10
97.157356534068683
 20
130.4424705461237
 30
0.0
 11
78.157356534068683
 21
130.4424705461237
 31
0.0
  0
LINE
  5
53
  8
0
 10
78.157356534068683
 20
123.4424705461237
 30
0.0
 11
87.657356534068697
 21
126.4424705461237
 31
0.0
  0
LINE
  5
54
  8
0
 10
97.157356534068683
 20
123.4424705461237
 30
0.0
 11
87.657356534068697
 21
126.4424705461237
 31
0.0
  0
LINE
  5
55
  8
0
 10
282.63544485784348
 20
123.4424705461237
 30
0.0
 11
292.13544485784348
 21
126.4424705461239
 31
0.0
  0
LINE
  5
56
  8
0
 10
301.63544485784348
 20
123.4424705461237
 30
0.0
 11
292.13544485784348
 21
126.4424705461239
 31
0.0
  0
LINE
  5
57
  8
0
 10
282.63544485784348
 20
123.4424705461237
 30
0.0
 11
282.63544485784348
 21
130.4424705461237
 31
0.0
  0
LINE
  5
58
  8
0
 10
301.63544485784348
 20
123.4424705461237
 30
0.0
 11
301.63544485784348
 21
130.4424705461237
 31
0.0
  0
LINE
  5
59
  8
0
 10
300.63544485784348
 20
140.4424705461237
 30
0.0
 11
283.63544485784348
 21
140.4424705461237
 31
0.0
  0
LINE
  5
5A
  8
0
 10
283.63544485784348
 20
136.4424705461237
 30
0.0
 11
283.63544485784348
 21
140.4424705461237
 31
0.0
  0
LINE
  5
5B
  8
0
 10
195.75879776978289
 20
140.84247054612331
 30
0.0
 11
195.75879776978289
 21
140.4424705461237
 31
0.0
  0
LINE
  5
5C
  8
0
 10
197.25879776978289
 20
140.4424705461237
 30
0.0
 11
197.25879776978289
 21
136.4424705461237
 31
0.0
  0
LINE
  5
5D
  8
0
 10
289.33544485784398
 20
142.84247054612339
 30
0.0
 11
289.33544485784421
 21
140.4424705461237
 31
0.0
  0
LINE
  5
5E
  8
0
 10
294.93544485784281
 20
142.84247054612339
 30
0.0
 11
289.33544485784398
 21
142.84247054612339
 31
0.0
  0
LINE
  5
5F
  8
0
 10
294.93544485784298
 20
140.4424705461237
 30
0.0
 11
294.93544485784281
 21
142.84247054612339
 31
0.0
  0
LINE
  5
60
  8
0
 10
300.63544485784348
 20
136.4424705461237
 30
0.0
 11
300.63544485784348
 21
140.4424705461237
 31
0.0
  0
LINE
  5
61
  8
2
 10
184.25879776978289
 20
126.4424705461237
 30
0.0
 11
161.25879776978289
 21
126.4424705461237
 31
0.0
  0
LINE
  5
62
  8
0
 10
161.25879776978289
 20
127.4424705461237
 30
0.0
 11
184.25879776978289
 21
130.4424705461237
 31
0.0
  0
LINE
  5
63
  8
0
 10
161.25879776978289
 20
123.4424705461237
 30
0.0
 11
184.25879776978289
 21
126.4424705461237
 31
0.0
  0
LINE
  5
64
  8
0
 10
184.25879776978289
 20
130.4424705461237
 30
0.0
 11
184.25879776978289
 21
126.4424705461237
 31
0.0
  0
LINE
  5
65
  8
0
 10
161.25879776978289
 20
130.4424705461237
 30
0.0
 11
185.51714038300881
 21
130.4424705461237
 31
0.0
  0
LINE
  5
66
  8
0
 10
161.25879776978289
 20
123.4424705461237
 30
0.0
 11
161.25879776978289
 21
130.4424705461237
 31
0.0
  0
LINE
  5
67
  8
0
 10
197.75879776978289
 20
142.84247054612339
 30
0.0
 11
195.75879776978289
 21
140.84247054612331
 31
0.0
  0
LINE
  5
68
  8
0
 10
199.75879776978289
 20
142.84247054612339
 30
0.0
 11
197.75879776978289
 21
142.84247054612339
 31
0.0
  0
LINE
  5
69
  8
0
 10
199.75879776978289
 20
140.4424705461237
 30
0.0
 11
199.75879776978289
 21
142.84247054612339
 31
0.0
  0
LINE
  5
6A
  8
0
 10
214.75879776978289
 20
140.4424705461237
 30
0.0
 11
192.25879776978289
 21
140.4424705461237
 31
0.0
  0
LINE
  5
6B
  8
0
 10
186.25879776978289
 20
126.4424705461237
 30
0.0
 11
184.25879776978289
 21
126.4424705461237
 31
0.0
  0
LINE
  5
6C
  8
0
 10
214.75879776978289
 20
136.4424705461237
 30
0.0
 11
193.00045515655691
 21
136.4424705461237
 31
0.0
  0
LINE
  5
6D
  8
0
 10
214.75879776978289
 20
140.4424705461237
 30
0.0
 11
214.75879776978289
 21
136.4424705461237
 31
0.0
  0
LINE
  5
6E
  8
0
 10
186.25879776978289
 20
202.5676308821547
 30
0.0
 11
186.25879776978289
 21
213.56763088215479
 31
0.0
  0
LINE
  5
6F
  8
0
 10
192.25879776978289
 20
202.5676308821547
 30
0.0
 11
192.25879776978289
 21
213.56763088215479
 31
0.0
  0
LINE
  5
70
  8
1
 10
206.25879776978289
 20
226.5676308821547
 30
0.0
 11
206.25879776978289
 21
189.5676308821547
 31
0.0
  0
LINE
  5
71
  8
1
 10
151.25879776978289
 20
208.0676308821547
 30
0.0
 11
224.75879776978289
 21
208.0676308821547
 31
0.0
  0
LINE
  5
72
  8
0
 10
197.75879776978289
 20
210.86763088215409
 30
0.0
 11
197.75879776978289
 21
205.2676308821554
 31
0.0
  0
LINE
  5
73
  8
0
 10
199.75879776978289
 20
205.2676308821554
 30
0.0
 11
199.75879776978289
 21
210.86763088215409
 31
0.0
  0
LINE
  5
74
  8
0
 10
195.75879776978289
 20
205.2676308821554
 30
0.0
 11
199.75879776978289
 21
205.2676308821554
 31
0.0
  0
LINE
  5
75
  8
0
 10
195.75879776978289
 20
210.86763088215409
 30
0.0
 11
195.75879776978289
 21
205.2676308821554
 31
0.0
  0
LINE
  5
76
  8
0
 10
199.75879776978289
 20
210.86763088215409
 30
0.0
 11
195.75879776978289
 21
210.86763088215409
 31
0.0
  0
LINE
  5
77
  8
0
 10
161.25879776978289
 20
208.0676308821547
 30
0.0
 11
181.25879776978289
 21
198.5676308821547
 31
0.0
  0
LINE
  5
78
  8
0
 10
181.25879776978289
 20
217.5676308821547
 30
0.0
 11
161.25879776978289
 21
208.0676308821547
 31
0.0
  0
ARC
  5
79
  8
0
 10
165.25879776978289
 20
202.5676308821547
 30
0.0
 40
4.0
 50
180.0
 51
269.99999999999989
  0
ARC
  5
7A
  8
0
 10
165.25879776978289
 20
213.56763088215479
 30
0.0
 40
4.0
 50
90.0
 51
179.99999999999989
  0
LINE
  5
7B
  8
0
 10
184.25879776978289
 20
217.5676308821547
 30
0.0
 11
197.25879776978289
 21
215.0676308821547
 31
0.0
  0
LINE
  5
7C
  8
0
 10
165.25879776978289
 20
217.5676308821547
 30
0.0
 11
184.25879776978289
 21
217.5676308821547
 31
0.0
  0
LINE
  5
7D
  8
0
 10
161.25879776978289
 20
202.5676308821547
 30
0.0
 11
161.25879776978289
 21
213.56763088215479
 31
0.0
  0
LINE
  5
7E
  8
0
 10
184.25879776978289
 20
198.5676308821547
 30
0.0
 11
165.25879776978289
 21
198.5676308821547
 31
0.0
  0
LINE
  5
7F
  8
0
 10
197.25879776978289
 20
201.0676308821547
 30
0.0
 11
184.25879776978289
 21
198.5676308821547
 31
0.0
  0
ARC
  5
80
  8
0
 10
206.25879776978289
 20
208.0676308821547
 30
0.0
 40
8.5
 50
259.67297928325621
 51
100.3270207167438
  0
LINE
  5
81
  8
0
 10
197.25879776978289
 20
201.0676308821547
 30
0.0
 11
204.73503510492699
 21
199.7053257369694
 31
0.0
  0
LINE
  5
82
  8
0
 10
197.25879776978289
 20
215.0676308821547
 30
0.0
 11
204.73503510492699
 21
216.42993602734001
 31
0.0
  0
LINE
  5
83
  8
0
 10
202.20879776978339
 20
204.01763088215509
 30
0.0
 11
210.30879776978239
 21
204.01763088215509
 31
0.0
  0
LINE
  5
84
  8
0
 10
202.20879776978339
 20
212.1176308821542
 30
0.0
 11
202.20879776978339
 21
204.0176308821552
 31
0.0
  0
LINE
  5
85
  8
0
 10
210.30879776978239
 20
212.1176308821542
 30
0.0
 11
202.20879776978339
 21
212.1176308821542
 31
0.0
  0
LINE
  5
86
  8
0
 10
210.30879776978239
 20
204.01763088215509
 30
0.0
 11
210.30879776978239
 21
212.1176308821542
 31
0.0
  0
LINE
  5
87
  8
0
 10
210.30879776978239
 20
51.213417565466038
 30
0.0
 11
210.30879776978239
 21
59.313417565465151
 31
0.0
  0
LINE
  5
88
  8
0
 10
210.30879776978239
 20
59.313417565465151
 30
0.0
 11
202.20879776978339
 21
59.313417565465151
 31
0.0
  0
LINE
  5
89
  8
0
 10
202.20879776978339
 20
59.313417565465151
 30
0.0
 11
202.20879776978339
 21
51.213417565466152
 31
0.0
  0
LINE
  5
8A
  8
0
 10
202.20879776978339
 20
51.213417565466038
 30
0.0
 11
210.30879776978239
 21
51.213417565466038
 31
0.0
  0
LINE
  5
8B
  8
0
 10
197.25879776978289
 20
62.263417565465652
 30
0.0
 11
204.73503510492699
 21
63.625722710650898
 31
0.0
  0
LINE
  5
8C
  8
0
 10
197.25879776978289
 20
48.263417565465652
 30
0.0
 11
204.73503510492699
 21
46.901112420280413
 31
0.0
  0
ARC
  5
8D
  8
0
 10
206.25879776978289
 20
55.263417565465652
 30
0.0
 40
8.5
 50
259.67297928325621
 51
100.3270207167438
  0
LINE
  5
8E
  8
0
 10
197.25879776978289
 20
48.263417565465652
 30
0.0
 11
184.25879776978289
 21
45.763417565465652
 31
0.0
  0
LINE
  5
8F
  8
0
 10
184.25879776978289
 20
45.763417565465652
 30
0.0
 11
165.25879776978289
 21
45.763417565465652
 31
0.0
  0
LINE
  5
90
  8
0
 10
161.25879776978289
 20
49.763417565465652
 30
0.0
 11
161.25879776978289
 21
60.763417565465652
 31
0.0
  0
LINE
  5
91
  8
0
 10
165.25879776978289
 20
64.763417565465659
 30
0.0
 11
184.25879776978289
 21
64.763417565465659
 31
0.0
  0
LINE
  5
92
  8
0
 10
184.25879776978289
 20
64.763417565465659
 30
0.0
 11
197.25879776978289
 21
62.263417565465652
 31
0.0
  0
ARC
  5
93
  8
0
 10
165.25879776978289
 20
60.763417565465652
 30
0.0
 40
4.0
 50
90.0
 51
179.99999999999989
  0
ARC
  5
94
  8
0
 10
165.25879776978289
 20
49.763417565465652
 30
0.0
 40
4.0
 50
180.0
 51
269.99999999999989
  0
LINE
  5
95
  8
0
 10
181.25879776978289
 20
64.763417565465659
 30
0.0
 11
161.25879776978289
 21
55.263417565465652
 31
0.0
  0
LINE
  5
96
  8
0
 10
161.25879776978289
 20
55.263417565465652
 30
0.0
 11
181.25879776978289
 21
45.763417565465652
 31
0.0
  0
LINE
  5
97
  8
0
 10
199.75879776978289
 20
58.063417565465038
 30
0.0
 11
195.75879776978289
 21
58.063417565465038
 31
0.0
  0
LINE
  5
98
  8
0
 10
195.75879776978289
 20
58.063417565465038
 30
0.0
 11
195.75879776978289
 21
52.463417565466273
 31
0.0
  0
LINE
  5
99
  8
0
 10
195.75879776978289
 20
52.463417565466273
 30
0.0
 11
199.75879776978289
 21
52.463417565466273
 31
0.0
  0
LINE
  5
9A
  8
0
 10
199.75879776978289
 20
52.463417565466273
 30
0.0
 11
199.75879776978289
 21
58.063417565465038
 31
0.0
  0
LINE
  5
9B
  8
1
 10
151.25879776978289
 20
55.263417565465652
 30
0.0
 11
224.75879776978289
 21
55.263417565465652
 31
0.0
  0
LINE
  5
9C
  8
1
 10
206.25879776978289
 20
73.763417565465645
 30
0.0
 11
206.25879776978289
 21
36.763417565465652
 31
0.0
  0
LINE
  5
9D
  8
0
 10
192.25879776978289
 20
49.763417565465652
 30
0.0
 11
192.25879776978289
 21
60.763417565465652
 31
0.0
  0
LINE
  5
9E
  8
0
 10
186.25879776978289
 20
49.763417565465652
 30
0.0
 11
186.25879776978289
 21
60.763417565465652
 31
0.0
  0
TEXT
  5
1F2
  8
0
 62
     3
 10
0.0
 20
0.0
 30
0.0
 40
10.0
  1
SGC4528
  7
STANDARD1
  0
ENDSEC
  0
EOF
