  0
SECTION
  2
HEADER
  9
$ACADVER
  1
AC1009
  9
$INSBASE
 10
0.0
 20
0.0
 30
0.0
  9
$EXTMIN
 10
0.0
 20
-2.960436562073669
 30
0.0
  9
$EXTMAX
 10
306.69766508882748
 20
225.6704106235143
 30
0.0
  9
$LIMMIN
 10
0.0
 20
0.0
  9
$LIMMAX
 10
375.0
 20
270.0
  9
$ORTHOMODE
 70
     1
  9
$REGENMODE
 70
     1
  9
$FILLMODE
 70
     1
  9
$QTEXTMODE
 70
     0
  9
$MIRRTEXT
 70
     0
  9
$DRAGMODE
 70
     2
  9
$LTSCALE
 40
10.0
  9
$OSMODE
 70
    55
  9
$ATTMODE
 70
     1
  9
$TEXTSIZE
 40
0.2
  9
$TRACEWID
 40
0.05
  9
$TEXTSTYLE
  7
STANDARD
  9
$CLAYER
  8
0
  9
$CELTYPE
  6
BYLAYER
  9
$CECOLOR
 62
   256
  9
$DIMSCALE
 40
1.0
  9
$DIMASZ
 40
3.0
  9
$DIMEXO
 40
2.0
  9
$DIMDLI
 40
0.38
  9
$DIMRND
 40
0.0
  9
$DIMDLE
 40
0.0
  9
$DIMEXE
 40
2.0
  9
$DIMTP
 40
0.0
  9
$DIMTM
 40
0.0
  9
$DIMTXT
 40
3.2000000000000002
  9
$DIMCEN
 40
0.0
  9
$DIMTSZ
 40
0.0
  9
$DIMTOL
 70
     0
  9
$DIMLIM
 70
     0
  9
$DIMTIH
 70
     0
  9
$DIMTOH
 70
     0
  9
$DIMSE1
 70
     0
  9
$DIMSE2
 70
     0
  9
$DIMTAD
 70
     1
  9
$DIMZIN
 70
     0
  9
$DIMBLK
  1

  9
$DIMASO
 70
     1
  9
$DIMSHO
 70
     0
  9
$DIMPOST
  1

  9
$DIMAPOST
  1

  9
$DIMALT
 70
     0
  9
$DIMALTD
 70
     2
  9
$DIMALTF
 40
25.399999999999999
  9
$DIMLFAC
 40
1.0
  9
$DIMTOFL
 70
     1
  9
$DIMTVP
 40
1.6000000000000001
  9
$DIMTIX
 70
     1
  9
$DIMSOXD
 70
     0
  9
$DIMSAH
 70
     0
  9
$DIMBLK1
  1

  9
$DIMBLK2
  1

  9
$DIMSTYLE
  2
STANDARD
  9
$DIMCLRD
 70
     0
  9
$DIMCLRE
 70
     0
  9
$DIMCLRT
 70
     0
  9
$DIMTFAC
 40
1.0
  9
$DIMGAP
 40
0.09
  9
$LUNITS
 70
     2
  9
$LUPREC
 70
     4
  9
$SKETCHINC
 40
0.1
  9
$FILLETRAD
 40
0.0
  9
$AUNITS
 70
     0
  9
$AUPREC
 70
     4
  9
$MENU
  1
E:\r13\win\SUPPORT\ACAD
  9
$ELEVATION
 40
0.0
  9
$PELEVATION
 40
0.0
  9
$THICKNESS
 40
0.0
  9
$LIMCHECK
 70
     0
  9
$BLIPMODE
 70
     0
  9
$CHAMFERA
 40
0.0
  9
$CHAMFERB
 40
0.0
  9
$SKPOLY
 70
     0
  9
$TDCREATE
 40
2449839.7955555562
  9
$TDUPDATE
 40
2456598.4972325689
  9
$TDINDWG
 40
0.0001596528
  9
$TDUSRTIMER
 40
0.0001596528
  9
$USRTIMER
 70
     1
  9
$ANGBASE
 50
0.0
  9
$ANGDIR
 70
     0
  9
$PDMODE
 70
     0
  9
$PDSIZE
 40
0.0
  9
$PLINEWID
 40
0.0
  9
$COORDS
 70
     1
  9
$SPLFRAME
 70
     0
  9
$SPLINETYPE
 70
     6
  9
$SPLINESEGS
 70
     8
  9
$ATTDIA
 70
     0
  9
$ATTREQ
 70
     1
  9
$HANDLING
 70
     1
  9
$HANDSEED
  5
26E
  9
$SURFTAB1
 70
     6
  9
$SURFTAB2
 70
     6
  9
$SURFTYPE
 70
     6
  9
$SURFU
 70
     6
  9
$SURFV
 70
     6
  9
$UCSNAME
  2

  9
$UCSORG
 10
0.0
 20
0.0
 30
0.0
  9
$UCSXDIR
 10
1.0
 20
0.0
 30
0.0
  9
$UCSYDIR
 10
0.0
 20
1.0
 30
0.0
  9
$PUCSNAME
  2

  9
$PUCSORG
 10
0.0
 20
0.0
 30
0.0
  9
$PUCSXDIR
 10
1.0
 20
0.0
 30
0.0
  9
$PUCSYDIR
 10
0.0
 20
1.0
 30
0.0
  9
$USERI1
 70
     0
  9
$USERI2
 70
     1
  9
$USERI3
 70
     1
  9
$USERI4
 70
     0
  9
$USERI5
 70
     0
  9
$USERR1
 40
0.0
  9
$USERR2
 40
0.0
  9
$USERR3
 40
0.0
  9
$USERR4
 40
0.0
  9
$USERR5
 40
0.0
  9
$WORLDVIEW
 70
     1
  9
$SHADEDGE
 70
     3
  9
$SHADEDIF
 70
    70
  9
$TILEMODE
 70
     1
  9
$MAXACTVP
 70
    16
  9
$PLIMCHECK
 70
     0
  9
$PEXTMIN
 10
1.0000000000000000E+020
 20
1.0000000000000000E+020
 30
1.0000000000000000E+020
  9
$PEXTMAX
 10
-1.0000000000000000E+020
 20
-1.0000000000000000E+020
 30
-1.0000000000000000E+020
  9
$PLIMMIN
 10
0.0
 20
0.0
  9
$PLIMMAX
 10
12.0
 20
9.0
  9
$UNITMODE
 70
     0
  9
$VISRETAIN
 70
     0
  9
$PLINEGEN
 70
     0
  9
$PSLTSCALE
 70
     0
  0
ENDSEC
  0
SECTION
  2
TABLES
  0
TABLE
  2
VPORT
 70
     1
  0
VPORT
  2
*ACTIVE
 70
     0
 10
0.0
 20
0.0
 11
1.0
 21
1.0
 12
187.49427839065231
 22
174.91677254346851
 13
0.0
 23
0.0
 14
10.0
 24
10.0
 15
10.0
 25
10.0
 16
0.0
 26
0.0
 36
1.0
 17
0.0
 27
0.0
 37
0.0
 40
358.92027899574339
 41
1.7807262569832401
 42
50.0
 43
0.0
 44
0.0
 50
0.0
 51
0.0
 71
     0
 72
   500
 73
     1
 74
     0
 75
     0
 76
     0
 77
     0
 78
     2
  0
ENDTAB
  0
TABLE
  2
LTYPE
 70
     4
  0
LTYPE
  2
CONTINUOUS
 70
     0
  3
Solid Line
 72
    65
 73
     0
 40
0.0
  0
LTYPE
  2
CENTER
 70
     0
  3
____ _ ____ _ ____ _ ____ _ ____ _ ____ _ ____
 72
    65
 73
     4
 40
2.0
 49
1.25
 49
-0.25
 49
0.25
 49
-0.25
  0
LTYPE
  2
HIDDEN
 70
     0
  3
_ _ _ _ _ _ _ _ _ _ _ _ _ _ _ _ _ _ _ _ _ _ _
 72
    65
 73
     2
 40
0.375
 49
0.25
 49
-0.125
  0
LTYPE
  2
PHANTOM2
 70
     0
  3
___ _ _ ___ _ _ ___ _ _ ___ _ _
 72
    65
 73
     6
 40
1.25
 49
0.625
 49
-0.125
 49
0.125
 49
-0.125
 49
0.125
 49
-0.125
  0
ENDTAB
  0
TABLE
  2
LAYER
 70
     3
  0
LAYER
  2
0
 70
     0
 62
     7
  6
CONTINUOUS
  0
LAYER
  2
1
 70
     0
 62
     1
  6
CENTER
  0
LAYER
  2
2
 70
     0
 62
     2
  6
HIDDEN
  0
ENDTAB
  0
TABLE
  2
STYLE
 70
     2
  0
STYLE
  2
STANDARD
 70
     0
 40
0.0
 41
1.0
 50
0.0
 71
     0
 42
0.2
  3
TXT
  4
BIGFONT
  0
STYLE
  2
STANDARD1
 70
     0
 40
0.0
 41
1.0
 50
0.0
 71
     0
 42
3.0
  3
txt
  4

  0
ENDTAB
  0
TABLE
  2
VIEW
 70
     1
  0
VIEW
  2
ALL
 70
     0
 40
270.0
 10
220.99159663865549
 20
135.0
 41
0.0
 11
0.0
 21
0.0
 31
1.0
 12
0.0
 22
0.0
 32
0.0
 42
0.0
 43
0.0
 44
0.0
 50
0.0
 71
     0
  0
ENDTAB
  0
TABLE
  2
UCS
 70
     0
  0
ENDTAB
  0
TABLE
  2
APPID
 70
     3
  0
APPID
  2
ACAD
 70
     0
  0
APPID
  2
ACAD_MLEADERVER
 70
     0
  0
APPID
  2
ACAD_NAV_VCDISPLAY
 70
     0
  0
ENDTAB
  0
TABLE
  2
DIMSTYLE
 70
     1
  0
DIMSTYLE
  2
STANDARD
 70
     0
  3

  4

  5

  6

  7

 40
1.0
 41
0.18
 42
0.0625
 43
0.38
 44
0.18
 45
0.0
 46
0.0
 47
0.0
 48
0.0
140
0.18
141
0.09
142
0.0
143
25.399999999999999
144
1.0
145
0.0
146
1.0
147
0.09
 71
     0
 72
     0
 73
     1
 74
     1
 75
     0
 76
     0
 77
     0
 78
     0
170
     0
171
     2
172
     0
173
     0
174
     0
175
     0
176
     0
177
     0
178
     0
  0
ENDTAB
  0
ENDSEC
  0
SECTION
  2
BLOCKS
  0
BLOCK
  8
0
  2
$MODEL_SPACE
 70
     0
 10
0.0
 20
0.0
 30
0.0
  3
$MODEL_SPACE
  1

  0
ENDBLK
  5
EF
  8
0
  0
BLOCK
 67
     1
  8
0
  2
$PAPER_SPACE
 70
     0
 10
0.0
 20
0.0
 30
0.0
  3
$PAPER_SPACE
  1

  0
ENDBLK
  5
ED
 67
     1
  8
0
  0
ENDSEC
  0
SECTION
  2
ENTITIES
  0
LINE
  5
35
  8
0
 10
69.038481019668552
 20
128.5940236010768
 30
0.0
 11
74.638481019667324
 21
128.5940236010768
 31
0.0
  0
LINE
  5
36
  8
1
 10
71.838481019667825
 20
140.5940236010768
 30
0.0
 11
71.838481019667825
 21
114.19402360107711
 31
0.0
  0
LINE
  5
37
  8
1
 10
297.19766508882748
 20
140.5940236010768
 30
0.0
 11
297.19766508882748
 21
114.19402360107711
 31
0.0
  0
LINE
  5
38
  8
1
 10
195.43088183276731
 20
138.19402360107699
 30
0.0
 11
195.43088183276731
 21
114.19402360107711
 31
0.0
  0
LINE
  5
39
  8
0
 10
62.338481019667817
 20
125.19402360107701
 30
0.0
 11
71.838481019667825
 21
128.19402360107699
 31
0.0
  0
LINE
  5
3A
  8
0
 10
81.338481019667825
 20
125.19402360107701
 30
0.0
 11
71.838481019667825
 21
128.19402360107699
 31
0.0
  0
LINE
  5
3B
  8
0
 10
69.038481019668552
 20
128.19402360107711
 30
0.0
 11
69.038481019668552
 21
130.5940236010768
 31
0.0
  0
LINE
  5
3C
  8
0
 10
69.038481019668552
 20
130.5940236010768
 30
0.0
 11
74.638481019667097
 21
130.5940236010768
 31
0.0
  0
LINE
  5
3D
  8
0
 10
74.638481019667097
 20
130.5940236010768
 30
0.0
 11
74.638481019667097
 21
128.19402360107699
 31
0.0
  0
LINE
  5
3E
  8
0
 10
62.338481019667817
 20
121.19402360107721
 30
0.0
 11
62.338481019667817
 21
128.19402360107699
 31
0.0
  0
LINE
  5
3F
  8
0
 10
81.338481019667825
 20
121.19402360107721
 30
0.0
 11
81.338481019667825
 21
128.19402360107699
 31
0.0
  0
LINE
  5
40
  8
0
 10
81.338481019667825
 20
128.19402360107699
 30
0.0
 11
62.338481019667817
 21
128.19402360107711
 31
0.0
  0
LINE
  5
41
  8
0
 10
62.338481019667817
 20
121.19402360107701
 30
0.0
 11
71.838481019667825
 21
124.19402360107701
 31
0.0
  0
LINE
  5
42
  8
0
 10
81.338481019667825
 20
121.19402360107701
 30
0.0
 11
71.838481019667825
 21
124.19402360107701
 31
0.0
  0
LINE
  5
43
  8
0
 10
287.69766508882748
 20
121.19402360107701
 30
0.0
 11
297.19766508882748
 21
124.19402360107701
 31
0.0
  0
LINE
  5
44
  8
0
 10
306.69766508882748
 20
121.19402360107701
 30
0.0
 11
297.19766508882748
 21
124.19402360107701
 31
0.0
  0
LINE
  5
45
  8
0
 10
287.69766508882748
 20
121.19402360107721
 30
0.0
 11
287.69766508882748
 21
128.19402360107699
 31
0.0
  0
LINE
  5
46
  8
0
 10
306.69766508882748
 20
121.19402360107721
 30
0.0
 11
306.69766508882748
 21
128.19402360107699
 31
0.0
  0
LINE
  5
47
  8
0
 10
306.69766508882748
 20
128.19402360107699
 30
0.0
 11
287.69766508882748
 21
128.19402360107699
 31
0.0
  0
LINE
  5
48
  8
0
 10
306.69766508882748
 20
124.19402360107701
 30
0.0
 11
287.69766508882748
 21
124.19402360107701
 31
0.0
  0
LINE
  5
49
  8
0
 10
288.69766508882748
 20
124.19402360107701
 30
0.0
 11
288.69766508882748
 21
128.19402360107699
 31
0.0
  0
LINE
  5
4A
  8
0
 10
184.93088183276731
 20
128.5940236010768
 30
0.0
 11
184.93088183276731
 21
128.19402360107699
 31
0.0
  0
LINE
  5
4B
  8
0
 10
186.43088183276731
 20
128.19402360107699
 30
0.0
 11
186.43088183276731
 21
124.19402360107701
 31
0.0
  0
LINE
  5
4C
  8
0
 10
294.39766508882821
 20
130.5940236010768
 30
0.0
 11
294.39766508882821
 21
128.19402360107699
 31
0.0
  0
LINE
  5
4D
  8
0
 10
299.99766508882669
 20
130.5940236010768
 30
0.0
 11
294.39766508882821
 21
130.5940236010768
 31
0.0
  0
LINE
  5
4E
  8
0
 10
299.99766508882669
 20
128.19402360107699
 30
0.0
 11
299.99766508882669
 21
130.5940236010768
 31
0.0
  0
LINE
  5
4F
  8
0
 10
305.69766508882748
 20
124.19402360107701
 30
0.0
 11
305.69766508882748
 21
128.19402360107699
 31
0.0
  0
LINE
  5
50
  8
2
 10
170.43088183276731
 20
124.19402360107701
 30
0.0
 11
160.4308818327672
 21
124.19402360107701
 31
0.0
  0
LINE
  5
51
  8
0
 10
160.4308818327672
 20
125.19402360107721
 30
0.0
 11
170.43088183276731
 21
128.19402360107699
 31
0.0
  0
LINE
  5
52
  8
0
 10
160.4308818327672
 20
121.19402360107721
 30
0.0
 11
170.43088183276731
 21
124.19402360107701
 31
0.0
  0
LINE
  5
53
  8
0
 10
179.43088183276731
 20
128.19402360107699
 30
0.0
 11
179.43088183276731
 21
124.19402360107721
 31
0.0
  0
LINE
  5
54
  8
0
 10
160.4308818327672
 20
128.19402360107699
 30
0.0
 11
203.93088183276731
 21
128.19402360107699
 31
0.0
  0
LINE
  5
55
  8
0
 10
160.4308818327672
 20
121.19402360107721
 30
0.0
 11
160.4308818327672
 21
128.19402360107699
 31
0.0
  0
LINE
  5
56
  8
0
 10
186.93088183276731
 20
130.5940236010768
 30
0.0
 11
184.93088183276731
 21
128.5940236010768
 31
0.0
  0
LINE
  5
57
  8
0
 10
188.93088183276731
 20
130.5940236010768
 30
0.0
 11
186.93088183276731
 21
130.5940236010768
 31
0.0
  0
LINE
  5
58
  8
0
 10
188.93088183276731
 20
128.19402360107699
 30
0.0
 11
188.93088183276731
 21
130.5940236010768
 31
0.0
  0
LINE
  5
59
  8
0
 10
203.93088183276731
 20
124.19402360107701
 30
0.0
 11
170.43088183276731
 21
124.19402360107701
 31
0.0
  0
LINE
  5
5A
  8
0
 10
203.93088183276731
 20
128.19402360107699
 30
0.0
 11
203.93088183276731
 21
124.19402360107701
 31
0.0
  0
LINE
  5
5B
  8
1
 10
195.43088183276731
 20
225.6704106235143
 30
0.0
 11
195.43088183276731
 21
188.6704106235143
 31
0.0
  0
LINE
  5
5C
  8
1
 10
150.43088183276731
 20
207.1704106235143
 30
0.0
 11
213.93088183276731
 21
207.1704106235143
 31
0.0
  0
LINE
  5
5D
  8
0
 10
186.93088183276731
 20
209.9704106235138
 30
0.0
 11
186.93088183276731
 21
204.370410623515
 31
0.0
  0
LINE
  5
5E
  8
0
 10
188.93088183276731
 20
204.370410623515
 30
0.0
 11
188.93088183276731
 21
209.9704106235138
 31
0.0
  0
LINE
  5
5F
  8
0
 10
184.93088183276731
 20
204.370410623515
 30
0.0
 11
188.93088183276731
 21
204.370410623515
 31
0.0
  0
LINE
  5
60
  8
0
 10
184.93088183276731
 20
209.9704106235138
 30
0.0
 11
184.93088183276731
 21
204.370410623515
 31
0.0
  0
LINE
  5
61
  8
0
 10
188.93088183276731
 20
209.9704106235138
 30
0.0
 11
184.93088183276731
 21
209.9704106235138
 31
0.0
  0
LINE
  5
62
  8
0
 10
160.4308818327672
 20
207.1704106235143
 30
0.0
 11
170.43088183276731
 21
197.6704106235143
 31
0.0
  0
LINE
  5
63
  8
0
 10
170.43088183276731
 20
216.6704106235143
 30
0.0
 11
160.4308818327672
 21
207.1704106235143
 31
0.0
  0
ARC
  5
64
  8
0
 10
164.43088183276731
 20
201.6704106235143
 30
0.0
 40
4.0
 50
180.0
 51
269.99999999999989
  0
ARC
  5
65
  8
0
 10
164.43088183276731
 20
212.6704106235143
 30
0.0
 40
4.0
 50
90.0
 51
179.99999999999989
  0
LINE
  5
66
  8
0
 10
179.43088183276731
 20
216.6704106235143
 30
0.0
 11
186.43088183276731
 21
214.1704106235143
 31
0.0
  0
LINE
  5
67
  8
0
 10
164.43088183276731
 20
216.6704106235143
 30
0.0
 11
179.43088183276731
 21
216.6704106235143
 31
0.0
  0
LINE
  5
68
  8
0
 10
160.4308818327672
 20
201.6704106235143
 30
0.0
 11
160.4308818327672
 21
212.6704106235143
 31
0.0
  0
LINE
  5
69
  8
0
 10
179.43088183276731
 20
197.6704106235143
 30
0.0
 11
164.43088183276731
 21
197.6704106235143
 31
0.0
  0
LINE
  5
6A
  8
0
 10
186.43088183276731
 20
200.1704106235143
 30
0.0
 11
179.43088183276731
 21
197.6704106235143
 31
0.0
  0
ARC
  5
6B
  8
0
 10
195.43088183276731
 20
207.1704106235143
 30
0.0
 40
8.5
 50
259.67297928325621
 51
100.3270207167438
  0
LINE
  5
6C
  8
0
 10
186.43088183276731
 20
200.1704106235143
 30
0.0
 11
193.90711916791139
 21
198.80810547832911
 31
0.0
  0
LINE
  5
6D
  8
0
 10
186.43088183276731
 20
214.1704106235143
 30
0.0
 11
193.90711916791139
 21
215.5327157686996
 31
0.0
  0
LINE
  5
6E
  8
0
 10
191.38088183276781
 20
203.1204106235148
 30
0.0
 11
199.48088183276681
 21
203.1204106235148
 31
0.0
  0
LINE
  5
6F
  8
0
 10
191.38088183276781
 20
211.22041062351391
 30
0.0
 11
191.38088183276781
 21
203.1204106235148
 31
0.0
  0
LINE
  5
70
  8
0
 10
199.48088183276681
 20
211.22041062351391
 30
0.0
 11
191.38088183276781
 21
211.22041062351391
 31
0.0
  0
LINE
  5
71
  8
0
 10
199.48088183276681
 20
203.1204106235148
 30
0.0
 11
199.48088183276681
 21
211.22041062351391
 31
0.0
  0
LINE
  5
72
  8
0
 10
199.48088183276681
 20
45.31356876417253
 30
0.0
 11
199.48088183276681
 21
53.413568764171643
 31
0.0
  0
LINE
  5
73
  8
0
 10
199.48088183276681
 20
53.413568764171643
 30
0.0
 11
191.38088183276781
 21
53.413568764171643
 31
0.0
  0
LINE
  5
74
  8
0
 10
191.38088183276781
 20
53.413568764171643
 30
0.0
 11
191.38088183276781
 21
45.31356876417253
 31
0.0
  0
LINE
  5
75
  8
0
 10
191.38088183276781
 20
45.31356876417253
 30
0.0
 11
199.48088183276681
 21
45.31356876417253
 31
0.0
  0
LINE
  5
76
  8
0
 10
186.43088183276731
 20
56.363568764172022
 30
0.0
 11
193.90711916791139
 21
57.725873909357269
 31
0.0
  0
LINE
  5
77
  8
0
 10
186.43088183276731
 20
42.36356876417203
 30
0.0
 11
193.90711916791139
 21
41.001263618986897
 31
0.0
  0
ARC
  5
78
  8
0
 10
195.43088183276731
 20
49.36356876417203
 30
0.0
 40
8.5
 50
259.67297928325621
 51
100.3270207167438
  0
LINE
  5
79
  8
0
 10
186.43088183276731
 20
42.36356876417203
 30
0.0
 11
179.43088183276731
 21
39.86356876417203
 31
0.0
  0
LINE
  5
7A
  8
0
 10
179.43088183276731
 20
39.86356876417203
 30
0.0
 11
164.43088183276731
 21
39.86356876417203
 31
0.0
  0
LINE
  5
7B
  8
0
 10
160.4308818327672
 20
43.863568764172022
 30
0.0
 11
160.4308818327672
 21
54.86356876417203
 31
0.0
  0
LINE
  5
7C
  8
0
 10
164.43088183276731
 20
58.863568764172022
 30
0.0
 11
179.43088183276731
 21
58.863568764172022
 31
0.0
  0
LINE
  5
7D
  8
0
 10
179.43088183276731
 20
58.863568764172022
 30
0.0
 11
186.43088183276731
 21
56.363568764172022
 31
0.0
  0
ARC
  5
7E
  8
0
 10
164.43088183276731
 20
54.86356876417203
 30
0.0
 40
4.0
 50
90.0
 51
179.99999999999989
  0
ARC
  5
7F
  8
0
 10
164.43088183276731
 20
43.863568764172022
 30
0.0
 40
4.0
 50
180.0
 51
269.99999999999989
  0
LINE
  5
80
  8
0
 10
170.43088183276731
 20
58.863568764172022
 30
0.0
 11
160.4308818327672
 21
49.36356876417203
 31
0.0
  0
LINE
  5
81
  8
0
 10
160.4308818327672
 20
49.36356876417203
 30
0.0
 11
170.43088183276731
 21
39.86356876417203
 31
0.0
  0
LINE
  5
82
  8
0
 10
188.93088183276731
 20
52.163568764171529
 30
0.0
 11
184.93088183276731
 21
52.163568764171529
 31
0.0
  0
LINE
  5
83
  8
0
 10
184.93088183276731
 20
52.163568764171529
 30
0.0
 11
184.93088183276731
 21
46.563568764172757
 31
0.0
  0
LINE
  5
84
  8
0
 10
184.93088183276731
 20
46.563568764172757
 30
0.0
 11
188.93088183276731
 21
46.563568764172757
 31
0.0
  0
LINE
  5
85
  8
0
 10
188.93088183276731
 20
46.563568764172757
 30
0.0
 11
188.93088183276731
 21
52.163568764171529
 31
0.0
  0
LINE
  5
86
  8
1
 10
150.43088183276731
 20
49.36356876417203
 30
0.0
 11
213.93088183276731
 21
49.36356876417203
 31
0.0
  0
LINE
  5
87
  8
1
 10
195.43088183276731
 20
67.86356876417203
 30
0.0
 11
195.43088183276731
 21
30.86356876417203
 31
0.0
  0
TEXT
  5
1D9
  8
0
 62
     3
 10
0.0
 20
0.0
 30
0.0
 40
10.0
  1
SGC3518
  7
STANDARD1
  0
ENDSEC
  0
EOF
