  0
SECTION
  2
HEADER
  9
$ACADVER
  1
AC1009
  9
$INSBASE
 10
0.0
 20
0.0
 30
0.0
  9
$EXTMIN
 10
0.0
 20
-2.960436562073669
 30
0.0
  9
$EXTMAX
 10
224.91457962395
 20
182.48723031046089
 30
0.0
  9
$LIMMIN
 10
0.0
 20
0.0
  9
$LIMMAX
 10
187.5
 20
135.0
  9
$ORTHOMODE
 70
     1
  9
$REGENMODE
 70
     1
  9
$FILLMODE
 70
     1
  9
$QTEXTMODE
 70
     0
  9
$MIRRTEXT
 70
     0
  9
$DRAGMODE
 70
     2
  9
$LTSCALE
 40
5.0
  9
$OSMODE
 70
    37
  9
$ATTMODE
 70
     1
  9
$TEXTSIZE
 40
2.5
  9
$TRACEWID
 40
0.05
  9
$TEXTSTYLE
  7
STANDARD
  9
$CLAYER
  8
0
  9
$CELTYPE
  6
BYLAYER
  9
$CECOLOR
 62
   256
  9
$DIMSCALE
 40
0.5
  9
$DIMASZ
 40
3.0
  9
$DIMEXO
 40
2.0
  9
$DIMDLI
 40
10.0
  9
$DIMRND
 40
0.0
  9
$DIMDLE
 40
0.0
  9
$DIMEXE
 40
2.0
  9
$DIMTP
 40
0.0
  9
$DIMTM
 40
0.0
  9
$DIMTXT
 40
3.0
  9
$DIMCEN
 40
0.09
  9
$DIMTSZ
 40
0.0
  9
$DIMTOL
 70
     0
  9
$DIMLIM
 70
     0
  9
$DIMTIH
 70
     0
  9
$DIMTOH
 70
     0
  9
$DIMSE1
 70
     0
  9
$DIMSE2
 70
     0
  9
$DIMTAD
 70
     1
  9
$DIMZIN
 70
     8
  9
$DIMBLK
  1

  9
$DIMASO
 70
     0
  9
$DIMSHO
 70
     0
  9
$DIMPOST
  1

  9
$DIMAPOST
  1

  9
$DIMALT
 70
     0
  9
$DIMALTD
 70
     2
  9
$DIMALTF
 40
25.399999999999999
  9
$DIMLFAC
 40
1.0
  9
$DIMTOFL
 70
     1
  9
$DIMTVP
 40
1.6000000000000001
  9
$DIMTIX
 70
     1
  9
$DIMSOXD
 70
     0
  9
$DIMSAH
 70
     0
  9
$DIMBLK1
  1

  9
$DIMBLK2
  1

  9
$DIMSTYLE
  2
STANDARD
  9
$DIMCLRD
 70
     0
  9
$DIMCLRE
 70
     0
  9
$DIMCLRT
 70
     0
  9
$DIMTFAC
 40
1.0
  9
$DIMGAP
 40
0.09
  9
$LUNITS
 70
     2
  9
$LUPREC
 70
     1
  9
$SKETCHINC
 40
0.1
  9
$FILLETRAD
 40
0.0
  9
$AUNITS
 70
     0
  9
$AUPREC
 70
     1
  9
$MENU
  1
E:\r13\win\SUPPORT\ACAD
  9
$ELEVATION
 40
0.0
  9
$PELEVATION
 40
0.0
  9
$THICKNESS
 40
0.0
  9
$LIMCHECK
 70
     0
  9
$BLIPMODE
 70
     0
  9
$CHAMFERA
 40
3.2000000000000002
  9
$CHAMFERB
 40
3.2000000000000002
  9
$SKPOLY
 70
     0
  9
$TDCREATE
 40
2449840.5944097228
  9
$TDUPDATE
 40
2459429.5744072339
  9
$TDINDWG
 40
0.3766016204
  9
$TDUSRTIMER
 40
0.3766016204
  9
$USRTIMER
 70
     1
  9
$ANGBASE
 50
0.0
  9
$ANGDIR
 70
     0
  9
$PDMODE
 70
     0
  9
$PDSIZE
 40
0.0
  9
$PLINEWID
 40
0.0
  9
$COORDS
 70
     1
  9
$SPLFRAME
 70
     0
  9
$SPLINETYPE
 70
     6
  9
$SPLINESEGS
 70
     8
  9
$ATTDIA
 70
     0
  9
$ATTREQ
 70
     1
  9
$HANDLING
 70
     1
  9
$HANDSEED
  5
47A7
  9
$SURFTAB1
 70
     6
  9
$SURFTAB2
 70
     6
  9
$SURFTYPE
 70
     6
  9
$SURFU
 70
     6
  9
$SURFV
 70
     6
  9
$UCSNAME
  2

  9
$UCSORG
 10
0.0
 20
0.0
 30
0.0
  9
$UCSXDIR
 10
1.0
 20
0.0
 30
0.0
  9
$UCSYDIR
 10
0.0
 20
1.0
 30
0.0
  9
$PUCSNAME
  2

  9
$PUCSORG
 10
0.0
 20
0.0
 30
0.0
  9
$PUCSXDIR
 10
1.0
 20
0.0
 30
0.0
  9
$PUCSYDIR
 10
0.0
 20
1.0
 30
0.0
  9
$USERI1
 70
     0
  9
$USERI2
 70
     1
  9
$USERI3
 70
     1
  9
$USERI4
 70
     0
  9
$USERI5
 70
     0
  9
$USERR1
 40
0.0
  9
$USERR2
 40
0.0
  9
$USERR3
 40
0.0
  9
$USERR4
 40
0.0
  9
$USERR5
 40
0.0
  9
$WORLDVIEW
 70
     1
  9
$SHADEDGE
 70
     3
  9
$SHADEDIF
 70
    70
  9
$TILEMODE
 70
     1
  9
$MAXACTVP
 70
    16
  9
$PLIMCHECK
 70
     0
  9
$PEXTMIN
 10
1.0000000000000000E+020
 20
1.0000000000000000E+020
 30
1.0000000000000000E+020
  9
$PEXTMAX
 10
-1.0000000000000000E+020
 20
-1.0000000000000000E+020
 30
-1.0000000000000000E+020
  9
$PLIMMIN
 10
0.0
 20
0.0
  9
$PLIMMAX
 10
12.0
 20
9.0
  9
$UNITMODE
 70
     0
  9
$VISRETAIN
 70
     0
  9
$PLINEGEN
 70
     0
  9
$PSLTSCALE
 70
     0
  0
ENDSEC
  0
SECTION
  2
TABLES
  0
TABLE
  2
VPORT
 70
     1
  0
VPORT
  2
*ACTIVE
 70
     0
 10
0.0
 20
0.0
 11
1.0
 21
1.0
 12
203.77681874035781
 22
89.761227009027095
 13
0.0
 23
0.0
 14
5.0
 24
5.0
 15
5.0
 25
5.0
 16
0.0
 26
0.0
 36
1.0
 17
0.0
 27
0.0
 37
0.0
 40
187.077657464308
 41
2.3805970149253728
 42
50.0
 43
0.0
 44
0.0
 50
0.0
 51
0.0
 71
     0
 72
   100
 73
     1
 74
     0
 75
     0
 76
     0
 77
     0
 78
     0
  0
ENDTAB
  0
TABLE
  2
LTYPE
 70
     4
  0
LTYPE
  2
CONTINUOUS
 70
     0
  3
Solid Line
 72
    65
 73
     0
 40
0.0
  0
LTYPE
  2
CENTER
 70
     0
  3
____ _ ____ _ ____ _ ____ _ ____ _ ____ _ ____
 72
    65
 73
     4
 40
2.0
 49
1.25
 49
-0.25
 49
0.25
 49
-0.25
  0
LTYPE
  2
HIDDEN
 70
     0
  3
_ _ _ _ _ _ _ _ _ _ _ _ _ _ _ _ _ _ _ _ _ _ _
 72
    65
 73
     2
 40
0.375
 49
0.25
 49
-0.125
  0
LTYPE
  2
PHANTOM2
 70
     0
  3
___ _ _ ___ _ _ ___ _ _ ___ _ _
 72
    65
 73
     6
 40
1.25
 49
0.625
 49
-0.125
 49
0.125
 49
-0.125
 49
0.125
 49
-0.125
  0
ENDTAB
  0
TABLE
  2
LAYER
 70
     4
  0
LAYER
  2
0
 70
     0
 62
     7
  6
CONTINUOUS
  0
LAYER
  2
1
 70
     0
 62
     1
  6
CENTER
  0
LAYER
  2
2
 70
     0
 62
     2
  6
HIDDEN
  0
LAYER
  2
DEFPOINTS
 70
     0
 62
     7
  6
CONTINUOUS
  0
ENDTAB
  0
TABLE
  2
STYLE
 70
     2
  0
STYLE
  2
STANDARD
 70
     0
 40
0.0
 41
1.0
 50
0.0
 71
     0
 42
2.5
  3
TXT
  4
BIGFONT
  0
STYLE
  2
STANDARD1
 70
     0
 40
0.0
 41
1.0
 50
0.0
 71
     0
 42
3.0
  3
txt
  4

  0
ENDTAB
  0
TABLE
  2
VIEW
 70
     1
  0
VIEW
  2
ALL
 70
     0
 40
135.0
 10
110.49579799999999
 20
67.5
 41
0.0
 11
0.0
 21
0.0
 31
1.0
 12
0.0
 22
0.0
 32
0.0
 42
0.0
 43
0.0
 44
0.0
 50
0.0
 71
     0
  0
ENDTAB
  0
TABLE
  2
UCS
 70
     0
  0
ENDTAB
  0
TABLE
  2
APPID
 70
    25
  0
APPID
  2
ACAD
 70
     0
  0
APPID
  2
DCO15
 70
     0
  0
APPID
  2
ACAD_MLEADERVER
 70
     0
  0
APPID
  2
ACAD_EXEMPT_FROM_CAD_STANDARDS
 70
     0
  0
APPID
  2
ACAD_NAV_VCDISPLAY
 70
     0
  0
APPID
  2
ACAD_DSTYLE_DIMRADIAL_EXTENSION
 70
     0
  0
APPID
  2
GENIUS_GENODEF_13
 70
     0
  0
APPID
  2
GENIUS_GENOBJ-N-FIL_13
 70
     0
  0
APPID
  2
GENIUS_GENCFG_13
 70
     0
  0
APPID
  2
GENIUS_GENCFG0_13
 70
     0
  0
APPID
  2
GENIUS_GENCFG1_13
 70
     0
  0
APPID
  2
GENIUS_GENCFG2_13
 70
     0
  0
APPID
  2
GENIUS_GENCFG3_13
 70
     0
  0
APPID
  2
GENIUS_GENCFG4_13
 70
     0
  0
APPID
  2
GENIUS_GEVCFG0_13
 70
     0
  0
APPID
  2
GENIUS_GENOENT_13
 70
     0
  0
APPID
  2
GENIUS_GENOBJ-N-HTC_13
 70
     0
  0
APPID
  2
GENIUS_GENHATCH_13
 70
     0
  0
APPID
  2
GENIUS_GENFIL_13
 70
     0
  0
APPID
  2
GENIUS_GENOBJ-N-CHA_13
 70
     0
  0
APPID
  2
GEV_VCCNULL_SWITCH_OFF
 70
     0
  0
APPID
  2
GENIUS_GENDTOL_13
 70
     0
  0
APPID
  2
GENIUS_GEFCFG0_13
 70
     0
  0
APPID
  2
ACAD_DSTYLE_DIMJAG
 70
     0
  0
APPID
  2
ACAD_DSTYLE_DIMTALN
 70
     0
  0
ENDTAB
  0
TABLE
  2
DIMSTYLE
 70
     1
  0
DIMSTYLE
  2
STANDARD
 70
     0
  3

  4

  5

  6

  7

 40
1.0
 41
0.18
 42
0.0625
 43
0.38
 44
0.18
 45
0.0
 46
0.0
 47
0.0
 48
0.0
140
0.18
141
0.09
142
0.0
143
25.399999999999999
144
1.0
145
0.0
146
1.0
147
0.09
 71
     0
 72
     0
 73
     1
 74
     1
 75
     0
 76
     0
 77
     0
 78
     0
170
     0
171
     2
172
     0
173
     0
174
     0
175
     0
176
     0
177
     0
178
     0
  0
ENDTAB
  0
ENDSEC
  0
SECTION
  2
BLOCKS
  0
BLOCK
  8
0
  2
$MODEL_SPACE
 70
     0
 10
0.0
 20
0.0
 30
0.0
  3
$MODEL_SPACE
  1

  0
ENDBLK
  5
15D
  8
0
  0
BLOCK
 67
     1
  8
0
  2
$PAPER_SPACE
 70
     0
 10
0.0
 20
0.0
 30
0.0
  3
$PAPER_SPACE
  1

  0
ENDBLK
  5
15B
 67
     1
  8
0
  0
ENDSEC
  0
SECTION
  2
ENTITIES
  0
TEXT
  5
3985
  8
0
 62
     3
 10
0.0
 20
0.0
 30
0.0
 40
10.0
  1
SFMH108-M5
  7
STANDARD1
  0
CIRCLE
  5
441C
  8
2
 10
206.5440656628065
 20
99.0
 30
0.0
 40
2.5000000000000022
  0
POLYLINE
  5
441D
  8
0
 66
     1
 10
0.0
 20
0.0
 30
0.0
  0
VERTEX
  5
4633
  8
0
 10
204.0440656628065
 20
50.0
 30
0.0
  0
VERTEX
  5
4634
  8
0
 10
204.1126146577212
 20
50.023765155541952
 30
0.0
  0
VERTEX
  5
4635
  8
0
 10
204.21588652015581
 20
50.059913494585651
 30
0.0
  0
VERTEX
  5
4636
  8
0
 10
204.35063408037519
 20
50.10768431806202
 30
0.0
  0
VERTEX
  5
4637
  8
0
 10
204.6472519230245
 20
50.215376567146791
 30
0.0
  0
VERTEX
  5
4638
  8
0
 10
204.98317116605361
 20
50.341391525601878
 30
0.0
  0
VERTEX
  5
4639
  8
0
 10
205.6831290640468
 20
50.618916731715501
 30
0.0
  0
VERTEX
  5
463A
  8
0
 10
206.42260010301089
 20
50.933374907466842
 30
0.0
  0
VERTEX
  5
463B
  8
0
 10
207.17729114582869
 20
51.277605209799191
 30
0.0
  0
VERTEX
  5
463C
  8
0
 10
208.0663449274094
 20
51.715890273757729
 30
0.0
  0
VERTEX
  5
463D
  8
0
 10
208.9574136549704
 20
52.191284671549937
 30
0.0
  0
VERTEX
  5
463E
  8
0
 10
209.84036402075481
 20
52.699911049419399
 30
0.0
  0
SEQEND
  5
463F
  8
0
  0
POLYLINE
  5
441E
  8
0
 66
     1
 10
0.0
 20
0.0
 30
0.0
  0
VERTEX
  5
4640
  8
0
 10
132.24776730485809
 20
52.699911049419399
 30
0.0
  0
VERTEX
  5
4641
  8
0
 10
133.4037569652817
 20
52.042167136836888
 30
0.0
  0
VERTEX
  5
4642
  8
0
 10
134.57061710870141
 20
51.441818803621857
 30
0.0
  0
VERTEX
  5
4643
  8
0
 10
135.72323120998931
 20
50.907578519022138
 30
0.0
  0
VERTEX
  5
4644
  8
0
 10
136.64769416409291
 20
50.520182060698033
 30
0.0
  0
VERTEX
  5
4645
  8
0
 10
137.13441482070209
 20
50.330256704005862
 30
0.0
  0
VERTEX
  5
4646
  8
0
 10
137.57682220979041
 20
50.165570474874372
 30
0.0
  0
VERTEX
  5
4647
  8
0
 10
137.8670903486497
 20
50.061723053739598
 30
0.0
  0
VERTEX
  5
4648
  8
0
 10
138.01860645812101
 20
50.008805430836333
 30
0.0
  0
VERTEX
  5
4649
  8
0
 10
138.04406566280639
 20
50.0
 30
0.0
  0
SEQEND
  5
464A
  8
0
  0
LINE
  5
441F
  8
0
 10
204.0440656628065
 20
50.0
 30
0.0
 11
138.04406566280639
 21
50.0
 31
0.0
  0
CIRCLE
  5
4420
  8
2
 10
206.5440656628065
 20
99.0
 30
0.0
 40
2.067000000000013
  0
CIRCLE
  5
4421
  8
2
 10
135.5440656628065
 20
99.0
 30
0.0
 40
2.067000000000013
  0
POLYLINE
  5
4422
  8
0
 66
     1
 10
0.0
 20
0.0
 30
0.0
  0
VERTEX
  5
464B
  8
0
 10
211.22165480058629
 20
105.0
 30
0.0
  0
VERTEX
  5
464C
  8
0
 10
210.1576136329208
 20
105.6840743710237
 30
0.0
  0
VERTEX
  5
464D
  8
0
 10
209.06874609638919
 20
106.323011135252
 30
0.0
  0
VERTEX
  5
464E
  8
0
 10
207.96245511085189
 20
106.9138239706826
 30
0.0
  0
VERTEX
  5
464F
  8
0
 10
206.84614359616941
 20
107.4535265553133
 30
0.0
  0
VERTEX
  5
4650
  8
0
 10
205.3738023109525
 20
108.0810238664918
 30
0.0
  0
VERTEX
  5
4651
  8
0
 10
203.88218959775929
 20
108.6273300541105
 30
0.0
  0
VERTEX
  5
4652
  8
0
 10
202.39103217734279
 20
109.09168783778139
 30
0.0
  0
VERTEX
  5
4653
  8
0
 10
200.92005677045631
 20
109.47333993711661
 30
0.0
  0
VERTEX
  5
4654
  8
0
 10
199.48899009785271
 20
109.7715290717281
 30
0.0
  0
VERTEX
  5
4655
  8
0
 10
198.84954336903019
 20
109.88126782719981
 30
0.0
  0
VERTEX
  5
4656
  8
0
 10
198.543329728157
 20
109.9289138926857
 30
0.0
  0
VERTEX
  5
4657
  8
0
 10
198.27278150871609
 20
109.96848256815581
 30
0.0
  0
VERTEX
  5
4658
  8
0
 10
198.11012780131699
 20
109.9910748376986
 30
0.0
  0
VERTEX
  5
4659
  8
0
 10
198.04666197132991
 20
109.9996519637892
 30
0.0
  0
VERTEX
  5
465A
  8
0
 10
198.0440656628065
 20
110.0
 30
0.0
  0
SEQEND
  5
465B
  8
0
  0
POLYLINE
  5
4423
  8
0
 66
     1
 10
0.0
 20
0.0
 30
0.0
  0
VERTEX
  5
465C
  8
0
 10
144.04406566280639
 20
110.0
 30
0.0
  0
VERTEX
  5
465D
  8
0
 10
143.99440964828071
 20
109.993304854784
 30
0.0
  0
VERTEX
  5
465E
  8
0
 10
143.8139804887912
 20
109.96828864023939
 30
0.0
  0
VERTEX
  5
465F
  8
0
 10
143.48092819327249
 20
109.919189827208
 30
0.0
  0
VERTEX
  5
4660
  8
0
 10
143.10112625224079
 20
109.8588391792189
 30
0.0
  0
VERTEX
  5
4661
  8
0
 10
142.2302052224214
 20
109.701197051837
 30
0.0
  0
VERTEX
  5
4662
  8
0
 10
141.32192980036999
 20
109.5093664712816
 30
0.0
  0
VERTEX
  5
4663
  8
0
 10
140.3935139535279
 20
109.2847745875272
 30
0.0
  0
VERTEX
  5
4664
  8
0
 10
139.4621716493358
 20
109.0288485505483
 30
0.0
  0
VERTEX
  5
4665
  8
0
 10
137.96881916384029
 20
108.5496573175472
 30
0.0
  0
VERTEX
  5
4666
  8
0
 10
136.4730299297685
 20
107.9835973781112
 30
0.0
  0
VERTEX
  5
4667
  8
0
 10
134.9862895425311
 20
107.332191358098
 30
0.0
  0
VERTEX
  5
4668
  8
0
 10
133.5200835975387
 20
106.5969618833651
 30
0.0
  0
VERTEX
  5
4669
  8
0
 10
132.08589769020179
 20
105.7794315797702
 30
0.0
  0
VERTEX
  5
466A
  8
0
 10
130.86647652502651
 20
105.0
 30
0.0
  0
SEQEND
  5
466B
  8
0
  0
LINE
  5
4424
  8
0
 10
198.0440656628065
 20
110.0
 30
0.0
 11
144.04406566280639
 21
110.0
 31
0.0
  0
POLYLINE
  5
4425
  8
0
 66
     1
 10
0.0
 20
0.0
 30
0.0
  0
VERTEX
  5
466C
  8
0
 10
224.29508769720221
 20
85.453464289102328
 30
0.0
  0
VERTEX
  5
466D
  8
0
 10
224.61660706288271
 20
83.568062511887206
 30
0.0
  0
VERTEX
  5
466E
  8
0
 10
224.82473501661801
 20
81.617147141663636
 30
0.0
  0
VERTEX
  5
466F
  8
0
 10
224.91072249188281
 20
79.612908764376812
 30
0.0
  0
VERTEX
  5
4670
  8
0
 10
224.8658204221521
 20
77.567537965971908
 30
0.0
  0
VERTEX
  5
4671
  8
0
 10
224.68127974090041
 20
75.493225332394104
 30
0.0
  0
VERTEX
  5
4672
  8
0
 10
224.4104686982291
 20
73.732325728497997
 30
0.0
  0
VERTEX
  5
4673
  8
0
 10
224.0293570354778
 20
71.955047166607159
 30
0.0
  0
VERTEX
  5
4674
  8
0
 10
223.53765468219581
 20
70.17464812757693
 30
0.0
  0
VERTEX
  5
4675
  8
0
 10
222.93507156793251
 20
68.404387092262539
 30
0.0
  0
VERTEX
  5
4676
  8
0
 10
222.22131762223751
 20
66.657522541519313
 30
0.0
  0
VERTEX
  5
4677
  8
0
 10
221.39610277465999
 20
64.947312956202552
 30
0.0
  0
VERTEX
  5
4678
  8
0
 10
220.41750299503531
 20
63.214659270413861
 30
0.0
  0
VERTEX
  5
4679
  8
0
 10
219.31648128320521
 20
61.530203701625169
 30
0.0
  0
VERTEX
  5
467A
  8
0
 10
218.10090051341299
 20
59.908030866198523
 30
0.0
  0
VERTEX
  5
467B
  8
0
 10
216.77862355990189
 20
58.362225380495907
 30
0.0
  0
VERTEX
  5
467C
  8
0
 10
215.3575132969153
 20
56.906871860879413
 30
0.0
  0
VERTEX
  5
467D
  8
0
 10
213.6290417177299
 20
55.372143849636501
 30
0.0
  0
VERTEX
  5
467E
  8
0
 10
211.78446698669671
 20
53.96522764865982
 30
0.0
  0
VERTEX
  5
467F
  8
0
 10
209.84036402075481
 20
52.699911049419377
 30
0.0
  0
SEQEND
  5
4680
  8
0
  0
POLYLINE
  5
4426
  8
0
 66
     1
 10
0.0
 20
0.0
 30
0.0
  0
VERTEX
  5
4681
  8
0
 10
132.24776730485809
 20
52.699911049419377
 30
0.0
  0
VERTEX
  5
4682
  8
0
 10
130.573250113163
 20
53.778162192764363
 30
0.0
  0
VERTEX
  5
4683
  8
0
 10
128.96809061718389
 20
54.964862037814768
 30
0.0
  0
VERTEX
  5
4684
  8
0
 10
127.4423979355693
 20
56.250479161381222
 30
0.0
  0
VERTEX
  5
4685
  8
0
 10
126.0062811869671
 20
57.625482140274357
 30
0.0
  0
VERTEX
  5
4686
  8
0
 10
124.6698494900254
 20
59.080339551304768
 30
0.0
  0
VERTEX
  5
4687
  8
0
 10
123.43468269986489
 20
60.614361679204158
 30
0.0
  0
VERTEX
  5
4688
  8
0
 10
122.3016401777045
 20
62.221180872695392
 30
0.0
  0
VERTEX
  5
4689
  8
0
 10
121.2762403553071
 20
63.886828747189917
 30
0.0
  0
VERTEX
  5
468A
  8
0
 10
120.3640016644358
 20
65.597336918099245
 30
0.0
  0
VERTEX
  5
468B
  8
0
 10
119.57044253685361
 20
67.33873700083484
 30
0.0
  0
VERTEX
  5
468C
  8
0
 10
118.9066213725259
 20
69.074062894689888
 30
0.0
  0
VERTEX
  5
468D
  8
0
 10
118.35288931787881
 20
70.829858671298979
 30
0.0
  0
VERTEX
  5
468E
  8
0
 10
117.9078676237491
 20
72.593723600585633
 30
0.0
  0
VERTEX
  5
468F
  8
0
 10
117.5701775409735
 20
74.353256952473401
 30
0.0
  0
VERTEX
  5
4690
  8
0
 10
117.3384403203889
 20
76.096057996885776
 30
0.0
  0
VERTEX
  5
4691
  8
0
 10
117.199264118974
 20
78.043911863763839
 30
0.0
  0
VERTEX
  5
4692
  8
0
 10
117.1825451058908
 20
79.963510233858159
 30
0.0
  0
VERTEX
  5
4693
  8
0
 10
117.2808745243173
 20
81.844922299735117
 30
0.0
  0
VERTEX
  5
4694
  8
0
 10
117.4868436174313
 20
83.678217253961066
 30
0.0
  0
VERTEX
  5
4695
  8
0
 10
117.7930436284107
 20
85.453464289102328
 30
0.0
  0
SEQEND
  5
4696
  8
0
  0
LINE
  5
4427
  8
0
 10
125.5440656628064
 20
73.024313879736923
 30
0.0
 11
125.5440656628064
 21
79.975686120263077
 31
0.0
  0
POLYLINE
  5
4428
  8
0
 66
     1
 10
0.0
 20
0.0
 30
0.0
  0
VERTEX
  5
4697
  8
0
 10
125.5440656628064
 20
79.975686120263077
 30
0.0
  0
VERTEX
  5
4698
  8
0
 10
125.56719979175951
 20
80.887987306488796
 30
0.0
  0
VERTEX
  5
4699
  8
0
 10
125.63584524685901
 20
81.791076308031407
 30
0.0
  0
SEQEND
  5
469A
  8
0
  0
LINE
  5
4429
  8
0
 10
216.45228607875379
 20
81.791076308031407
 30
0.0
 11
125.63584524685901
 21
81.791076308031407
 31
0.0
  0
POLYLINE
  5
442A
  8
0
 66
     1
 10
0.0
 20
0.0
 30
0.0
  0
VERTEX
  5
469B
  8
0
 10
216.45228607875379
 20
81.791076308031407
 30
0.0
  0
VERTEX
  5
469C
  8
0
 10
216.52083637063129
 20
80.889860566574654
 30
0.0
  0
VERTEX
  5
469D
  8
0
 10
216.5440656628065
 20
79.975686120263092
 30
0.0
  0
SEQEND
  5
469E
  8
0
  0
LINE
  5
442B
  8
0
 10
216.5440656628065
 20
79.975686120263077
 30
0.0
 11
216.5440656628065
 21
73.024313879736951
 31
0.0
  0
POLYLINE
  5
442C
  8
0
 66
     1
 10
0.0
 20
0.0
 30
0.0
  0
VERTEX
  5
469F
  8
0
 10
216.5440656628065
 20
73.024313879736951
 30
0.0
  0
VERTEX
  5
46A0
  8
0
 10
216.4829363256834
 20
71.554183686647463
 30
0.0
  0
VERTEX
  5
46A1
  8
0
 10
216.29859274861221
 20
70.072370960033965
 30
0.0
  0
VERTEX
  5
46A2
  8
0
 10
215.9896015830401
 20
68.595048281780024
 30
0.0
  0
VERTEX
  5
46A3
  8
0
 10
215.5545294804142
 20
67.138388233769163
 30
0.0
  0
VERTEX
  5
46A4
  8
0
 10
214.98740716528741
 20
65.705460696989078
 30
0.0
  0
VERTEX
  5
46A5
  8
0
 10
214.2903383898628
 20
64.308539787388341
 30
0.0
  0
VERTEX
  5
46A6
  8
0
 10
213.47009218458089
 20
62.966312647650781
 30
0.0
  0
VERTEX
  5
46A7
  8
0
 10
212.5334375798825
 20
61.697466420460209
 30
0.0
  0
VERTEX
  5
46A8
  8
0
 10
211.54359968332579
 20
60.575638774607476
 30
0.0
  0
VERTEX
  5
46A9
  8
0
 10
210.45531979393331
 20
59.5318588574251
 30
0.0
  0
VERTEX
  5
46AA
  8
0
 10
209.28071961424919
 20
58.578488449133552
 30
0.0
  0
VERTEX
  5
46AB
  8
0
 10
208.0319208468182
 20
57.727889329953292
 30
0.0
  0
VERTEX
  5
46AC
  8
0
 10
206.74096253562109
 20
57.000141999859331
 30
0.0
  0
VERTEX
  5
46AD
  8
0
 10
205.3879138855356
 20
56.378105002450951
 30
0.0
  0
VERTEX
  5
46AE
  8
0
 10
203.9872490928301
 20
55.86811905793919
 30
0.0
  0
VERTEX
  5
46AF
  8
0
 10
202.55344235377319
 20
55.476524886535159
 30
0.0
  0
VERTEX
  5
46B0
  8
0
 10
200.7797344526154
 20
55.163692808165123
 30
0.0
  0
SEQEND
  5
46B1
  8
0
  0
POLYLINE
  5
442D
  8
0
 66
     1
 10
0.0
 20
0.0
 30
0.0
  0
VERTEX
  5
46B2
  8
0
 10
200.7797344526154
 20
55.163692808165109
 30
0.0
  0
VERTEX
  5
46B3
  8
0
 10
199.4720955261258
 20
55.04112805670885
 30
0.0
  0
VERTEX
  5
46B4
  8
0
 10
198.15406566280649
 20
55.0
 30
0.0
  0
SEQEND
  5
46B5
  8
0
  0
LINE
  5
442E
  8
0
 10
198.15406566280649
 20
55.0
 30
0.0
 11
143.9340656628064
 21
55.0
 31
0.0
  0
POLYLINE
  5
442F
  8
0
 66
     1
 10
0.0
 20
0.0
 30
0.0
  0
VERTEX
  5
46B6
  8
0
 10
143.9340656628064
 20
55.0
 30
0.0
  0
VERTEX
  5
46B7
  8
0
 10
142.621231267902
 20
55.040804142063699
 30
0.0
  0
VERTEX
  5
46B8
  8
0
 10
141.30839687299749
 20
55.163692808165123
 30
0.0
  0
SEQEND
  5
46B9
  8
0
  0
POLYLINE
  5
4430
  8
0
 66
     1
 10
0.0
 20
0.0
 30
0.0
  0
VERTEX
  5
46BA
  8
0
 10
141.30839687299749
 20
55.163692808165123
 30
0.0
  0
VERTEX
  5
46BB
  8
0
 10
139.8345682121097
 20
55.41174030970798
 30
0.0
  0
VERTEX
  5
46BC
  8
0
 10
138.38178276076289
 20
55.782355783837488
 30
0.0
  0
VERTEX
  5
46BD
  8
0
 10
136.9652215389562
 20
56.270750473565002
 30
0.0
  0
VERTEX
  5
46BE
  8
0
 10
135.6000655666885
 20
56.87213562190189
 30
0.0
  0
VERTEX
  5
46BF
  8
0
 10
134.29172199690541
 20
57.58556666008208
 30
0.0
  0
VERTEX
  5
46C0
  8
0
 10
133.04448711634521
 20
58.406213034680363
 30
0.0
  0
VERTEX
  5
46C1
  8
0
 10
131.8711529978915
 20
59.323812425963652
 30
0.0
  0
VERTEX
  5
46C2
  8
0
 10
130.78451171442791
 20
60.328102514198847
 30
0.0
  0
VERTEX
  5
46C3
  8
0
 10
129.79399538975611
 20
61.409792788391307
 30
0.0
  0
VERTEX
  5
46C4
  8
0
 10
128.8957448064175
 20
62.566880498100033
 30
0.0
  0
VERTEX
  5
46C5
  8
0
 10
128.09739421383711
 20
63.785182041241193
 30
0.0
  0
VERTEX
  5
46C6
  8
0
 10
127.4065778614397
 20
65.05051381573108
 30
0.0
  0
VERTEX
  5
46C7
  8
0
 10
126.82212611355379
 20
66.365104705030376
 30
0.0
  0
VERTEX
  5
46C8
  8
0
 10
126.3467119267479
 20
67.714493946078747
 30
0.0
  0
VERTEX
  5
46C9
  8
0
 10
125.9815106476408
 20
69.084200122276201
 30
0.0
  0
VERTEX
  5
46CA
  8
0
 10
125.727697622851
 20
70.459741817022746
 30
0.0
  0
VERTEX
  5
46CB
  8
0
 10
125.5896342256756
 20
71.745068659088574
 30
0.0
  0
VERTEX
  5
46CC
  8
0
 10
125.5440656628064
 20
73.024313879736894
 30
0.0
  0
SEQEND
  5
46CD
  8
0
  0
POLYLINE
  5
4431
  8
0
 66
     1
 10
0.0
 20
0.0
 30
0.0
  0
VERTEX
  5
46CE
  8
0
 10
224.0142595831154
 20
86.703576865971414
 30
0.0
  0
VERTEX
  5
46CF
  8
0
 10
223.2535026026909
 20
89.297507600279232
 30
0.0
  0
VERTEX
  5
46D0
  8
0
 10
222.26956457247101
 20
91.815263305334554
 30
0.0
  0
VERTEX
  5
46D1
  8
0
 10
221.0699338549839
 20
94.237682339959406
 30
0.0
  0
VERTEX
  5
46D2
  8
0
 10
219.66374036434649
 20
96.54632863260376
 30
0.0
  0
VERTEX
  5
46D3
  8
0
 10
218.0616860821053
 20
98.723631990981787
 30
0.0
  0
VERTEX
  5
46D4
  8
0
 10
216.27596360869509
 20
100.7530218218445
 30
0.0
  0
VERTEX
  5
46D5
  8
0
 10
214.32016337038721
 20
102.6190532432
 30
0.0
  0
VERTEX
  5
46D6
  8
0
 10
212.20917018793961
 20
104.30752462919121
 30
0.0
  0
VERTEX
  5
46D7
  8
0
 10
211.22165480058629
 20
105.0
 30
0.0
  0
SEQEND
  5
46D8
  8
0
  0
POLYLINE
  5
4432
  8
0
 66
     1
 10
0.0
 20
0.0
 30
0.0
  0
VERTEX
  5
46D9
  8
0
 10
130.86647652502651
 20
105.0
 30
0.0
  0
VERTEX
  5
46DA
  8
0
 10
128.6913723431137
 20
103.39496117321841
 30
0.0
  0
VERTEX
  5
46DB
  8
0
 10
126.6644334403819
 20
101.60645718321889
 30
0.0
  0
VERTEX
  5
46DC
  8
0
 10
124.8010860457801
 20
99.648099625293881
 30
0.0
  0
VERTEX
  5
46DD
  8
0
 10
123.1155113581012
 20
97.534792782947605
 30
0.0
  0
VERTEX
  5
46DE
  8
0
 10
121.6205376184962
 20
95.282620197299906
 30
0.0
  0
VERTEX
  5
46DF
  8
0
 10
120.3275424798134
 20
92.908722261626593
 30
0.0
  0
VERTEX
  5
46E0
  8
0
 10
119.24636641578989
 20
90.431165772616879
 30
0.0
  0
VERTEX
  5
46E1
  8
0
 10
118.3852378291049
 20
87.868806431141635
 30
0.0
  0
VERTEX
  5
46E2
  8
0
 10
118.0738717424975
 20
86.703576865971414
 30
0.0
  0
SEQEND
  5
46E3
  8
0
  0
POLYLINE
  5
4434
  8
0
 66
     1
 10
0.0
 20
0.0
 30
0.0
  0
VERTEX
  5
46E4
  8
0
 10
224.29508769720221
 20
85.453464289102328
 30
0.0
  0
VERTEX
  5
46E5
  8
0
 10
224.2358562657104
 20
85.738349424724476
 30
0.0
  0
VERTEX
  5
46E6
  8
0
 10
224.16619912256621
 20
86.057393397160638
 30
0.0
  0
VERTEX
  5
46E7
  8
0
 10
224.09380407320151
 20
86.373043831039482
 30
0.0
  0
VERTEX
  5
46E8
  8
0
 10
224.0142595831154
 20
86.703576865971414
 30
0.0
  0
SEQEND
  5
46E9
  8
0
  0
POLYLINE
  5
4435
  8
0
 66
     1
 10
0.0
 20
0.0
 30
0.0
  0
VERTEX
  5
46EA
  8
0
 10
118.0738717424975
 20
86.703576865971414
 30
0.0
  0
VERTEX
  5
46EB
  8
0
 10
117.9930495447507
 20
86.367601311806737
 30
0.0
  0
VERTEX
  5
46EC
  8
0
 10
117.91570415889559
 20
86.029511694956724
 30
0.0
  0
VERTEX
  5
46ED
  8
0
 10
117.851252234922
 20
85.733541415446012
 30
0.0
  0
VERTEX
  5
46EE
  8
0
 10
117.7930436284107
 20
85.453464289102328
 30
0.0
  0
SEQEND
  5
46EF
  8
0
  0
LINE
  5
443A
  8
1
 10
135.5440656628065
 20
94.500000000000014
 30
0.0
 11
135.5440656628065
 21
103.5
 31
0.0
  0
LINE
  5
4443
  8
0
 10
118.0635500002643
 20
160.00000000053259
 30
0.0
 11
224.02458347792259
 21
159.99999999946741
 31
0.0
  0
LINE
  5
4444
  8
0
 10
224.02458347792259
 20
159.99999999946741
 30
0.0
 11
224.0142595831154
 21
160.00044634096011
 31
0.0
  0
POLYLINE
  5
4445
  8
0
 66
     1
 10
0.0
 20
0.0
 30
0.0
  0
VERTEX
  5
46F0
  8
0
 10
118.0635500002643
 20
160.00000000053259
 30
0.0
  0
VERTEX
  5
46F1
  8
0
 10
117.9930495447507
 20
160.02168595119809
 30
0.0
  0
VERTEX
  5
46F2
  8
0
 10
117.91570415889559
 20
160.10241942152359
 30
0.0
  0
VERTEX
  5
46F3
  8
0
 10
117.851252234922
 20
160.22821622553261
 30
0.0
  0
VERTEX
  5
46F4
  8
0
 10
117.7930436284106
 20
160.40592577257149
 30
0.0
  0
SEQEND
  5
46F5
  8
0
  0
LINE
  5
444F
  8
2
 10
135.5440656628065
 20
165.837230310461
 30
0.0
 11
137.6110656628064
 21
166.994750310461
 31
0.0
  0
LINE
  5
4450
  8
2
 10
133.47706566280641
 20
166.994750310461
 30
0.0
 11
135.5440656628065
 21
165.837230310461
 31
0.0
  0
LINE
  5
4451
  8
2
 10
133.47706566280641
 20
166.994750310461
 30
0.0
 11
137.6110656628064
 21
166.994750310461
 31
0.0
  0
LINE
  5
4452
  8
2
 10
137.6110656628064
 20
166.994750310461
 30
0.0
 11
137.6110656628064
 21
179.80423031046089
 31
0.0
  0
LINE
  5
4453
  8
2
 10
133.47706566280641
 20
179.80423031046089
 30
0.0
 11
133.47706566280641
 21
166.994750310461
 31
0.0
  0
LINE
  5
4454
  8
2
 10
208.61106566280651
 20
166.994750310461
 30
0.0
 11
208.61106566280651
 21
179.80423031046089
 31
0.0
  0
LINE
  5
4455
  8
2
 10
204.4770656628065
 20
179.80423031046089
 30
0.0
 11
204.4770656628065
 21
166.994750310461
 31
0.0
  0
LINE
  5
4456
  8
2
 10
204.4770656628065
 20
166.994750310461
 30
0.0
 11
208.61106566280651
 21
166.994750310461
 31
0.0
  0
LINE
  5
4457
  8
2
 10
206.5440656628065
 20
165.837230310461
 30
0.0
 11
208.61106566280651
 21
166.994750310461
 31
0.0
  0
LINE
  5
4458
  8
2
 10
204.4770656628065
 20
166.994750310461
 30
0.0
 11
206.5440656628065
 21
165.837230310461
 31
0.0
  0
LINE
  5
4459
  8
2
 10
133.47706566280641
 20
179.80423031046089
 30
0.0
 11
137.6110656628064
 21
179.80423031046089
 31
0.0
  0
LINE
  5
445A
  8
2
 10
137.6110656628064
 20
179.80423031046089
 30
0.0
 11
138.2940656628065
 21
180.48723031046089
 31
0.0
  0
LINE
  5
445B
  8
2
 10
132.79406566280639
 20
180.48723031046089
 30
0.0
 11
133.47706566280641
 21
179.80423031046089
 31
0.0
  0
LINE
  5
445C
  8
2
 10
204.4770656628065
 20
179.80423031046089
 30
0.0
 11
208.61106566280651
 21
179.80423031046089
 31
0.0
  0
LINE
  5
445D
  8
2
 10
208.61106566280651
 20
179.80423031046089
 30
0.0
 11
209.2940656628065
 21
180.48723031046089
 31
0.0
  0
LINE
  5
445E
  8
2
 10
203.79406566280639
 20
180.48723031046089
 30
0.0
 11
204.4770656628065
 21
179.80423031046089
 31
0.0
  0
POLYLINE
  5
446B
  8
0
 66
     1
 10
0.0
 20
0.0
 30
0.0
  0
VERTEX
  5
46F6
  8
0
 10
224.0142595831154
 20
160.0004463409602
 30
0.0
  0
VERTEX
  5
46F7
  8
0
 10
223.2535026026909
 20
160.14034522982271
 30
0.0
  0
VERTEX
  5
46F8
  8
0
 10
222.26956457247101
 20
160.27613575842321
 30
0.0
  0
VERTEX
  5
46F9
  8
0
 10
221.0699338549839
 20
160.40678447884639
 30
0.0
  0
VERTEX
  5
46FA
  8
0
 10
219.66374036434649
 20
160.5312970754419
 30
0.0
  0
VERTEX
  5
46FB
  8
0
 10
218.0616860821053
 20
160.648725932167
 30
0.0
  0
VERTEX
  5
46FC
  8
0
 10
216.27596360869509
 20
160.7581773445165
 30
0.0
  0
VERTEX
  5
46FD
  8
0
 10
214.32016337038721
 20
160.85881832115379
 30
0.0
  0
VERTEX
  5
46FE
  8
0
 10
212.20917018793961
 20
160.9498829234781
 30
0.0
  0
VERTEX
  5
46FF
  8
0
 10
211.22165480058629
 20
160.987230310461
 30
0.0
  0
SEQEND
  5
4700
  8
0
  0
POLYLINE
  5
446C
  8
0
 66
     1
 10
0.0
 20
0.0
 30
0.0
  0
VERTEX
  5
4701
  8
0
 10
224.29508769720221
 20
160.40592577257149
 30
0.0
  0
VERTEX
  5
4702
  8
0
 10
224.2358562657104
 20
160.22570684204001
 30
0.0
  0
VERTEX
  5
4703
  8
0
 10
224.16619912256621
 20
160.09336245671571
 30
0.0
  0
VERTEX
  5
4704
  8
0
 10
224.09380407320151
 20
160.02088553945919
 30
0.0
  0
VERTEX
  5
4705
  8
0
 10
224.02458347792259
 20
159.99999999946741
 30
0.0
  0
SEQEND
  5
4706
  8
0
  0
POLYLINE
  5
446D
  8
0
 66
     1
 10
0.0
 20
0.0
 30
0.0
  0
VERTEX
  5
4707
  8
0
 10
224.29508769720221
 20
160.40592577257149
 30
0.0
  0
VERTEX
  5
4708
  8
0
 10
224.50674737033029
 20
161.26062154637549
 30
0.0
  0
VERTEX
  5
4709
  8
0
 10
224.67655155512441
 20
162.0927577364759
 30
0.0
  0
VERTEX
  5
470A
  8
0
 10
224.80299814481751
 20
162.90551333217999
 30
0.0
  0
VERTEX
  5
470B
  8
0
 10
224.88291993470699
 20
163.6928322172931
 30
0.0
  0
VERTEX
  5
470C
  8
0
 10
224.91429479292751
 20
164.4678483103593
 30
0.0
  0
VERTEX
  5
470D
  8
0
 10
224.91457962395
 20
164.5432794666994
 30
0.0
  0
SEQEND
  5
470E
  8
0
  0
LINE
  5
446F
  8
0
 10
224.91457962395
 20
164.5432794666994
 30
0.0
 11
224.91457962395
 21
180.48723031046089
 31
0.0
  0
LINE
  5
4472
  8
0
 10
118.0738717424975
 20
160.0004463409602
 30
0.0
 11
118.0635500002643
 21
160.00000000053259
 31
0.0
  0
POLYLINE
  5
4473
  8
0
 66
     1
 10
0.0
 20
0.0
 30
0.0
  0
VERTEX
  5
470F
  8
0
 10
130.8664765250266
 20
160.987230310461
 30
0.0
  0
VERTEX
  5
4710
  8
0
 10
128.6913723431137
 20
160.90066548994429
 30
0.0
  0
VERTEX
  5
4711
  8
0
 10
126.6644334403819
 20
160.80420581289201
 30
0.0
  0
VERTEX
  5
4712
  8
0
 10
124.8010860457801
 20
160.69858539569049
 30
0.0
  0
VERTEX
  5
4713
  8
0
 10
123.1155113581012
 20
160.58460807348999
 30
0.0
  0
VERTEX
  5
4714
  8
0
 10
121.6205376184962
 20
160.46314128253391
 30
0.0
  0
VERTEX
  5
4715
  8
0
 10
120.3275424798134
 20
160.33510945844489
 30
0.0
  0
VERTEX
  5
4716
  8
0
 10
119.24636641578989
 20
160.20148700071209
 30
0.0
  0
VERTEX
  5
4717
  8
0
 10
118.3852378291049
 20
160.06329085692241
 30
0.0
  0
VERTEX
  5
4718
  8
0
 10
118.0738717424975
 20
160.0004463409602
 30
0.0
  0
SEQEND
  5
4719
  8
0
  0
LINE
  5
4474
  8
0
 10
224.91457962395
 20
180.48723031046089
 30
0.0
 11
117.1735517016628
 21
180.48723031046089
 31
0.0
  0
LINE
  5
4477
  8
0
 10
117.1735517016628
 20
180.48723031046089
 30
0.0
 11
117.1735517016628
 21
164.54132570253751
 31
0.0
  0
POLYLINE
  5
4478
  8
0
 66
     1
 10
0.0
 20
0.0
 30
0.0
  0
VERTEX
  5
471A
  8
0
 10
117.1735517016628
 20
164.54132570253751
 30
0.0
  0
VERTEX
  5
471B
  8
0
 10
117.17607793926609
 20
164.3095557823296
 30
0.0
  0
VERTEX
  5
471C
  8
0
 10
117.2132359581484
 20
163.5877072778668
 30
0.0
  0
VERTEX
  5
471D
  8
0
 10
117.2953098975227
 20
162.82839264846521
 30
0.0
  0
VERTEX
  5
471E
  8
0
 10
117.4201412720692
 20
162.0457161035205
 30
0.0
  0
VERTEX
  5
471F
  8
0
 10
117.5868740902538
 20
161.2364465351296
 30
0.0
  0
VERTEX
  5
4720
  8
0
 10
117.7930436284107
 20
160.40592577257149
 30
0.0
  0
SEQEND
  5
4721
  8
0
  0
LINE
  5
4479
  8
0
 10
211.22165480058629
 20
160.987230310461
 30
0.0
 11
130.86647652502651
 21
160.987230310461
 31
0.0
  0
POLYLINE
  5
447A
  8
0
 66
     1
 10
0.0
 20
0.0
 30
0.0
  0
VERTEX
  5
4722
  8
0
 10
211.22165480058629
 20
160.987230310461
 30
0.0
  0
VERTEX
  5
4723
  8
0
 10
210.52150497052361
 20
161.00811834864379
 30
0.0
  0
VERTEX
  5
4724
  8
0
 10
209.81033086268329
 20
161.0679052782865
 30
0.0
  0
VERTEX
  5
4725
  8
0
 10
209.090834548494
 20
161.16227532203089
 30
0.0
  0
VERTEX
  5
4726
  8
0
 10
208.34870822942739
 20
161.29035616213889
 30
0.0
  0
VERTEX
  5
4727
  8
0
 10
207.59988880692649
 20
161.4474585091389
 30
0.0
  0
VERTEX
  5
4728
  8
0
 10
206.84614359616941
 20
161.63060232056191
 30
0.0
  0
VERTEX
  5
4729
  8
0
 10
205.9456793311814
 20
161.87852062850951
 30
0.0
  0
VERTEX
  5
472A
  8
0
 10
205.04064605768039
 20
162.1566227225718
 30
0.0
  0
VERTEX
  5
472B
  8
0
 10
204.1259292775087
 20
162.46464236278331
 30
0.0
  0
VERTEX
  5
472C
  8
0
 10
203.20956116592151
 20
162.79933444062991
 30
0.0
  0
VERTEX
  5
472D
  8
0
 10
202.27285932433671
 20
163.16847270043971
 30
0.0
  0
VERTEX
  5
472E
  8
0
 10
201.33924130640131
 20
163.5671430124099
 30
0.0
  0
VERTEX
  5
472F
  8
0
 10
200.7145925820779
 20
163.85347172281561
 30
0.0
  0
VERTEX
  5
4730
  8
0
 10
200.095994501852
 20
164.15977158763511
 30
0.0
  0
VERTEX
  5
4731
  8
0
 10
199.48899009785271
 20
164.49307157804549
 30
0.0
  0
VERTEX
  5
4732
  8
0
 10
199.1649015131666
 20
164.69030593047
 30
0.0
  0
VERTEX
  5
4733
  8
0
 10
198.84954336903019
 20
164.90407547427941
 30
0.0
  0
VERTEX
  5
4734
  8
0
 10
198.54657820736671
 20
165.14447819318991
 30
0.0
  0
VERTEX
  5
4735
  8
0
 10
198.4035180314597
 20
165.2795649732835
 30
0.0
  0
VERTEX
  5
4736
  8
0
 10
198.27278150871609
 20
165.42671182732789
 30
0.0
  0
VERTEX
  5
4737
  8
0
 10
198.1836998974307
 20
165.55135056629891
 30
0.0
  0
VERTEX
  5
4738
  8
0
 10
198.11012780131699
 20
165.68861355860091
 30
0.0
  0
VERTEX
  5
4739
  8
0
 10
198.06899117489081
 20
165.8042172659319
 30
0.0
  0
VERTEX
  5
473A
  8
0
 10
198.04666197132991
 20
165.92823674319411
 30
0.0
  0
VERTEX
  5
473B
  8
0
 10
198.0440656628065
 20
165.987230310461
 30
0.0
  0
SEQEND
  5
473C
  8
0
  0
POLYLINE
  5
447B
  8
0
 66
     1
 10
0.0
 20
0.0
 30
0.0
  0
VERTEX
  5
473D
  8
0
 10
144.04406566280639
 20
165.987230310461
 30
0.0
  0
VERTEX
  5
473E
  8
0
 10
144.031600897667
 20
165.85789873350669
 30
0.0
  0
VERTEX
  5
473F
  8
0
 10
143.99440964828071
 20
165.7285671565524
 30
0.0
  0
VERTEX
  5
4740
  8
0
 10
143.91703946291631
 20
165.57177733891899
 30
0.0
  0
VERTEX
  5
4741
  8
0
 10
143.8139804887912
 20
165.42499549539909
 30
0.0
  0
VERTEX
  5
4742
  8
0
 10
143.6569579429638
 20
165.2516913551643
 30
0.0
  0
VERTEX
  5
4743
  8
0
 10
143.48370423267579
 20
165.0946791017318
 30
0.0
  0
VERTEX
  5
4744
  8
0
 10
143.10112625224079
 20
164.80753465882549
 30
0.0
  0
VERTEX
  5
4745
  8
0
 10
142.52699459425591
 20
164.44882870490579
 30
0.0
  0
VERTEX
  5
4746
  8
0
 10
141.93232449996771
 20
164.12808115611841
 30
0.0
  0
VERTEX
  5
4747
  8
0
 10
141.32770084054519
 20
163.83269518069551
 30
0.0
  0
VERTEX
  5
4748
  8
0
 10
140.3978317689284
 20
163.41308577261049
 30
0.0
  0
VERTEX
  5
4749
  8
0
 10
139.4621716493358
 20
163.0260853702824
 30
0.0
  0
VERTEX
  5
474A
  8
0
 10
138.54496326504699
 20
162.67444462628021
 30
0.0
  0
VERTEX
  5
474B
  8
0
 10
137.62827794581179
 20
162.34918612233139
 30
0.0
  0
VERTEX
  5
474C
  8
0
 10
136.7076992522008
 20
162.04896782611851
 30
0.0
  0
VERTEX
  5
474D
  8
0
 10
135.79091327686399
 20
161.7781794298138
 30
0.0
  0
VERTEX
  5
474E
  8
0
 10
134.8566882996351
 20
161.53402776376359
 30
0.0
  0
VERTEX
  5
474F
  8
0
 10
133.92973736366591
 20
161.32783330751951
 30
0.0
  0
VERTEX
  5
4750
  8
0
 10
133.00185442020259
 20
161.16293220902821
 30
0.0
  0
VERTEX
  5
4751
  8
0
 10
132.08589769020179
 20
161.04835529559611
 30
0.0
  0
VERTEX
  5
4752
  8
0
 10
131.47281859792031
 20
161.00306331418869
 30
0.0
  0
VERTEX
  5
4753
  8
0
 10
130.86647652502651
 20
160.987230310461
 30
0.0
  0
SEQEND
  5
4754
  8
0
  0
LINE
  5
447C
  8
0
 10
198.0440656628065
 20
165.987230310461
 30
0.0
 11
144.04406566280639
 21
165.987230310461
 31
0.0
  0
LINE
  5
447D
  8
0
 10
198.0440656628065
 20
165.987230310461
 30
0.0
 11
198.0440656628065
 21
180.48723031046089
 31
0.0
  0
LINE
  5
447E
  8
0
 10
144.04406566280639
 20
165.987230310461
 30
0.0
 11
144.04406566280639
 21
180.48723031046089
 31
0.0
  0
LINE
  5
447F
  8
2
 10
138.04406566280639
 20
180.23723031046089
 30
0.0
 11
138.04406566280639
 21
168.237230310461
 31
0.0
  0
LINE
  5
4480
  8
2
 10
138.04406566280639
 20
168.237230310461
 30
0.0
 11
133.0440656628065
 21
168.237230310461
 31
0.0
  0
LINE
  5
4481
  8
2
 10
133.0440656628065
 20
180.23723031046089
 30
0.0
 11
133.0440656628065
 21
168.237230310461
 31
0.0
  0
LINE
  5
4482
  8
2
 10
209.0440656628065
 20
180.23723031046089
 30
0.0
 11
209.0440656628065
 21
168.237230310461
 31
0.0
  0
LINE
  5
4483
  8
2
 10
209.0440656628065
 20
168.237230310461
 30
0.0
 11
204.0440656628065
 21
168.237230310461
 31
0.0
  0
LINE
  5
4484
  8
2
 10
204.0440656628065
 20
180.23723031046089
 30
0.0
 11
204.0440656628065
 21
168.237230310461
 31
0.0
  0
LINE
  5
4485
  8
1
 10
135.5440656628065
 20
163.837230310461
 30
0.0
 11
135.5440656628065
 21
182.48723031046089
 31
0.0
  0
LINE
  5
4486
  8
1
 10
206.5440656628065
 20
163.837230310461
 30
0.0
 11
206.54406566280639
 21
182.48723031046089
 31
0.0
  0
LINE
  5
4487
  8
2
 10
67.5
 20
81.791076308031407
 30
0.0
 11
67.5
 21
97.999999999999986
 31
0.0
  0
LINE
  5
4488
  8
2
 10
67.5
 20
97.999999999999986
 30
0.0
 11
50.0
 21
97.999999999999986
 31
0.0
  0
LINE
  5
448A
  8
2
 10
63.49248
 20
96.933000000000007
 30
0.0
 11
50.682999999999993
 21
96.933000000000007
 31
0.0
  0
LINE
  5
448B
  8
2
 10
50.682999999999993
 20
101.06699999999999
 30
0.0
 11
63.49248
 21
101.06699999999999
 31
0.0
  0
LINE
  5
448C
  8
2
 10
64.649999999999977
 20
99.0
 30
0.0
 11
63.49248
 21
96.933000000000007
 31
0.0
  0
LINE
  5
448D
  8
2
 10
63.49248
 20
101.06699999999999
 30
0.0
 11
64.649999999999977
 21
99.0
 31
0.0
  0
LINE
  5
448E
  8
2
 10
63.49248
 20
101.06699999999999
 30
0.0
 11
63.49248
 21
96.933000000000007
 31
0.0
  0
LINE
  5
448F
  8
2
 10
50.682999999999993
 20
96.933000000000007
 30
0.0
 11
49.999999999999943
 21
96.249999999999957
 31
0.0
  0
LINE
  5
4490
  8
2
 10
49.999999999999943
 20
101.7500000000001
 30
0.0
 11
50.682999999999993
 21
101.06699999999999
 31
0.0
  0
LINE
  5
4491
  8
2
 10
50.682999999999993
 20
101.06699999999999
 30
0.0
 11
50.682999999999993
 21
96.933000000000007
 31
0.0
  0
LINE
  5
4496
  8
0
 10
50.0
 20
50.0
 30
0.0
 11
50.0
 21
110.0
 31
0.0
  0
LINE
  5
4497
  8
0
 10
54.22976684590224
 20
50.0
 30
0.0
 11
50.0
 21
50.0
 31
0.0
  0
LINE
  5
4498
  8
0
 10
64.5
 20
110.0
 30
0.0
 11
50.0
 21
110.0
 31
0.0
  0
POLYLINE
  5
4499
  8
0
 66
     1
 10
0.0
 20
0.0
 30
0.0
  0
VERTEX
  5
4755
  8
0
 10
69.5
 20
105.0
 30
0.0
  0
VERTEX
  5
4756
  8
0
 10
69.470080330091889
 20
105.5507749430586
 30
0.0
  0
VERTEX
  5
4757
  8
0
 10
69.384506109871595
 20
106.07304406698429
 30
0.0
  0
VERTEX
  5
4758
  8
0
 10
69.24955452359535
 20
106.5652783749121
 30
0.0
  0
VERTEX
  5
4759
  8
0
 10
69.071502755519134
 20
107.0259488699768
 30
0.0
  0
VERTEX
  5
475A
  8
0
 10
68.856627989899096
 20
107.4535265553133
 30
0.0
  0
VERTEX
  5
475B
  8
0
 10
68.608159319446258
 20
107.8504783451378
 30
0.0
  0
VERTEX
  5
475C
  8
0
 10
68.329082029391429
 20
108.2158785650205
 30
0.0
  0
VERTEX
  5
475D
  8
0
 10
68.021594689573476
 20
108.5497021873455
 30
0.0
  0
VERTEX
  5
475E
  8
0
 10
67.687895869831095
 20
108.85192418449709
 30
0.0
  0
VERTEX
  5
475F
  8
0
 10
67.395894149387004
 20
109.07774316528381
 30
0.0
  0
VERTEX
  5
4760
  8
0
 10
67.086368333619419
 20
109.282934308384
 30
0.0
  0
VERTEX
  5
4761
  8
0
 10
66.753469664332329
 20
109.46717644981391
 30
0.0
  0
VERTEX
  5
4762
  8
0
 10
66.391349383329725
 20
109.63014842558989
 30
0.0
  0
VERTEX
  5
4763
  8
0
 10
65.994158732415428
 20
109.7715290717281
 30
0.0
  0
VERTEX
  5
4764
  8
0
 10
65.796796790805843
 20
109.82894741764061
 30
0.0
  0
VERTEX
  5
4765
  8
0
 10
65.58315483618162
 20
109.88126782719981
 30
0.0
  0
VERTEX
  5
4766
  8
0
 10
65.425325932857049
 20
109.9137648010765
 30
0.0
  0
VERTEX
  5
4767
  8
0
 10
65.252650348458005
 20
109.94316549651541
 30
0.0
  0
VERTEX
  5
4768
  8
0
 10
65.060518483133023
 20
109.96848256815581
 30
0.0
  0
VERTEX
  5
4769
  8
0
 10
64.934787647231985
 20
109.9810614808452
 30
0.0
  0
VERTEX
  5
476A
  8
0
 10
64.798616751860038
 20
109.9910748376986
 30
0.0
  0
VERTEX
  5
476B
  8
0
 10
64.681344322604545
 20
109.99669479949191
 30
0.0
  0
VERTEX
  5
476C
  8
0
 10
64.558993567266839
 20
109.9996519637892
 30
0.0
  0
VERTEX
  5
476D
  8
0
 10
64.5
 20
110.0
 30
0.0
  0
SEQEND
  5
476E
  8
0
  0
LINE
  5
449A
  8
0
 10
70.486783969500834
 20
86.703576865971414
 30
0.0
 11
69.5
 21
105.0
 31
0.0
  0
POLYLINE
  5
449B
  8
0
 66
     1
 10
0.0
 20
0.0
 30
0.0
  0
VERTEX
  5
476F
  8
0
 10
70.08130453788948
 20
85.453464289102328
 30
0.0
  0
VERTEX
  5
4770
  8
0
 10
70.26152346842099
 20
85.738349424724476
 30
0.0
  0
VERTEX
  5
4771
  8
0
 10
70.393867853745164
 20
86.057393397160638
 30
0.0
  0
VERTEX
  5
4772
  8
0
 10
70.466344771001786
 20
86.373043831039482
 30
0.0
  0
VERTEX
  5
4773
  8
0
 10
70.486783969500834
 20
86.703576865971414
 30
0.0
  0
SEQEND
  5
4774
  8
0
  0
POLYLINE
  5
449C
  8
0
 66
     1
 10
0.0
 20
0.0
 30
0.0
  0
VERTEX
  5
4775
  8
0
 10
70.081304537889423
 20
85.453464289102328
 30
0.0
  0
VERTEX
  5
4776
  8
0
 10
69.224555503596662
 20
84.296233663197356
 30
0.0
  0
VERTEX
  5
4777
  8
0
 10
68.389896783643394
 20
83.11490203385091
 30
0.0
  0
VERTEX
  5
4778
  8
0
 10
67.579215329632746
 20
81.911686921430274
 30
0.0
  0
VERTEX
  5
4779
  8
0
 10
66.794398093167842
 20
80.688805846302728
 30
0.0
  0
VERTEX
  5
477A
  8
0
 10
66.016945671325232
 20
79.41438488202617
 30
0.0
  0
VERTEX
  5
477B
  8
0
 10
65.268174400784119
 20
78.121099920944786
 30
0.0
  0
VERTEX
  5
477C
  8
0
 10
64.550083779812098
 20
76.812772794065211
 30
0.0
  0
VERTEX
  5
477D
  8
0
 10
63.864673306676991
 20
75.493225332394104
 30
0.0
  0
VERTEX
  5
477E
  8
0
 10
63.227581506904983
 20
74.195357998368067
 30
0.0
  0
VERTEX
  5
477F
  8
0
 10
62.62243229991298
 20
72.890202625934421
 30
0.0
  0
VERTEX
  5
4780
  8
0
 10
62.050594012373097
 20
71.582643241384361
 30
0.0
  0
VERTEX
  5
4781
  8
0
 10
61.513434970957512
 20
70.277563871009065
 30
0.0
  0
VERTEX
  5
4782
  8
0
 10
61.093583562162159
 20
69.196598913509732
 30
0.0
  0
VERTEX
  5
4783
  8
0
 10
60.697250609076541
 20
68.11986294345391
 30
0.0
  0
VERTEX
  5
4784
  8
0
 10
60.324656001630899
 20
67.050584360667131
 30
0.0
  0
VERTEX
  5
4785
  8
0
 10
59.976019629755569
 20
65.991991564974853
 30
0.0
  0
VERTEX
  5
4786
  8
0
 10
59.651561383380852
 20
64.947312956202552
 30
0.0
  0
VERTEX
  5
4787
  8
0
 10
59.33803419971003
 20
63.872951820214148
 30
0.0
  0
VERTEX
  5
4788
  8
0
 10
59.049153304932361
 20
62.816504469130393
 30
0.0
  0
VERTEX
  5
4789
  8
0
 10
58.784469121441759
 20
61.781517307453299
 30
0.0
  0
VERTEX
  5
478A
  8
0
 10
58.543532071632171
 20
60.771536739684898
 30
0.0
  0
VERTEX
  5
478B
  8
0
 10
58.318777507841332
 20
59.757411213680058
 30
0.0
  0
VERTEX
  5
478C
  8
0
 10
58.116787913332473
 20
58.77304624862375
 30
0.0
  0
VERTEX
  5
478D
  8
0
 10
57.936521061506141
 20
57.821760309396659
 30
0.0
  0
VERTEX
  5
478E
  8
0
 10
57.776934725762942
 20
56.906871860879413
 30
0.0
  0
VERTEX
  5
478F
  8
0
 10
57.627704964740467
 20
55.971469753224063
 30
0.0
  0
VERTEX
  5
4790
  8
0
 10
57.498463760413181
 20
55.080094455292823
 30
0.0
  0
VERTEX
  5
4791
  8
0
 10
57.387615985622169
 20
54.235724130043309
 30
0.0
  0
VERTEX
  5
4792
  8
0
 10
57.293566513208638
 20
53.44133694043299
 30
0.0
  0
VERTEX
  5
4793
  8
0
 10
57.214720216013689
 20
52.699911049419399
 30
0.0
  0
SEQEND
  5
4794
  8
0
  0
POLYLINE
  5
449D
  8
0
 66
     1
 10
0.0
 20
0.0
 30
0.0
  0
VERTEX
  5
4795
  8
0
 10
54.22976684590224
 20
50.0
 30
0.0
  0
VERTEX
  5
4796
  8
0
 10
54.421405996495757
 20
50.006214167261753
 30
0.0
  0
VERTEX
  5
4797
  8
0
 10
54.606630416221492
 20
50.023765155541952
 30
0.0
  0
VERTEX
  5
4798
  8
0
 10
54.826238734943161
 20
50.059913494585651
 30
0.0
  0
VERTEX
  5
4799
  8
0
 10
55.026328203247431
 20
50.10768431806202
 30
0.0
  0
VERTEX
  5
479A
  8
0
 10
55.245607708206762
 20
50.17702351390475
 30
0.0
  0
VERTEX
  5
479B
  8
0
 10
55.442304188098149
 20
50.255765476985523
 30
0.0
  0
VERTEX
  5
479C
  8
0
 10
55.619659280538258
 20
50.341391525601857
 30
0.0
  0
VERTEX
  5
479D
  8
0
 10
55.895081492214331
 20
50.503073685702333
 30
0.0
  0
VERTEX
  5
479E
  8
0
 10
56.135086354025532
 20
50.67908287627256
 30
0.0
  0
VERTEX
  5
479F
  8
0
 10
56.344019777429033
 20
50.867872355212278
 30
0.0
  0
VERTEX
  5
47A0
  8
0
 10
56.526227673881692
 20
51.067895380421248
 30
0.0
  0
VERTEX
  5
47A1
  8
0
 10
56.68605595484064
 20
51.277605209799191
 30
0.0
  0
VERTEX
  5
47A2
  8
0
 10
56.88503737783617
 20
51.602688548590081
 30
0.0
  0
VERTEX
  5
47A3
  8
0
 10
57.040666189789363
 20
51.949191140534403
 30
0.0
  0
VERTEX
  5
47A4
  8
0
 10
57.151155949561492
 20
52.315477227016167
 30
0.0
  0
VERTEX
  5
47A5
  8
0
 10
57.214720216013689
 20
52.699911049419399
 30
0.0
  0
SEQEND
  5
47A6
  8
0
  0
LINE
  5
449E
  8
2
 10
50.25
 20
101.5
 30
0.0
 11
62.25
 21
101.5
 31
0.0
  0
LINE
  5
449F
  8
2
 10
62.25
 20
101.5
 30
0.0
 11
62.25
 21
96.5
 31
0.0
  0
LINE
  5
44A0
  8
2
 10
50.25
 20
96.5
 30
0.0
 11
62.25
 21
96.5
 31
0.0
  0
LINE
  5
44A1
  8
1
 10
66.649999999999977
 20
99.0
 30
0.0
 11
48.0
 21
99.0
 31
0.0
  0
LINE
  5
4544
  8
1
 10
171.04406566280639
 20
112.0
 30
0.0
 11
171.04406566280639
 21
48.0
 31
0.0
  0
LINE
  5
4547
  8
1
 10
171.04406566280639
 20
182.48723031046089
 30
0.0
 11
171.04406566280639
 21
158.0
 31
0.0
  0
CIRCLE
  5
4548
  8
2
 10
135.5440656628065
 20
99.0
 30
0.0
 40
2.5
  0
LINE
  5
454D
  8
1
 10
140.04406566280639
 20
99.0
 30
0.0
 11
131.0440656628065
 21
99.0
 31
0.0
  0
LINE
  5
454E
  8
1
 10
206.5440656628065
 20
94.500000000000014
 30
0.0
 11
206.5440656628065
 21
103.5
 31
0.0
  0
LINE
  5
454F
  8
1
 10
211.0440656628065
 20
99.0
 30
0.0
 11
202.0440656628065
 21
99.0
 31
0.0
  0
ENDSEC
  0
EOF
