  0
SECTION
  2
HEADER
  9
$ACADVER
  1
AC1009
  9
$INSBASE
 10
0.0
 20
0.0
 30
0.0
  9
$EXTMIN
 10
-0.0005
 20
-2.960436562073669
 30
0.0
  9
$EXTMAX
 10
166.31186887879821
 20
108.0885533828833
 30
0.0
  9
$LIMMIN
 10
0.0
 20
0.0
  9
$LIMMAX
 10
187.5
 20
135.0
  9
$ORTHOMODE
 70
     0
  9
$REGENMODE
 70
     1
  9
$FILLMODE
 70
     1
  9
$QTEXTMODE
 70
     0
  9
$MIRRTEXT
 70
     0
  9
$DRAGMODE
 70
     2
  9
$LTSCALE
 40
5.0
  9
$OSMODE
 70
    55
  9
$ATTMODE
 70
     1
  9
$TEXTSIZE
 40
4.000000000000048
  9
$TRACEWID
 40
0.05
  9
$TEXTSTYLE
  7
STANDARD
  9
$CLAYER
  8
0
  9
$CELTYPE
  6
BYLAYER
  9
$CECOLOR
 62
   256
  9
$DIMSCALE
 40
0.5
  9
$DIMASZ
 40
3.0
  9
$DIMEXO
 40
2.0
  9
$DIMDLI
 40
0.38
  9
$DIMRND
 40
0.0
  9
$DIMDLE
 40
0.0
  9
$DIMEXE
 40
2.0
  9
$DIMTP
 40
0.0
  9
$DIMTM
 40
0.0
  9
$DIMTXT
 40
3.0
  9
$DIMCEN
 40
0.09
  9
$DIMTSZ
 40
0.0
  9
$DIMTOL
 70
     0
  9
$DIMLIM
 70
     0
  9
$DIMTIH
 70
     0
  9
$DIMTOH
 70
     0
  9
$DIMSE1
 70
     0
  9
$DIMSE2
 70
     0
  9
$DIMTAD
 70
     1
  9
$DIMZIN
 70
     0
  9
$DIMBLK
  1

  9
$DIMASO
 70
     1
  9
$DIMSHO
 70
     0
  9
$DIMPOST
  1

  9
$DIMAPOST
  1

  9
$DIMALT
 70
     0
  9
$DIMALTD
 70
     2
  9
$DIMALTF
 40
25.399999999999999
  9
$DIMLFAC
 40
1.0
  9
$DIMTOFL
 70
     0
  9
$DIMTVP
 40
1.6000000000000001
  9
$DIMTIX
 70
     1
  9
$DIMSOXD
 70
     0
  9
$DIMSAH
 70
     0
  9
$DIMBLK1
  1

  9
$DIMBLK2
  1

  9
$DIMSTYLE
  2
STANDARD
  9
$DIMCLRD
 70
     0
  9
$DIMCLRE
 70
     0
  9
$DIMCLRT
 70
     0
  9
$DIMTFAC
 40
1.0
  9
$DIMGAP
 40
0.09
  9
$LUNITS
 70
     2
  9
$LUPREC
 70
     4
  9
$SKETCHINC
 40
0.1
  9
$FILLETRAD
 40
1.8999999999999999
  9
$AUNITS
 70
     0
  9
$AUPREC
 70
     0
  9
$MENU
  1
E:\r13\win\SUPPORT\ACAD
  9
$ELEVATION
 40
0.0
  9
$PELEVATION
 40
0.0
  9
$THICKNESS
 40
0.0
  9
$LIMCHECK
 70
     0
  9
$BLIPMODE
 70
     0
  9
$CHAMFERA
 40
0.0
  9
$CHAMFERB
 40
0.0
  9
$SKPOLY
 70
     0
  9
$TDCREATE
 40
2451582.6903199079
  9
$TDUPDATE
 40
2456598.4967755899
  9
$TDINDWG
 40
0.0055559722
  9
$TDUSRTIMER
 40
0.0055559722
  9
$USRTIMER
 70
     1
  9
$ANGBASE
 50
0.0
  9
$ANGDIR
 70
     0
  9
$PDMODE
 70
     0
  9
$PDSIZE
 40
0.0
  9
$PLINEWID
 40
0.0
  9
$COORDS
 70
     1
  9
$SPLFRAME
 70
     0
  9
$SPLINETYPE
 70
     6
  9
$SPLINESEGS
 70
     8
  9
$ATTDIA
 70
     0
  9
$ATTREQ
 70
     1
  9
$HANDLING
 70
     1
  9
$HANDSEED
  5
BDB
  9
$SURFTAB1
 70
     6
  9
$SURFTAB2
 70
     6
  9
$SURFTYPE
 70
     6
  9
$SURFU
 70
     6
  9
$SURFV
 70
     6
  9
$UCSNAME
  2

  9
$UCSORG
 10
0.0
 20
0.0
 30
0.0
  9
$UCSXDIR
 10
1.0
 20
0.0
 30
0.0
  9
$UCSYDIR
 10
0.0
 20
1.0
 30
0.0
  9
$PUCSNAME
  2

  9
$PUCSORG
 10
0.0
 20
0.0
 30
0.0
  9
$PUCSXDIR
 10
1.0
 20
0.0
 30
0.0
  9
$PUCSYDIR
 10
0.0
 20
1.0
 30
0.0
  9
$USERI1
 70
     0
  9
$USERI2
 70
     1
  9
$USERI3
 70
     1
  9
$USERI4
 70
     0
  9
$USERI5
 70
     0
  9
$USERR1
 40
0.0
  9
$USERR2
 40
0.0
  9
$USERR3
 40
0.0
  9
$USERR4
 40
0.0
  9
$USERR5
 40
0.0
  9
$WORLDVIEW
 70
     1
  9
$SHADEDGE
 70
     3
  9
$SHADEDIF
 70
    70
  9
$TILEMODE
 70
     1
  9
$MAXACTVP
 70
    16
  9
$PLIMCHECK
 70
     0
  9
$PEXTMIN
 10
1.0000000000000000E+020
 20
1.0000000000000000E+020
 30
1.0000000000000000E+020
  9
$PEXTMAX
 10
-1.0000000000000000E+020
 20
-1.0000000000000000E+020
 30
-1.0000000000000000E+020
  9
$PLIMMIN
 10
0.0
 20
0.0
  9
$PLIMMAX
 10
12.0
 20
9.0
  9
$UNITMODE
 70
     0
  9
$VISRETAIN
 70
     0
  9
$PLINEGEN
 70
     0
  9
$PSLTSCALE
 70
     0
  0
ENDSEC
  0
SECTION
  2
TABLES
  0
TABLE
  2
VPORT
 70
     1
  0
VPORT
  2
*ACTIVE
 70
     0
 10
0.0
 20
0.0
 11
1.0
 21
1.0
 12
93.746889187697406
 22
86.945179616803841
 13
0.0
 23
0.0
 14
5.0
 24
5.0
 15
5.0
 25
5.0
 16
0.0
 26
0.0
 36
1.0
 17
0.0
 27
0.0
 37
0.0
 40
181.39739258337829
 41
1.7807262569832401
 42
50.0
 43
0.0
 44
0.0
 50
0.0
 51
0.0
 71
     0
 72
   500
 73
     1
 74
     0
 75
     0
 76
     0
 77
     0
 78
     2
  0
ENDTAB
  0
TABLE
  2
LTYPE
 70
     4
  0
LTYPE
  2
CONTINUOUS
 70
     0
  3
Solid Line
 72
    65
 73
     0
 40
0.0
  0
LTYPE
  2
CENTER
 70
     0
  3
____ _ ____ _ ____ _ ____ _ ____ _ ____ _ ____
 72
    65
 73
     4
 40
2.0
 49
1.25
 49
-0.25
 49
0.25
 49
-0.25
  0
LTYPE
  2
HIDDEN
 70
     0
  3
_ _ _ _ _ _ _ _ _ _ _ _ _ _ _ _ _ _ _ _ _ _ _
 72
    65
 73
     2
 40
0.375
 49
0.25
 49
-0.125
  0
LTYPE
  2
PHANTOM2
 70
     0
  3
___ _ _ ___ _ _ ___ _ _ ___ _ _
 72
    65
 73
     6
 40
1.25
 49
0.625
 49
-0.125
 49
0.125
 49
-0.125
 49
0.125
 49
-0.125
  0
ENDTAB
  0
TABLE
  2
LAYER
 70
     4
  0
LAYER
  2
0
 70
     0
 62
     7
  6
CONTINUOUS
  0
LAYER
  2
1
 70
     0
 62
     1
  6
CENTER
  0
LAYER
  2
2
 70
     0
 62
     2
  6
HIDDEN
  0
LAYER
  2
ITTEN
 70
     0
 62
     1
  6
CENTER
  0
ENDTAB
  0
TABLE
  2
STYLE
 70
     2
  0
STYLE
  2
STANDARD
 70
     0
 40
0.0
 41
1.0
 50
0.0
 71
     0
 42
4.000000000000048
  3
TXT
  4
BIGFONT
  0
STYLE
  2
STANDARD1
 70
     0
 40
0.0
 41
1.0
 50
0.0
 71
     0
 42
3.0
  3
txt
  4

  0
ENDTAB
  0
TABLE
  2
VIEW
 70
     1
  0
VIEW
  2
ALL
 70
     0
 40
135.0
 10
110.4957983193277
 20
67.5
 41
0.0
 11
0.0
 21
0.0
 31
1.0
 12
0.0
 22
0.0
 32
0.0
 42
0.0
 43
0.0
 44
0.0
 50
0.0
 71
     0
  0
ENDTAB
  0
TABLE
  2
UCS
 70
     0
  0
ENDTAB
  0
TABLE
  2
APPID
 70
     6
  0
APPID
  2
ACAD
 70
     0
  0
APPID
  2
GENIUS_GENFIL_13
 70
     0
  0
APPID
  2
GENIUS_GENODEF_13
 70
     0
  0
APPID
  2
GENIUS_GENOBJ-N-CHA_13
 70
     0
  0
APPID
  2
ACAD_MLEADERVER
 70
     0
  0
APPID
  2
ACAD_NAV_VCDISPLAY
 70
     0
  0
ENDTAB
  0
TABLE
  2
DIMSTYLE
 70
     1
  0
DIMSTYLE
  2
STANDARD
 70
     0
  3

  4

  5

  6

  7

 40
1.0
 41
0.18
 42
0.0625
 43
0.38
 44
0.18
 45
0.0
 46
0.0
 47
0.0
 48
0.0
140
0.18
141
0.09
142
0.0
143
25.399999999999999
144
1.0
145
0.0
146
1.0
147
0.09
 71
     0
 72
     0
 73
     1
 74
     1
 75
     0
 76
     0
 77
     0
 78
     0
170
     0
171
     2
172
     0
173
     0
174
     0
175
     0
176
     0
177
     0
178
     0
  0
ENDTAB
  0
ENDSEC
  0
SECTION
  2
BLOCKS
  0
BLOCK
  8
0
  2
$MODEL_SPACE
 70
     0
 10
0.0
 20
0.0
 30
0.0
  3
$MODEL_SPACE
  1

  0
ENDBLK
  5
A2B
  8
0
  0
BLOCK
 67
     1
  8
0
  2
$PAPER_SPACE
 70
     0
 10
0.0
 20
0.0
 30
0.0
  3
$PAPER_SPACE
  1

  0
ENDBLK
  5
A29
 67
     1
  8
0
  0
BLOCK
  8
0
  2
STDGX5
 70
     0
 10
0.0
 20
0.0
 30
0.0
  3
STDGX5
  1

  0
ENDBLK
  5
3DA
  8
0
  0
BLOCK
  8
0
  2
BATU
 70
     0
 10
0.0
 20
0.0
 30
0.0
  3
BATU
  1

  0
LINE
  5
A36
  8
ITTEN
 10
0.5
 20
0.0
 30
0.0
 11
-0.5
 21
0.0
 31
0.0
  0
LINE
  5
A37
  8
ITTEN
 10
0.0
 20
0.5
 30
0.0
 11
0.0
 21
-0.5
 31
0.0
  0
ENDBLK
  5
A39
  8
0
  0
ENDSEC
  0
SECTION
  2
ENTITIES
  0
INSERT
  5
404
  8
0
  2
STDGX5
 10
0.0
 20
0.0
 30
0.0
 41
0.125
 42
0.125
 43
0.125
  0
INSERT
  5
405
  8
0
  2
STDGX5
 10
0.0
 20
0.0
 30
0.0
 41
0.125
 42
0.125
 43
0.125
  0
INSERT
  5
406
  8
0
  2
STDGX5
 10
34.375
 20
0.0
 30
0.0
 41
0.125
 42
0.125
 43
0.125
  0
INSERT
  5
407
  8
0
  2
STDGX5
 10
34.375
 20
0.0
 30
0.0
 41
0.125
 42
0.125
 43
0.125
  0
INSERT
  5
408
  8
0
  2
STDGX5
 10
0.0
 20
0.0
 30
0.0
 41
0.25
 42
0.25
 43
0.25
  0
INSERT
  5
409
  8
0
  2
STDGX5
 10
0.0
 20
0.0
 30
0.0
 41
0.25
 42
0.25
 43
0.25
  0
INSERT
  5
40A
  8
0
  2
STDGX5
 10
68.75
 20
0.0
 30
0.0
 41
0.25
 42
0.25
 43
0.25
  0
INSERT
  5
40B
  8
0
  2
STDGX5
 10
68.75
 20
0.0
 30
0.0
 41
0.25
 42
0.25
 43
0.25
  0
INSERT
  5
40D
  8
0
  2
STDGX5
 10
-17.5
 20
-50.0
 30
0.0
 41
0.1666666666666666
 42
0.1666666666666666
 43
0.1666666666666666
  0
INSERT
  5
40E
  8
0
  2
STDGX5
 10
-17.5
 20
-50.0
 30
0.0
 41
0.1666666666666666
 42
0.1666666666666666
 43
0.1666666666666666
  0
INSERT
  5
40F
  8
0
  2
STDGX5
 10
28.333333333333321
 20
-50.0
 30
0.0
 41
0.1666666666666666
 42
0.1666666666666666
 43
0.1666666666666666
  0
INSERT
  5
410
  8
0
  2
STDGX5
 10
28.333333333333321
 20
-50.0
 30
0.0
 41
0.1666666666666666
 42
0.1666666666666666
 43
0.1666666666666666
  0
INSERT
  5
412
  8
0
  2
STDGX5
 10
-17.5
 20
-50.0
 30
0.0
 41
0.1666666666666666
 42
0.1666666666666666
 43
0.1666666666666666
  0
INSERT
  5
413
  8
0
  2
STDGX5
 10
-17.5
 20
-50.0
 30
0.0
 41
0.1666666666666666
 42
0.1666666666666666
 43
0.1666666666666666
  0
INSERT
  5
414
  8
0
  2
STDGX5
 10
28.333333333333329
 20
-50.0
 30
0.0
 41
0.1666666666666666
 42
0.1666666666666666
 43
0.1666666666666666
  0
INSERT
  5
415
  8
0
  2
STDGX5
 10
28.333333333333329
 20
-50.0
 30
0.0
 41
0.1666666666666666
 42
0.1666666666666666
 43
0.1666666666666666
  0
INSERT
  5
416
  8
0
  2
STDGX5
 10
0.0
 20
0.0
 30
0.0
 41
0.5
 42
0.5
 43
0.5
  0
INSERT
  5
417
  8
0
  2
STDGX5
 10
0.0
 20
0.0
 30
0.0
 41
0.5
 42
0.5
 43
0.5
  0
INSERT
  5
418
  8
0
  2
STDGX5
 10
137.5
 20
0.0
 30
0.0
 41
0.5
 42
0.5
 43
0.5
  0
INSERT
  5
419
  8
0
  2
STDGX5
 10
137.5
 20
0.0
 30
0.0
 41
0.5
 42
0.5
 43
0.5
  0
LINE
  5
9AE
  8
1
 10
89.456816567294894
 20
73.088553382883234
 30
0.0
 11
19.45681656729445
 21
73.088553382883092
 31
0.0
  0
ARC
  5
9AF
  8
0
 10
73.778480752346866
 20
79.366542640604621
 30
0.0
 40
9.6839999999999993
 50
316.75174968626328
 51
79.248250313736776
  0
LINE
  5
9B0
  8
1
 10
54.456816567294652
 20
108.0885533828833
 30
0.0
 11
54.456816567294652
 21
38.088553382882957
 31
0.0
  0
ARC
  5
9B1
  8
0
 10
66.398261752868564
 20
56.652564125161803
 30
0.0
 40
9.6839999999999993
 50
244.7517496862674
 51
7.2482503137368548
  0
ARC
  5
9B2
  8
0
 10
42.51537138172074
 20
56.652564125161803
 30
0.0
 40
9.6839999999999993
 50
172.75174968626311
 51
295.2482503137328
  0
ARC
  5
9B3
  8
0
 10
79.001247594089705
 20
106.8710644964158
 30
0.0
 40
18.312000000000001
 50
208.7517496862632
 51
259.24825031373678
  0
ARC
  5
9B4
  8
0
 10
29.912385540499429
 20
106.8710644964157
 30
0.0
 40
18.312000000000001
 50
280.75174968626328
 51
331.24825031373678
  0
ARC
  5
9B5
  8
0
 10
35.135152382242381
 20
79.366542640604621
 30
0.0
 40
9.6839999999999993
 50
100.7517496862633
 51
223.24825031373669
  0
CIRCLE
  5
9B6
  8
0
 10
54.456816567294652
 20
73.088553382883163
 30
0.0
 40
20.0
  0
ARC
  5
9B7
  8
0
 10
14.743092931412599
 20
60.184782362834767
 30
0.0
 40
18.312000000000001
 50
352.75174968626328
 51
43.24825031373674
  0
ARC
  5
9B8
  8
0
 10
94.170540203176643
 20
60.184782362834937
 30
0.0
 40
18.312000000000001
 50
136.7517496862632
 51
187.24825031373669
  0
ARC
  5
9B9
  8
0
 10
54.456816567294652
 20
31.331073195914879
 30
0.0
 40
18.312000000000001
 50
64.751749686267232
 51
115.2482503137328
  0
ARC
  5
9BA
  8
0
 10
54.456816567294652
 20
93.404553382883194
 30
0.0
 40
9.6839999999999993
 50
28.751749686263341
 51
151.2482503137368
  0
ARC
  5
9BB
  8
0
 10
184.51428353582369
 20
89.894588236906813
 30
0.0
 40
59.059722944273361
 50
170.1951675759876
 51
187.59622906631219
  0
LINE
  5
9BC
  8
0
 10
140.31187727879791
 20
96.876083383886922
 30
0.0
 11
140.31187727879831
 21
73.088553382883163
 31
0.0
1001
ACAD
1000
ASC_BOUNDS
1002
{
1070
    19
1002
}
  0
LINE
  5
9BD
  8
0
 10
124.80788367879801
 20
93.019552755719019
 30
0.0
 11
124.80788367879789
 21
53.157554010048038
 31
0.0
1001
ACAD
1000
ASC_BOUNDS
1002
{
1070
    19
1002
}
  0
LINE
  5
9BE
  8
0
 10
138.27152161449521
 20
48.60339264686683
 30
0.0
 11
138.27152161449521
 21
102.2181298879856
 31
0.0
  0
LINE
  5
9BF
  8
1
 10
119.80788367879801
 20
73.088553382883163
 30
0.0
 11
166.31186887879821
 21
73.088553382883163
 31
0.0
  0
LINE
  5
9C0
  8
0
 10
127.32664010873771
 20
82.318834444376179
 30
0.0
 11
137.1504485649007
 21
82.318834444376179
 31
0.0
  0
LINE
  5
9C1
  8
0
 10
127.77981564683969
 20
70.205706302252395
 30
0.0
 11
136.8691115376499
 21
70.205706302252395
 31
0.0
  0
LINE
  5
9C2
  8
0
 10
127.8578664185214
 20
53.710772886815107
 30
0.0
 11
137.0573699985398
 21
53.710772886815107
 31
0.0
  0
ARC
  5
9C3
  8
0
 10
128.7098593920133
 20
49.008564125161797
 30
0.0
 40
2.04
 50
195.00413637002461
 51
270.0
1001
ACAD
1000
ASC_BOUNDS
1002
{
1070
    19
1002
}
  0
ARC
  5
9C4
  8
0
 10
116.85576258639
 20
49.82954457477058
 30
0.0
 40
10.85892633630068
 50
350.16338682968791
 51
29.001654949562798
  0
LINE
  5
9C5
  8
0
 10
124.80788367879801
 20
80.708516737412864
 30
0.0
 11
124.80788367879801
 21
67.420982536409099
 31
0.0
  0
ARC
  5
9C6
  8
0
 10
159.6384717308064
 20
62.102384424226443
 30
0.0
 40
34.01518262918102
 50
169.45666511943611
 51
191.8896448791825
  0
ARC
  5
9C7
  8
0
 10
159.5624822724493
 20
64.772866868384654
 30
0.0
 40
36.64420303680896
 50
198.4801113583469
 51
206.398488421308
1001
ACAD
1000
ASC_BOUNDS
1002
{
1070
    19
1002
}
  0
ARC
  5
9C8
  8
0
 10
93.264093976077376
 20
74.670957160049454
 30
0.0
 40
33.539034875719572
 50
349.09578106302439
 51
12.775361943606731
  0
LINE
  5
9C9
  8
2
 10
133.81186887879821
 20
78.588553382883163
 30
0.0
 11
133.81186887879821
 21
67.588553382883148
 31
0.0
  0
LINE
  5
9CA
  8
2
 10
160.6334823125004
 20
67.963553382883163
 30
0.0
 11
161.31186887879821
 21
66.788553382883151
 31
0.0
  0
LINE
  5
9CB
  8
2
 10
141.31186887879821
 20
67.088553382883163
 30
0.0
 11
141.31186887879821
 21
79.088553382883163
 31
0.0
  0
LINE
  5
9CC
  8
0
 10
161.0118688787982
 20
73.088553382883163
 30
0.0
 11
161.011868878798
 21
63.588557182883157
 31
0.0
1001
ACAD
1000
ASC_BOUNDS
1002
{
1070
    19
1002
}
  0
LINE
  5
9CD
  8
0
 10
161.31186887879821
 20
73.088553382883163
 30
0.0
 11
161.31186887879821
 21
65.588553382883163
 31
0.0
  0
LINE
  5
9CE
  8
0
 10
160.011869278798
 20
83.588549182883185
 30
0.0
 11
160.011869278798
 21
62.588557582883247
 31
0.0
  0
LINE
  5
9CF
  8
0
 10
141.31186887879821
 20
67.088553382883163
 30
0.0
 11
139.56186887879821
 21
67.963553382883163
 31
0.0
  0
LINE
  5
9D0
  8
0
 10
140.31187727879811
 20
51.588561982883789
 30
0.0
 11
140.31187727879791
 21
73.088553382883163
 31
0.0
1001
ACAD
1000
ASC_BOUNDS
1002
{
1070
    19
1002
}
  0
LINE
  5
9D1
  8
2
 10
161.13866379804131
 20
67.088553382883163
 30
0.0
 11
141.31186887879821
 21
67.088553382883163
 31
0.0
  0
LINE
  5
9D2
  8
2
 10
161.01186887879811
 20
65.588553382883219
 30
0.0
 11
135.81186887879821
 21
65.588553382883163
 31
0.0
  0
LINE
  5
9D3
  8
0
 10
140.31187727879799
 20
62.588557582883091
 30
0.0
 11
160.011869278798
 21
62.588557582883247
 31
0.0
1001
ACAD
1000
ASC_BOUNDS
1002
{
1070
    19
1002
}
  0
ARC
  5
9D4
  8
0
 10
138.311878078798
 20
48.968563325161831
 30
0.0
 40
1.9999991999999991
 50
270.0
 51
359.99999999999972
  0
LINE
  5
9D5
  8
0
 10
128.7098593920133
 20
46.968564125161713
 30
0.0
 11
138.311878078798
 21
46.968564125161713
 31
0.0
  0
LINE
  5
9D6
  8
0
 10
140.31187727879811
 20
51.588561982883789
 30
0.0
 11
140.31187727879811
 21
48.968563325161831
 31
0.0
1001
ACAD
1000
ASC_BOUNDS
1002
{
1070
    19
1002
}
  0
LINE
  5
9D7
  8
2
 10
133.81186887879821
 20
67.588553382883163
 30
0.0
 11
135.81186887879821
 21
65.588553382883163
 31
0.0
1001
GENIUS_GENFIL_13
1070
     0
1040
2.0
1040
2.0
1040
20.0
1040
0.0
1002
{
1002
}
1001
GENIUS_GENODEF_13
1002
{
1000
HIER
1070
     0
1002
}
1002
{
1000
MANEDIT
1070
     0
1002
}
1002
{
1000
NOSEL
1070
     0
1002
}
1002
{
1000
BEHIND
1070
     0
1002
}
1002
{
1000
REACTOR
1002
}
1001
GENIUS_GENOBJ-N-CHA_13
1002
{
1000
OWNER
1000
GEN
1002
}
  0
LINE
  5
9D8
  8
0
 10
161.31186887879821
 20
65.588553382883163
 30
0.0
 11
161.01186887879811
 21
65.588553382883163
 31
0.0
  0
LINE
  5
9D9
  8
0
 10
161.011868878798
 20
63.888557182883112
 30
0.0
 11
161.011868878798
 21
63.888557182883112
 31
0.0
  0
LINE
  5
9DA
  8
0
 10
161.011868878798
 20
63.588557182883221
 30
0.0
 11
160.011869278798
 21
62.588557582883141
 31
0.0
1001
ACAD
1000
ASC_BOUNDS
1002
{
1070
    19
1002
}
  0
LINE
  5
9DB
  8
2
 10
160.6334823125004
 20
67.963553382883163
 30
0.0
 11
137.98688457335231
 21
67.963553382883163
 31
0.0
  0
LINE
  5
9DC
  8
2
 10
161.13866379804131
 20
79.088553382883163
 30
0.0
 11
141.31186887879821
 21
79.088553382883163
 31
0.0
  0
LINE
  5
9DD
  8
2
 10
161.01186887879811
 20
80.588553382883106
 30
0.0
 11
135.81186887879821
 21
80.588553382883148
 31
0.0
  0
LINE
  5
9DE
  8
2
 10
160.6334823125004
 20
78.213553382883163
 30
0.0
 11
137.98688457335231
 21
78.213553382883163
 31
0.0
  0
LINE
  5
9DF
  8
0
 10
140.31187727879811
 20
83.588549182883241
 30
0.0
 11
160.011869278798
 21
83.588549182883185
 31
0.0
1001
ACAD
1000
ASC_BOUNDS
1002
{
1070
    19
1002
}
  0
LINE
  5
9E0
  8
2
 10
133.81186887879821
 20
78.588553382883163
 30
0.0
 11
135.81186887879821
 21
80.588553382883148
 31
0.0
1001
GENIUS_GENFIL_13
1070
     0
1040
2.0
1040
2.0
1040
20.0
1040
0.0
1002
{
1002
}
1001
GENIUS_GENODEF_13
1002
{
1000
HIER
1070
     0
1002
}
1002
{
1000
MANEDIT
1070
     0
1002
}
1002
{
1000
NOSEL
1070
     0
1002
}
1002
{
1000
BEHIND
1070
     0
1002
}
1002
{
1000
REACTOR
1002
}
1001
GENIUS_GENOBJ-N-CHA_13
1002
{
1000
OWNER
1000
GEN
1002
}
  0
LINE
  5
9E1
  8
2
 10
141.31186887879821
 20
79.088553382883163
 30
0.0
 11
139.56186887879821
 21
78.213553382883163
 31
0.0
  0
LINE
  5
9E2
  8
2
 10
137.98688457335231
 20
67.963553382883163
 30
0.0
 11
137.98688457335231
 21
78.213553382883163
 31
0.0
  0
LINE
  5
9E3
  8
2
 10
135.02796444375551
 20
73.088553382883163
 30
0.0
 11
137.98688457335231
 21
78.213553382883163
 31
0.0
  0
LINE
  5
9E4
  8
2
 10
135.02796444375551
 20
73.088553382883163
 30
0.0
 11
137.98688457335231
 21
67.963553382883163
 31
0.0
  0
LINE
  5
9E5
  8
2
 10
160.6334823125004
 20
78.213553382883163
 30
0.0
 11
161.31186887879821
 21
79.388553382883174
 31
0.0
  0
LINE
  5
9E6
  8
0
 10
161.0118688787982
 20
73.088553382883163
 30
0.0
 11
161.011868878798
 21
82.588549582883147
 31
0.0
1001
ACAD
1000
ASC_BOUNDS
1002
{
1070
    19
1002
}
  0
LINE
  5
9E7
  8
0
 10
161.31186887879821
 20
73.088553382883163
 30
0.0
 11
161.31186887879821
 21
80.588553382883148
 31
0.0
  0
LINE
  5
9E8
  8
2
 10
160.6334823125004
 20
78.213553382883163
 30
0.0
 11
160.6334823125004
 21
67.963553382883163
 31
0.0
  0
LINE
  5
9E9
  8
0
 10
161.31186887879821
 20
80.588553382883148
 30
0.0
 11
161.01186887879811
 21
80.588553382883148
 31
0.0
  0
LINE
  5
9EA
  8
0
 10
161.011868878798
 20
82.288549582883206
 30
0.0
 11
161.011868878798
 21
82.288549582883206
 31
0.0
  0
LINE
  5
9EB
  8
0
 10
161.011868878798
 20
82.588549582883104
 30
0.0
 11
160.011869278798
 21
83.588549182883185
 31
0.0
1001
ACAD
1000
ASC_BOUNDS
1002
{
1070
    19
1002
}
  0
LINE
  5
9EC
  8
0
 10
127.76702188425131
 20
92.081633728570566
 30
0.0
 11
137.52801603391049
 21
92.081633728570566
 31
0.0
  0
ARC
  5
9ED
  8
0
 10
128.70985939201319
 20
101.0485413828832
 30
0.0
 40
2.04
 50
90.0
 51
164.99586362997539
1001
ACAD
1000
ASC_BOUNDS
1002
{
1070
    19
1002
}
  0
ARC
  5
9EE
  8
0
 10
233.02783037994931
 20
73.088553382883219
 30
0.0
 40
110.04000000000001
 50
164.99586362997539
 51
169.56470295968219
1001
ACAD
1000
ASC_BOUNDS
1002
{
1070
    19
1002
}
  0
ARC
  5
9EF
  8
0
 10
138.311878078798
 20
101.0885421828831
 30
0.0
 40
1.9999991999999991
 50
0.0000000000002544
 51
90.0
1001
ACAD
1000
ASC_BOUNDS
1002
{
1070
    19
1002
}
  0
LINE
  5
9F0
  8
0
 10
140.31187727879791
 20
96.876083383886922
 30
0.0
 11
140.31187727879791
 21
101.0885421828831
 31
0.0
1001
ACAD
1000
ASC_BOUNDS
1002
{
1070
    19
1002
}
  0
LINE
  5
9F1
  8
0
 10
128.70985939201319
 20
103.08854138288319
 30
0.0
 11
138.311878078798
 21
103.08854138288309
 31
0.0
1001
ACAD
1000
ASC_BOUNDS
1002
{
1070
    19
1002
}
  0
INSERT
  5
A3A
  8
0
  2
BATU
 10
0.0
 20
0.0
 30
0.0
 41
0.001
 42
0.001
 43
0.001
  0
TEXT
  5
B44
  8
0
 62
     3
 10
0.0
 20
0.0
 30
0.0
 40
10.0
  1
SFK60B
  7
STANDARD1
  0
ENDSEC
  0
EOF
