  0
SECTION
  2
HEADER
  9
$ACADVER
  1
AC1009
  9
$INSBASE
 10
0.0
 20
0.0
 30
0.0
  9
$EXTMIN
 10
0.0
 20
-2.960436562073669
 30
0.0
  9
$EXTMAX
 10
150.72107520392441
 20
90.828438230303775
 30
0.0
  9
$LIMMIN
 10
0.0
 20
0.0
  9
$LIMMAX
 10
187.5
 20
135.0
  9
$ORTHOMODE
 70
     0
  9
$REGENMODE
 70
     1
  9
$FILLMODE
 70
     1
  9
$QTEXTMODE
 70
     0
  9
$MIRRTEXT
 70
     0
  9
$DRAGMODE
 70
     2
  9
$LTSCALE
 40
5.0
  9
$OSMODE
 70
    55
  9
$ATTMODE
 70
     1
  9
$TEXTSIZE
 40
4.000000000000048
  9
$TRACEWID
 40
0.05
  9
$TEXTSTYLE
  7
STANDARD
  9
$CLAYER
  8
0
  9
$CELTYPE
  6
BYLAYER
  9
$CECOLOR
 62
   256
  9
$DIMSCALE
 40
0.5
  9
$DIMASZ
 40
3.0
  9
$DIMEXO
 40
2.0
  9
$DIMDLI
 40
0.38
  9
$DIMRND
 40
0.0
  9
$DIMDLE
 40
0.0
  9
$DIMEXE
 40
2.0
  9
$DIMTP
 40
0.0
  9
$DIMTM
 40
0.0
  9
$DIMTXT
 40
3.0
  9
$DIMCEN
 40
0.09
  9
$DIMTSZ
 40
0.0
  9
$DIMTOL
 70
     0
  9
$DIMLIM
 70
     0
  9
$DIMTIH
 70
     0
  9
$DIMTOH
 70
     0
  9
$DIMSE1
 70
     0
  9
$DIMSE2
 70
     0
  9
$DIMTAD
 70
     1
  9
$DIMZIN
 70
     0
  9
$DIMBLK
  1

  9
$DIMASO
 70
     0
  9
$DIMSHO
 70
     0
  9
$DIMPOST
  1

  9
$DIMAPOST
  1

  9
$DIMALT
 70
     0
  9
$DIMALTD
 70
     2
  9
$DIMALTF
 40
25.399999999999999
  9
$DIMLFAC
 40
1.0
  9
$DIMTOFL
 70
     0
  9
$DIMTVP
 40
1.6000000000000001
  9
$DIMTIX
 70
     1
  9
$DIMSOXD
 70
     0
  9
$DIMSAH
 70
     0
  9
$DIMBLK1
  1

  9
$DIMBLK2
  1

  9
$DIMSTYLE
  2
STANDARD
  9
$DIMCLRD
 70
     0
  9
$DIMCLRE
 70
     0
  9
$DIMCLRT
 70
     0
  9
$DIMTFAC
 40
1.0
  9
$DIMGAP
 40
0.09
  9
$LUNITS
 70
     2
  9
$LUPREC
 70
     4
  9
$SKETCHINC
 40
0.1
  9
$FILLETRAD
 40
1.8999999999999999
  9
$AUNITS
 70
     0
  9
$AUPREC
 70
     0
  9
$MENU
  1
E:\r13\win\SUPPORT\ACAD
  9
$ELEVATION
 40
0.0
  9
$PELEVATION
 40
0.0
  9
$THICKNESS
 40
0.0
  9
$LIMCHECK
 70
     0
  9
$BLIPMODE
 70
     0
  9
$CHAMFERA
 40
0.0
  9
$CHAMFERB
 40
0.0
  9
$SKPOLY
 70
     0
  9
$TDCREATE
 40
2451582.69766493
  9
$TDUPDATE
 40
2456598.4962196532
  9
$TDINDWG
 40
0.001045162
  9
$TDUSRTIMER
 40
0.001045162
  9
$USRTIMER
 70
     1
  9
$ANGBASE
 50
0.0
  9
$ANGDIR
 70
     0
  9
$PDMODE
 70
     0
  9
$PDSIZE
 40
0.0
  9
$PLINEWID
 40
0.0
  9
$COORDS
 70
     1
  9
$SPLFRAME
 70
     0
  9
$SPLINETYPE
 70
     6
  9
$SPLINESEGS
 70
     8
  9
$ATTDIA
 70
     0
  9
$ATTREQ
 70
     1
  9
$HANDLING
 70
     1
  9
$HANDSEED
  5
8A1
  9
$SURFTAB1
 70
     6
  9
$SURFTAB2
 70
     6
  9
$SURFTYPE
 70
     6
  9
$SURFU
 70
     6
  9
$SURFV
 70
     6
  9
$UCSNAME
  2

  9
$UCSORG
 10
0.0
 20
0.0
 30
0.0
  9
$UCSXDIR
 10
1.0
 20
0.0
 30
0.0
  9
$UCSYDIR
 10
0.0
 20
1.0
 30
0.0
  9
$PUCSNAME
  2

  9
$PUCSORG
 10
0.0
 20
0.0
 30
0.0
  9
$PUCSXDIR
 10
1.0
 20
0.0
 30
0.0
  9
$PUCSYDIR
 10
0.0
 20
1.0
 30
0.0
  9
$USERI1
 70
     0
  9
$USERI2
 70
     1
  9
$USERI3
 70
     1
  9
$USERI4
 70
     0
  9
$USERI5
 70
     0
  9
$USERR1
 40
0.0
  9
$USERR2
 40
0.0
  9
$USERR3
 40
0.0
  9
$USERR4
 40
0.0
  9
$USERR5
 40
0.0
  9
$WORLDVIEW
 70
     1
  9
$SHADEDGE
 70
     3
  9
$SHADEDIF
 70
    70
  9
$TILEMODE
 70
     1
  9
$MAXACTVP
 70
    16
  9
$PLIMCHECK
 70
     0
  9
$PEXTMIN
 10
1.0000000000000000E+020
 20
1.0000000000000000E+020
 30
1.0000000000000000E+020
  9
$PEXTMAX
 10
-1.0000000000000000E+020
 20
-1.0000000000000000E+020
 30
-1.0000000000000000E+020
  9
$PLIMMIN
 10
0.0
 20
0.0
  9
$PLIMMAX
 10
12.0
 20
9.0
  9
$UNITMODE
 70
     0
  9
$VISRETAIN
 70
     0
  9
$PLINEGEN
 70
     0
  9
$PSLTSCALE
 70
     0
  0
ENDSEC
  0
SECTION
  2
TABLES
  0
TABLE
  2
VPORT
 70
     1
  0
VPORT
  2
*ACTIVE
 70
     0
 10
0.0
 20
0.0
 11
1.0
 21
1.0
 12
93.74713919532617
 22
86.941769983850563
 13
0.0
 23
0.0
 14
5.0
 24
5.0
 15
5.0
 25
5.0
 16
0.0
 26
0.0
 36
1.0
 17
0.0
 27
0.0
 37
0.0
 40
181.41026326986619
 41
1.7807262569832401
 42
50.0
 43
0.0
 44
0.0
 50
0.0
 51
0.0
 71
     0
 72
   500
 73
     1
 74
     0
 75
     0
 76
     0
 77
     0
 78
     2
  0
ENDTAB
  0
TABLE
  2
LTYPE
 70
     3
  0
LTYPE
  2
CONTINUOUS
 70
     0
  3
Solid Line
 72
    65
 73
     0
 40
0.0
  0
LTYPE
  2
CENTER
 70
     0
  3
____ _ ____ _ ____ _ ____ _ ____ _ ____ _ ____
 72
    65
 73
     4
 40
2.0
 49
1.25
 49
-0.25
 49
0.25
 49
-0.25
  0
LTYPE
  2
PHANTOM2
 70
     0
  3
___ _ _ ___ _ _ ___ _ _ ___ _ _
 72
    65
 73
     6
 40
1.25
 49
0.625
 49
-0.125
 49
0.125
 49
-0.125
 49
0.125
 49
-0.125
  0
ENDTAB
  0
TABLE
  2
LAYER
 70
     3
  0
LAYER
  2
0
 70
     0
 62
     7
  6
CONTINUOUS
  0
LAYER
  2
1
 70
     0
 62
     1
  6
CENTER
  0
LAYER
  2
3
 70
     0
 62
     3
  6
CONTINUOUS
  0
ENDTAB
  0
TABLE
  2
STYLE
 70
     2
  0
STYLE
  2
STANDARD
 70
     0
 40
0.0
 41
1.0
 50
0.0
 71
     0
 42
4.000000000000048
  3
TXT
  4
BIGFONT
  0
STYLE
  2
STANDARD1
 70
     0
 40
0.0
 41
1.0
 50
0.0
 71
     0
 42
3.0
  3
txt
  4

  0
ENDTAB
  0
TABLE
  2
VIEW
 70
     1
  0
VIEW
  2
ALL
 70
     0
 40
135.0
 10
110.4957983193277
 20
67.5
 41
0.0
 11
0.0
 21
0.0
 31
1.0
 12
0.0
 22
0.0
 32
0.0
 42
0.0
 43
0.0
 44
0.0
 50
0.0
 71
     0
  0
ENDTAB
  0
TABLE
  2
UCS
 70
     0
  0
ENDTAB
  0
TABLE
  2
APPID
 70
     3
  0
APPID
  2
ACAD
 70
     0
  0
APPID
  2
ACAD_MLEADERVER
 70
     0
  0
APPID
  2
ACAD_NAV_VCDISPLAY
 70
     0
  0
ENDTAB
  0
TABLE
  2
DIMSTYLE
 70
     1
  0
DIMSTYLE
  2
STANDARD
 70
     0
  3

  4

  5

  6

  7

 40
1.0
 41
0.18
 42
0.0625
 43
0.38
 44
0.18
 45
0.0
 46
0.0
 47
0.0
 48
0.0
140
0.18
141
0.09
142
0.0
143
25.399999999999999
144
1.0
145
0.0
146
1.0
147
0.09
 71
     0
 72
     0
 73
     1
 74
     1
 75
     0
 76
     0
 77
     0
 78
     0
170
     0
171
     2
172
     0
173
     0
174
     0
175
     0
176
     0
177
     0
178
     0
  0
ENDTAB
  0
ENDSEC
  0
SECTION
  2
BLOCKS
  0
BLOCK
  8
0
  2
$MODEL_SPACE
 70
     0
 10
0.0
 20
0.0
 30
0.0
  3
$MODEL_SPACE
  1

  0
ENDBLK
  5
72E
  8
0
  0
BLOCK
 67
     1
  8
0
  2
$PAPER_SPACE
 70
     0
 10
0.0
 20
0.0
 30
0.0
  3
$PAPER_SPACE
  1

  0
ENDBLK
  5
72C
 67
     1
  8
0
  0
BLOCK
  8
0
  2
STDGX5
 70
     0
 10
0.0
 20
0.0
 30
0.0
  3
STDGX5
  1

  0
ENDBLK
  5
3DA
  8
0
  0
ENDSEC
  0
SECTION
  2
ENTITIES
  0
INSERT
  5
404
  8
0
  2
STDGX5
 10
0.0
 20
0.0
 30
0.0
 41
0.125
 42
0.125
 43
0.125
  0
INSERT
  5
405
  8
0
  2
STDGX5
 10
0.0
 20
0.0
 30
0.0
 41
0.125
 42
0.125
 43
0.125
  0
INSERT
  5
406
  8
0
  2
STDGX5
 10
34.375
 20
0.0
 30
0.0
 41
0.125
 42
0.125
 43
0.125
  0
INSERT
  5
407
  8
0
  2
STDGX5
 10
34.375
 20
0.0
 30
0.0
 41
0.125
 42
0.125
 43
0.125
  0
INSERT
  5
408
  8
0
  2
STDGX5
 10
0.0
 20
0.0
 30
0.0
 41
0.25
 42
0.25
 43
0.25
  0
INSERT
  5
409
  8
0
  2
STDGX5
 10
0.0
 20
0.0
 30
0.0
 41
0.25
 42
0.25
 43
0.25
  0
INSERT
  5
40A
  8
0
  2
STDGX5
 10
68.75
 20
0.0
 30
0.0
 41
0.25
 42
0.25
 43
0.25
  0
INSERT
  5
40B
  8
0
  2
STDGX5
 10
68.75
 20
0.0
 30
0.0
 41
0.25
 42
0.25
 43
0.25
  0
INSERT
  5
40D
  8
0
  2
STDGX5
 10
-17.5
 20
-50.0
 30
0.0
 41
0.1666666666666666
 42
0.1666666666666666
 43
0.1666666666666666
  0
INSERT
  5
40E
  8
0
  2
STDGX5
 10
-17.5
 20
-50.0
 30
0.0
 41
0.1666666666666666
 42
0.1666666666666666
 43
0.1666666666666666
  0
INSERT
  5
40F
  8
0
  2
STDGX5
 10
28.333333333333321
 20
-50.0
 30
0.0
 41
0.1666666666666666
 42
0.1666666666666666
 43
0.1666666666666666
  0
INSERT
  5
410
  8
0
  2
STDGX5
 10
28.333333333333321
 20
-50.0
 30
0.0
 41
0.1666666666666666
 42
0.1666666666666666
 43
0.1666666666666666
  0
INSERT
  5
412
  8
0
  2
STDGX5
 10
-17.5
 20
-50.0
 30
0.0
 41
0.1666666666666666
 42
0.1666666666666666
 43
0.1666666666666666
  0
INSERT
  5
413
  8
0
  2
STDGX5
 10
-17.5
 20
-50.0
 30
0.0
 41
0.1666666666666666
 42
0.1666666666666666
 43
0.1666666666666666
  0
INSERT
  5
414
  8
0
  2
STDGX5
 10
28.333333333333329
 20
-50.0
 30
0.0
 41
0.1666666666666666
 42
0.1666666666666666
 43
0.1666666666666666
  0
INSERT
  5
415
  8
0
  2
STDGX5
 10
28.333333333333329
 20
-50.0
 30
0.0
 41
0.1666666666666666
 42
0.1666666666666666
 43
0.1666666666666666
  0
INSERT
  5
416
  8
0
  2
STDGX5
 10
0.0
 20
0.0
 30
0.0
 41
0.5
 42
0.5
 43
0.5
  0
INSERT
  5
417
  8
0
  2
STDGX5
 10
0.0
 20
0.0
 30
0.0
 41
0.5
 42
0.5
 43
0.5
  0
INSERT
  5
418
  8
0
  2
STDGX5
 10
137.5
 20
0.0
 30
0.0
 41
0.5
 42
0.5
 43
0.5
  0
INSERT
  5
419
  8
0
  2
STDGX5
 10
137.5
 20
0.0
 30
0.0
 41
0.5
 42
0.5
 43
0.5
  0
ARC
  5
6B3
  8
0
 10
39.308515924162812
 20
73.185577850990569
 30
0.0
 40
5.8999999999999986
 50
98.097309163337272
 51
225.9026908366626
  0
LINE
  5
6B4
  8
1
 10
52.718412803924487
 20
90.828438230303775
 30
0.0
 11
52.718412803924473
 21
46.828438230303789
 31
0.0
  0
CIRCLE
  5
6B5
  8
0
 10
52.71841280392448
 20
68.828438230303789
 30
0.0
 40
13.0
  0
ARC
  5
6B6
  8
0
 10
66.128309683686084
 20
73.185577850990569
 30
0.0
 40
5.8999999999999986
 50
314.0973091633374
 51
81.902690836662615
  0
LINE
  5
6B8
  8
1
 10
30.71841280392448
 20
68.828438230303789
 30
0.0
 11
74.71841280392448
 21
68.828438230303789
 31
0.0
  0
ARC
  5
6B9
  8
0
 10
61.006184861248357
 20
57.421298609617047
 30
0.0
 40
5.8999999999999986
 50
242.0973091633372
 51
9.9026908366627691
  0
ARC
  5
6BA
  8
0
 10
52.718412803924437
 20
41.770198510076398
 30
0.0
 40
11.81
 50
62.09730916333735
 51
117.9026908366625
  0
ARC
  5
6BB
  8
0
 10
26.98449759852582
 20
60.466982318882287
 30
0.0
 40
11.81
 50
350.09730916333729
 51
45.902690836662629
  0
ARC
  5
6BC
  8
0
 10
44.430640746600602
 20
57.421298609616997
 30
0.0
 40
5.8999999999999986
 50
170.0973091633372
 51
297.9026908366626
  0
ARC
  5
6BD
  8
0
 10
78.452328009323125
 20
60.46698231888228
 30
0.0
 40
11.81
 50
134.0973091633376
 51
189.90269083666249
  0
ARC
  5
6BE
  8
0
 10
68.622847064468516
 20
90.719014001839014
 30
0.0
 40
11.81
 50
206.09730916332919
 51
261.9026908366626
  0
ARC
  5
6BF
  8
0
 10
52.71841280392448
 20
82.928438230303811
 30
0.0
 40
5.8999999999999986
 50
26.097309163329399
 51
153.90269083667081
  0
ARC
  5
6C0
  8
0
 10
36.813978543380387
 20
90.719014001839014
 30
0.0
 40
11.81
 50
278.0973091633374
 51
333.90269083667079
  0
LINE
  5
6C1
  8
0
 10
148.7210752039245
 20
68.828438230303789
 30
0.0
 11
148.7210752039245
 21
71.578438230303789
 31
0.0
  0
LINE
  5
6C2
  8
0
 10
128.7210752039245
 20
68.828438230303789
 30
0.0
 11
128.7210752039245
 21
73.829751397481573
 31
0.0
  0
LINE
  5
6C3
  8
0
 10
130.7210752039245
 20
68.828438230303789
 30
0.0
 11
130.7210752039245
 21
72.828438230303789
 31
0.0
  0
LINE
  5
6C4
  8
0
 10
146.55601169446339
 20
72.828438230303732
 30
0.0
 11
146.55601169446339
 21
68.829751397481573
 31
0.0
  0
LINE
  5
6C5
  8
0
 10
113.5562504747526
 20
52.514407424922332
 30
0.0
 11
113.5562504747526
 21
87.848028514642834
 31
0.0
  0
ARC
  5
6C6
  8
0
 10
83.643082271738976
 20
70.6494835468243
 30
0.0
 40
20.490263814078109
 50
347.83940152288108
 51
14.24933717245667
  0
LINE
  5
6C7
  8
0
 10
127.75440880392451
 20
76.328438230303789
 30
0.0
 11
127.75440880392451
 21
61.328438230303789
 31
0.0
  0
LINE
  5
6C8
  8
0
 10
114.7210752039245
 20
84.686791564306304
 30
0.0
 11
114.7210752039245
 21
68.828438230303789
 31
0.0
1001
ACAD
1000
ASC_BOUNDS
1002
{
1070
    19
1005
0
1002
}
  0
LINE
  5
6C9
  8
0
 10
102.71841280392449
 20
73.908413799990285
 30
0.0
 11
102.71841280392449
 21
65.050057665987765
 31
0.0
  0
LINE
  5
6CA
  8
0
 10
102.71841280392449
 20
81.828438230303789
 30
0.0
 11
102.71841280392449
 21
55.828438230303988
 31
0.0
1001
ACAD
1000
ASC_BOUNDS
1002
{
1070
    19
1005
0
1002
}
  0
LINE
  5
6CB
  8
0
 10
128.42107520392449
 20
68.828438230303789
 30
0.0
 11
128.42107520392449
 21
75.661771830303849
 31
0.0
1001
ACAD
1000
ASC_BOUNDS
1002
{
1070
    19
1005
0
1002
}
  0
LINE
  5
6D7
  8
1
 10
100.71841280392449
 20
68.828438230303775
 30
0.0
 11
150.72107520392441
 21
68.828438230303775
 31
0.0
  0
LINE
  5
6D8
  8
0
 10
114.7210752039245
 20
61.328438230303817
 30
0.0
 11
127.75440880392451
 21
61.328438230303789
 31
0.0
1001
ACAD
1000
ASC_BOUNDS
1002
{
1070
    19
1005
0
1002
}
  0
LINE
  5
6D9
  8
0
 10
104.93420427832611
 20
56.392378900592917
 30
0.0
 11
112.9917157626204
 21
56.392378900592917
 31
0.0
  0
LINE
  5
6DA
  8
0
 10
104.8749412800735
 20
67.760050136088893
 30
0.0
 11
112.9917157626204
 21
67.760050136088893
 31
0.0
  0
LINE
  5
6DB
  8
0
 10
105.29163465065029
 20
51.521298609616998
 30
0.0
 11
113.38774240392441
 21
51.521298609616998
 31
0.0
  0
ARC
  5
6DC
  8
0
 10
123.5143785101794
 20
62.150688907380918
 30
0.0
 40
20.276856812763789
 50
168.09626112672041
 51
193.42520065340639
  0
ARC
  5
6DD
  8
0
 10
96.580441129921326
 20
53.445409617407918
 30
0.0
 40
8.2450502234406908
 50
350.16338682968779
 51
29.001654949562781
  0
ARC
  5
6DE
  8
0
 10
126.0395867524085
 20
63.419699887983427
 30
0.0
 40
24.525586800131968
 50
198.03055652315251
 51
206.28302853035299
1001
ACAD
1000
ASC_BOUNDS
1002
{
1070
    19
1002
}
  0
ARC
  5
6DF
  8
0
 10
105.4019914047209
 20
52.92129860961689
 30
0.0
 40
1.399999999999999
 50
194.97118440606079
 51
270.0
  0
LINE
  5
6E0
  8
0
 10
114.7210752039245
 20
52.970084896301309
 30
0.0
 11
114.7210752039245
 21
68.828438230303789
 31
0.0
1001
ACAD
1000
ASC_BOUNDS
1002
{
1070
    19
1005
0
1002
}
  0
LINE
  5
6E1
  8
0
 10
114.7210752039245
 20
54.495110630304232
 30
0.0
 11
114.7210752039244
 21
52.854631409616992
 31
0.0
1001
ACAD
1000
ASC_BOUNDS
1002
{
1070
    19
1002
}
  0
ARC
  5
6E2
  8
0
 10
113.38774240392441
 20
52.854631409616992
 30
0.0
 40
1.3333327999999991
 50
270.0
 51
359.99999999999972
  0
LINE
  5
6E3
  8
0
 10
128.7210752039245
 20
64.828438230303775
 30
0.0
 11
146.55601169446339
 21
64.828438230303775
 31
0.0
  0
LINE
  5
6E4
  8
3
 10
130.7210752039245
 20
65.875417887190679
 30
0.0
 11
148.3694336546825
 21
65.875417887190679
 31
0.0
  0
LINE
  5
6E5
  8
3
 10
130.7210752039245
 20
65.875417887190679
 30
0.0
 11
129.67409554703761
 21
64.828438230303775
 31
0.0
  0
LINE
  5
6E6
  8
0
 10
128.7210752039245
 20
68.828438230303789
 30
0.0
 11
128.7210752039245
 21
63.827125063125997
 31
0.0
  0
LINE
  5
6E7
  8
0
 10
128.42107520392449
 20
68.828438230303846
 30
0.0
 11
128.42107520392449
 21
61.995104630303778
 31
0.0
1001
ACAD
1000
ASC_BOUNDS
1002
{
1070
    19
1005
0
1002
}
  0
LINE
  5
6E8
  8
0
 10
128.42107520392449
 20
61.995104630303778
 30
0.0
 11
127.75440880392451
 21
61.328438230303789
 31
0.0
1001
ACAD
1000
ASC_BOUNDS
1002
{
1070
    19
1005
0
1002
}
  0
LINE
  5
6E9
  8
0
 10
128.7210752039245
 20
63.827125063125997
 30
0.0
 11
128.42107520392449
 21
63.827125063125997
 31
0.0
  0
LINE
  5
6EA
  8
0
 10
130.7210752039245
 20
68.828438230303789
 30
0.0
 11
130.7210752039245
 21
64.828438230303775
 31
0.0
  0
LINE
  5
6EB
  8
0
 10
146.55601169446339
 20
64.828438230303775
 30
0.0
 11
148.7210752039245
 21
66.078438230303775
 31
0.0
  0
LINE
  5
6EC
  8
0
 10
146.55601169446339
 20
64.828438230303775
 30
0.0
 11
146.55601169446339
 21
68.829751397481573
 31
0.0
  0
LINE
  5
6ED
  8
0
 10
148.7210752039245
 20
68.828438230303789
 30
0.0
 11
148.7210752039245
 21
66.078438230303775
 31
0.0
  0
LINE
  5
6EF
  8
0
 10
114.7210752039245
 20
76.328438230303803
 30
0.0
 11
127.75440880392451
 21
76.328438230303789
 31
0.0
1001
ACAD
1000
ASC_BOUNDS
1002
{
1070
    19
1005
0
1002
}
  0
LINE
  5
6F0
  8
0
 10
104.8652271323004
 20
83.281487721249476
 30
0.0
 11
112.9917157626204
 21
83.281487721249476
 31
0.0
  0
LINE
  5
6F1
  8
0
 10
104.5308506254391
 20
75.868713389180854
 30
0.0
 11
113.63415841039991
 21
75.868713389180854
 31
0.0
  0
LINE
  5
6F2
  8
0
 10
105.4019914047209
 20
88.828430230303795
 30
0.0
 11
113.38774240392441
 21
88.828430230303795
 31
0.0
1001
ACAD
1000
ASC_BOUNDS
1002
{
1070
    19
1005
0
1002
}
  0
ARC
  5
6F3
  8
0
 10
134.1049938140774
 20
80.436494648960235
 30
0.0
 40
30.967508542751261
 50
167.8552547591996
 51
188.81105520395619
  0
ARC
  5
6F4
  8
0
 10
174.95801413172799
 20
68.828438230303718
 30
0.0
 40
73.399999999999991
 50
165.02881559393779
 51
169.79842954791539
1001
ACAD
1000
ASC_BOUNDS
1002
{
1070
    19
1002
}
  0
ARC
  5
6F5
  8
0
 10
105.4019914047209
 20
87.428430230303832
 30
0.0
 40
1.399999999999999
 50
90.0
 51
165.02881559393859
1001
ACAD
1000
ASC_BOUNDS
1002
{
1070
    19
1002
}
  0
LINE
  5
6F6
  8
0
 10
114.7210752039245
 20
84.686791564306304
 30
0.0
 11
114.7210752039244
 21
87.495097430303815
 31
0.0
1001
ACAD
1000
ASC_BOUNDS
1002
{
1070
    19
1005
0
1002
}
  0
ARC
  5
6F7
  8
0
 10
113.38774240392441
 20
87.495097430303815
 30
0.0
 40
1.3333327999999991
 50
0.0000000000001908
 51
90.0
1001
ACAD
1000
ASC_BOUNDS
1002
{
1070
    19
1005
0
1002
}
  0
LINE
  5
6F8
  8
3
 10
130.7210752039245
 20
71.781458573416884
 30
0.0
 11
148.3694336546825
 21
71.781458573416884
 31
0.0
  0
LINE
  5
6F9
  8
0
 10
128.7210752039245
 20
72.828438230303789
 30
0.0
 11
146.55601169446339
 21
72.828438230303732
 31
0.0
  0
LINE
  5
6FA
  8
3
 10
130.7210752039245
 20
71.781458573416884
 30
0.0
 11
129.67409554703761
 21
72.828438230303789
 31
0.0
  0
LINE
  5
6FB
  8
0
 10
128.7210752039245
 20
73.829751397481573
 30
0.0
 11
128.42107520392449
 21
73.829751397481573
 31
0.0
  0
LINE
  5
6FC
  8
0
 10
128.42107520392449
 20
75.161769030303788
 30
0.0
 11
128.42107520392449
 21
75.161769030303788
 31
0.0
  0
LINE
  5
6FD
  8
0
 10
128.42107520392449
 20
75.661771830303792
 30
0.0
 11
127.75440880392451
 21
76.328438230303789
 31
0.0
1001
ACAD
1000
ASC_BOUNDS
1002
{
1070
    19
1005
0
1002
}
  0
LINE
  5
6FE
  8
0
 10
148.7210752039245
 20
71.578438230303789
 30
0.0
 11
146.55601169446339
 21
72.828438230303732
 31
0.0
  0
TEXT
  5
80A
  8
0
 62
     3
 10
0.0
 20
0.0
 30
0.0
 40
10.0
  1
SFK40BX20
  7
STANDARD1
  0
ENDSEC
  0
EOF
